  0
SECTION
  2
HEADER
  9
$ACADVER
  1
AC1015
  9
$ACADMAINTVER
 70
    20
  9
$DWGCODEPAGE
  3
ANSI_932
  9
$INSBASE
 10
0.0
 20
0.0
 30
0.0
  9
$EXTMIN
 10
187.1
 20
114.399818332
 30
0.0
  9
$EXTMAX
 10
598.4300000000001
 20
397.2764849986668
 30
0.0
  9
$LIMMIN
 10
0.0
 20
0.0
  9
$LIMMAX
 10
841.0
 20
594.0
  9
$ORTHOMODE
 70
     0
  9
$REGENMODE
 70
     1
  9
$FILLMODE
 70
     1
  9
$QTEXTMODE
 70
     0
  9
$MIRRTEXT
 70
     1
  9
$LTSCALE
 40
1.0
  9
$ATTMODE
 70
     1
  9
$TEXTSIZE
 40
2.5
  9
$TRACEWID
 40
1.0
  9
$TEXTSTYLE
  7
Standard
  9
$CLAYER
  8
0
  9
$CELTYPE
  6
ByLayer
  9
$CECOLOR
 62
   256
  9
$CELTSCALE
 40
1.0
  9
$DISPSILH
 70
     0
  9
$DIMSCALE
 40
1.0
  9
$DIMASZ
 40
2.5
  9
$DIMEXO
 40
0.625
  9
$DIMDLI
 40
3.75
  9
$DIMRND
 40
0.0
  9
$DIMDLE
 40
0.0
  9
$DIMEXE
 40
1.25
  9
$DIMTP
 40
0.0
  9
$DIMTM
 40
0.0
  9
$DIMTXT
 40
2.5
  9
$DIMCEN
 40
2.5
  9
$DIMTSZ
 40
0.0
  9
$DIMTOL
 70
     0
  9
$DIMLIM
 70
     0
  9
$DIMTIH
 70
     0
  9
$DIMTOH
 70
     0
  9
$DIMSE1
 70
     0
  9
$DIMSE2
 70
     0
  9
$DIMTAD
 70
     1
  9
$DIMZIN
 70
     8
  9
$DIMBLK
  1

  9
$DIMASO
 70
     1
  9
$DIMSHO
 70
     1
  9
$DIMPOST
  1

  9
$DIMAPOST
  1

  9
$DIMALT
 70
     0
  9
$DIMALTD
 70
     3
  9
$DIMALTF
 40
0.03937007874016
  9
$DIMLFAC
 40
1.0
  9
$DIMTOFL
 70
     1
  9
$DIMTVP
 40
0.0
  9
$DIMTIX
 70
     0
  9
$DIMSOXD
 70
     0
  9
$DIMSAH
 70
     0
  9
$DIMBLK1
  1

  9
$DIMBLK2
  1

  9
$DIMSTYLE
  2
ISO-25
  9
$DIMCLRD
 70
     0
  9
$DIMCLRE
 70
     0
  9
$DIMCLRT
 70
     0
  9
$DIMTFAC
 40
1.0
  9
$DIMGAP
 40
0.625
  9
$DIMJUST
 70
     0
  9
$DIMSD1
 70
     0
  9
$DIMSD2
 70
     0
  9
$DIMTOLJ
 70
     0
  9
$DIMTZIN
 70
     8
  9
$DIMALTZ
 70
     0
  9
$DIMALTTZ
 70
     0
  9
$DIMUPT
 70
     0
  9
$DIMDEC
 70
     2
  9
$DIMTDEC
 70
     2
  9
$DIMALTU
 70
     2
  9
$DIMALTTD
 70
     3
  9
$DIMTXSTY
  7
Standard
  9
$DIMAUNIT
 70
     0
  9
$DIMADEC
 70
     0
  9
$DIMALTRND
 40
0.0
  9
$DIMAZIN
 70
     0
  9
$DIMDSEP
 70
    46
  9
$DIMATFIT
 70
     3
  9
$DIMFRAC
 70
     0
  9
$DIMLDRBLK
  1

  9
$DIMLUNIT
 70
     2
  9
$DIMLWD
 70
    -2
  9
$DIMLWE
 70
    -2
  9
$DIMTMOVE
 70
     0
  9
$LUNITS
 70
     2
  9
$LUPREC
 70
     4
  9
$SKETCHINC
 40
1.0
  9
$FILLETRAD
 40
10.0
  9
$AUNITS
 70
     0
  9
$AUPREC
 70
     0
  9
$MENU
  1
.
  9
$ELEVATION
 40
0.0
  9
$PELEVATION
 40
0.0
  9
$THICKNESS
 40
0.0
  9
$LIMCHECK
 70
     0
  9
$CHAMFERA
 40
10.0
  9
$CHAMFERB
 40
10.0
  9
$CHAMFERC
 40
20.0
  9
$CHAMFERD
 40
0.0
  9
$SKPOLY
 70
     0
  9
$TDCREATE
 40
2457476.616514294
  9
$TDUCREATE
 40
2457476.241514294
  9
$TDUPDATE
 40
2457476.616761054
  9
$TDUUPDATE
 40
2457476.241761054
  9
$TDINDWG
 40
0.0002475926
  9
$TDUSRTIMER
 40
0.0002475926
  9
$USRTIMER
 70
     1
  9
$ANGBASE
 50
0.0
  9
$ANGDIR
 70
     0
  9
$PDMODE
 70
     0
  9
$PDSIZE
 40
0.0
  9
$PLINEWID
 40
0.0
  9
$SPLFRAME
 70
     0
  9
$SPLINETYPE
 70
     6
  9
$SPLINESEGS
 70
     8
  9
$HANDSEED
  5
37A
  9
$SURFTAB1
 70
     6
  9
$SURFTAB2
 70
     6
  9
$SURFTYPE
 70
     6
  9
$SURFU
 70
     6
  9
$SURFV
 70
     6
  9
$UCSBASE
  2

  9
$UCSNAME
  2

  9
$UCSORG
 10
0.0
 20
0.0
 30
0.0
  9
$UCSXDIR
 10
1.0
 20
0.0
 30
0.0
  9
$UCSYDIR
 10
0.0
 20
1.0
 30
0.0
  9
$UCSORTHOREF
  2

  9
$UCSORTHOVIEW
 70
     0
  9
$UCSORGTOP
 10
0.0
 20
0.0
 30
0.0
  9
$UCSORGBOTTOM
 10
0.0
 20
0.0
 30
0.0
  9
$UCSORGLEFT
 10
0.0
 20
0.0
 30
0.0
  9
$UCSORGRIGHT
 10
0.0
 20
0.0
 30
0.0
  9
$UCSORGFRONT
 10
0.0
 20
0.0
 30
0.0
  9
$UCSORGBACK
 10
0.0
 20
0.0
 30
0.0
  9
$PUCSBASE
  2

  9
$PUCSNAME
  2

  9
$PUCSORG
 10
0.0
 20
0.0
 30
0.0
  9
$PUCSXDIR
 10
1.0
 20
0.0
 30
0.0
  9
$PUCSYDIR
 10
0.0
 20
1.0
 30
0.0
  9
$PUCSORTHOREF
  2

  9
$PUCSORTHOVIEW
 70
     0
  9
$PUCSORGTOP
 10
0.0
 20
0.0
 30
0.0
  9
$PUCSORGBOTTOM
 10
0.0
 20
0.0
 30
0.0
  9
$PUCSORGLEFT
 10
0.0
 20
0.0
 30
0.0
  9
$PUCSORGRIGHT
 10
0.0
 20
0.0
 30
0.0
  9
$PUCSORGFRONT
 10
0.0
 20
0.0
 30
0.0
  9
$PUCSORGBACK
 10
0.0
 20
0.0
 30
0.0
  9
$USERI1
 70
     0
  9
$USERI2
 70
     0
  9
$USERI3
 70
     0
  9
$USERI4
 70
     0
  9
$USERI5
 70
     0
  9
$USERR1
 40
0.0
  9
$USERR2
 40
0.0
  9
$USERR3
 40
0.0
  9
$USERR4
 40
0.0
  9
$USERR5
 40
0.0
  9
$WORLDVIEW
 70
     1
  9
$SHADEDGE
 70
     3
  9
$SHADEDIF
 70
    70
  9
$TILEMODE
 70
     1
  9
$MAXACTVP
 70
    64
  9
$PINSBASE
 10
0.0
 20
0.0
 30
0.0
  9
$PLIMCHECK
 70
     0
  9
$PEXTMIN
 10
1.000000000000000E+20
 20
1.000000000000000E+20
 30
1.000000000000000E+20
  9
$PEXTMAX
 10
-1.000000000000000E+20
 20
-1.000000000000000E+20
 30
-1.000000000000000E+20
  9
$PLIMMIN
 10
0.0
 20
0.0
  9
$PLIMMAX
 10
0.0
 20
0.0
  9
$UNITMODE
 70
     0
  9
$VISRETAIN
 70
     0
  9
$PLINEGEN
 70
     0
  9
$PSLTSCALE
 70
     1
  9
$TREEDEPTH
 70
  3020
  9
$CMLSTYLE
  2
Standard
  9
$CMLJUST
 70
     0
  9
$CMLSCALE
 40
20.0
  9
$PROXYGRAPHICS
 70
     1
  9
$MEASUREMENT
 70
     1
  9
$CELWEIGHT
370
    -1
  9
$ENDCAPS
280
     0
  9
$JOINSTYLE
280
     0
  9
$LWDISPLAY
290
     0
  9
$INSUNITS
 70
     4
  9
$HYPERLINKBASE
  1

  9
$STYLESHEET
  1

  9
$XEDIT
290
     1
  9
$CEPSNTYPE
380
     0
  9
$PSTYLEMODE
290
     1
  9
$FINGERPRINTGUID
  2
{9ABB8788-87F2-271A-BEC5-88A742FAE9C8}
  9
$VERSIONGUID
  2
{A3CC9EBE-0FC5-4ED0-9041-84EFA81EC4AE}
  9
$EXTNAMES
290
     1
  9
$PSVPSCALE
 40
0.0
  9
$OLESTARTUP
290
     0
  0
ENDSEC
  0
SECTION
  2
CLASSES
  0
CLASS
  1
ACDBDICTIONARYWDFLT
  2
AcDbDictionaryWithDefault
  3
ObjectDBX Classes
 90
        0
280
     0
281
     0
  0
CLASS
  1
MATERIAL
  2
AcDbMaterial
  3
ObjectDBX Classes
 90
     1024
280
     0
281
     0
  0
CLASS
  1
VISUALSTYLE
  2
AcDbVisualStyle
  3
ObjectDBX Classes
 90
     4095
280
     0
281
     0
  0
CLASS
  1
TABLESTYLE
  2
AcDbTableStyle
  3
ObjectDBX Classes
 90
     4095
280
     0
281
     0
  0
CLASS
  1
DICTIONARYVAR
  2
AcDbDictionaryVar
  3
ObjectDBX Classes
 90
        0
280
     0
281
     0
  0
CLASS
  1
ACDBPLACEHOLDER
  2
AcDbPlaceHolder
  3
ObjectDBX Classes
 90
        0
280
     0
281
     0
  0
CLASS
  1
LAYOUT
  2
AcDbLayout
  3
ObjectDBX Classes
 90
        0
280
     0
281
     0
  0
ENDSEC
  0
SECTION
  2
TABLES
  0
TABLE
  2
VPORT
  5
8
330
0
100
AcDbSymbolTable
 70
     1
  0
VPORT
  5
29
330
8
100
AcDbSymbolTableRecord
100
AcDbViewportTableRecord
  2
*Active
 70
     0
 10
0.0
 20
0.0
 11
1.0
 21
1.0
 12
459.204803993512
 22
297.0
 13
0.0
 23
0.0
 14
10.0
 24
10.0
 15
0.0
 25
0.0
 16
0.0
 26
0.0
 36
1.0
 17
0.0
 27
0.0
 37
0.0
 40
594.0
 41
1.54614412136536
 42
50.0
 43
0.0
 44
0.0
 50
0.0
 51
0.0
 71
     0
 72
  1000
 73
     1
 74
     3
 75
     0
 76
     0
 77
     0
 78
     0
281
     0
 65
     0
110
0.0
120
0.0
130
0.0
111
1.0
121
0.0
131
0.0
112
0.0
122
1.0
132
0.0
 79
     0
146
0.0
  0
ENDTAB
  0
TABLE
  2
LTYPE
  5
5
330
0
100
AcDbSymbolTable
 70
     2
  0
LTYPE
  5
14
330
5
100
AcDbSymbolTableRecord
100
AcDbLinetypeTableRecord
  2
ByBlock
 70
     0
  3

 72
    65
 73
     0
 40
0.0
  0
LTYPE
  5
15
330
5
100
AcDbSymbolTableRecord
100
AcDbLinetypeTableRecord
  2
ByLayer
 70
     0
  3

 72
    65
 73
     0
 40
0.0
  0
LTYPE
  5
16
330
5
100
AcDbSymbolTableRecord
100
AcDbLinetypeTableRecord
  2
Continuous
 70
     0
  3
Solid line
 72
    65
 73
     0
 40
0.0
  0
LTYPE
  5
31A
330
5
100
AcDbSymbolTableRecord
100
AcDbLinetypeTableRecord
  2
LTYPE1
 70
     0
  3
CENTER
 72
    65
 73
     4
 40
5.0
 49
3.5
 74
     0
 49
-0.5
 74
     0
 49
0.5
 74
     0
 49
-0.5
 74
     0
  0
ENDTAB
  0
TABLE
  2
LAYER
  5
2
102
{ACAD_XDICTIONARY
360
361
102
}
330
0
100
AcDbSymbolTable
 70
   127
  0
LAYER
  5
10
330
2
100
AcDbSymbolTableRecord
100
AcDbLayerTableRecord
  2
0
 70
     0
 62
     7
  6
Continuous
370
    -3
390
F
  0
ENDTAB
  0
TABLE
  2
STYLE
  5
3
330
0
100
AcDbSymbolTable
 70
     2
  0
STYLE
  5
11
330
3
100
AcDbSymbolTableRecord
100
AcDbTextStyleTableRecord
  2
Standard
 70
     0
 40
0.0
 41
1.0
 50
0.0
 71
     0
 42
2.5
  3
txt.shx
  4
extfont.shx
  0
STYLE
  5
14D
330
3
100
AcDbSymbolTableRecord
100
AcDbTextStyleTableRecord
  2
KANJI0
 70
     0
 40
8.0
 41
0.75
 50
0.0
 71
     0
 42
8.0
  3
txt.shx
  4
extfont.shx
  0
ENDTAB
  0
TABLE
  2
VIEW
  5
6
330
0
100
AcDbSymbolTable
 70
     0
  0
ENDTAB
  0
TABLE
  2
UCS
  5
7
330
0
100
AcDbSymbolTable
 70
     0
  0
ENDTAB
  0
TABLE
  2
APPID
  5
9
330
0
100
AcDbSymbolTable
 70
     1
  0
APPID
  5
12
330
9
100
AcDbSymbolTableRecord
100
AcDbRegAppTableRecord
  2
ACAD
 70
     0
  0
ENDTAB
  0
TABLE
  2
DIMSTYLE
  5
A
330
0
100
AcDbSymbolTable
 70
     1
100
AcDbDimStyleTable
 71
     0
  0
DIMSTYLE
105
27
330
A
100
AcDbSymbolTableRecord
100
AcDbDimStyleTableRecord
  2
ISO-25
 70
     0
 41
2.5
 42
0.625
 43
3.75
 44
1.25
 73
     0
 74
     0
 77
     1
 78
     8
140
2.5
141
2.5
143
0.039370079
147
0.625
171
     3
172
     1
271
     2
272
     2
274
     3
284
     8
340
11
  0
ENDTAB
  0
TABLE
  2
BLOCK_RECORD
  5
1
330
0
100
AcDbSymbolTable
 70
     1
  0
BLOCK_RECORD
  5
1F
330
1
100
AcDbSymbolTableRecord
100
AcDbBlockTableRecord
  2
*Model_Space
340
22
  0
BLOCK_RECORD
  5
1B
330
1
100
AcDbSymbolTableRecord
100
AcDbBlockTableRecord
  2
*Paper_Space
340
1E
  0
BLOCK_RECORD
  5
23
330
1
100
AcDbSymbolTableRecord
100
AcDbBlockTableRecord
  2
*Paper_Space0
340
26
  0
ENDTAB
  0
ENDSEC
  0
SECTION
  2
BLOCKS
  0
BLOCK
  5
20
330
1F
100
AcDbEntity
  8
0
100
AcDbBlockBegin
  2
*Model_Space
 70
     0
 10
0.0
 20
0.0
 30
0.0
  3
*Model_Space
  1

  0
ENDBLK
  5
21
330
1F
100
AcDbEntity
  8
0
100
AcDbBlockEnd
  0
BLOCK
  5
1C
330
1B
100
AcDbEntity
 67
     1
  8
0
100
AcDbBlockBegin
  2
*Paper_Space
 70
     0
 10
0.0
 20
0.0
 30
0.0
  3
*Paper_Space
  1

  0
ENDBLK
  5
1D
330
1B
100
AcDbEntity
 67
     1
  8
0
100
AcDbBlockEnd
  0
BLOCK
  5
24
330
23
100
AcDbEntity
 67
     1
  8
0
100
AcDbBlockBegin
  2
*Paper_Space0
 70
     0
 10
0.0
 20
0.0
 30
0.0
  3
*Paper_Space0
  1

  0
ENDBLK
  5
25
330
23
100
AcDbEntity
 67
     1
  8
0
100
AcDbBlockEnd
  0
ENDSEC
  0
SECTION
  2
ENTITIES
  0
LINE
  5
A9
330
1F
100
AcDbEntity
  8
0
  6
Continuous
 62
     7
100
AcDbLine
 10
230.07
 20
125.399818332
 30
0.0
 11
256.07
 21
125.399818332
 31
0.0
  0
LINE
  5
AA
330
1F
100
AcDbEntity
  8
0
  6
Continuous
 62
     7
100
AcDbLine
 10
234.82
 20
152.399818332
 30
0.0
 11
234.82
 21
146.099818332
 31
0.0
  0
LINE
  5
AB
330
1F
100
AcDbEntity
  8
0
  6
Continuous
 62
     7
100
AcDbLine
 10
234.82
 20
146.099818332
 30
0.0
 11
251.32
 21
146.099818332
 31
0.0
  0
LINE
  5
AC
330
1F
100
AcDbEntity
  8
0
  6
Continuous
 62
     7
100
AcDbLine
 10
251.32
 20
152.399818332
 30
0.0
 11
251.32
 21
146.099818332
 31
0.0
  0
LINE
  5
AD
330
1F
100
AcDbEntity
  8
0
  6
Continuous
 62
     7
100
AcDbLine
 10
255.57
 20
152.399818332
 30
0.0
 11
255.57
 21
145.399818332
 31
0.0
  0
LINE
  5
AE
330
1F
100
AcDbEntity
  8
0
  6
Continuous
 62
     7
100
AcDbLine
 10
255.57
 20
145.399818332
 30
0.0
 11
254.57
 21
145.399818332
 31
0.0
  0
LINE
  5
AF
330
1F
100
AcDbEntity
  8
0
  6
Continuous
 62
     7
100
AcDbLine
 10
254.57
 20
145.399818332
 30
0.0
 11
254.57
 21
144.399818332
 31
0.0
  0
LINE
  5
B0
330
1F
100
AcDbEntity
  8
0
  6
Continuous
 62
     7
100
AcDbLine
 10
230.07
 20
125.399818332
 30
0.0
 11
230.07
 21
127.399818332
 31
0.0
  0
LINE
  5
B1
330
1F
100
AcDbEntity
  8
0
  6
Continuous
 62
     7
100
AcDbLine
 10
227.481542732
 20
128.894264833
 30
0.0
 11
230.07
 21
127.399818332
 31
0.0
  0
LINE
  5
B2
330
1F
100
AcDbEntity
  8
0
  6
Continuous
 62
     7
100
AcDbLine
 10
256.07
 20
125.399818332
 30
0.0
 11
256.07
 21
127.399818332
 31
0.0
  0
LINE
  5
B3
330
1F
100
AcDbEntity
  8
0
  6
Continuous
 62
     7
100
AcDbLine
 10
256.07
 20
127.399818332
 30
0.0
 11
258.658457268
 21
128.894264833
 31
0.0
  0
LINE
  5
B4
330
1F
100
AcDbEntity
  8
0
  6
Continuous
 62
     7
100
AcDbLine
 10
258.658457268
 20
128.894264833
 30
0.0
 11
258.658457268
 21
142.905371832
 31
0.0
  0
LINE
  5
B5
330
1F
100
AcDbEntity
  8
0
  6
Continuous
 62
     7
100
AcDbLine
 10
254.57
 20
144.399818332
 30
0.0
 11
256.07
 21
144.399818332
 31
0.0
  0
LINE
  5
B6
330
1F
100
AcDbEntity
  8
0
  6
Continuous
 62
     7
100
AcDbLine
 10
256.07
 20
144.399818332
 30
0.0
 11
258.658457268
 21
142.905371832
 31
0.0
  0
LINE
  5
B7
330
1F
100
AcDbEntity
  8
0
  6
Continuous
 62
     7
100
AcDbLine
 10
227.481542732
 20
128.894264833
 30
0.0
 11
227.481542732
 21
142.905371832
 31
0.0
  0
LINE
  5
B8
330
1F
100
AcDbEntity
  8
0
  6
Continuous
 62
     7
100
AcDbLine
 10
256.67
 20
144.399818332
 30
0.0
 11
256.67
 21
256.399818332
 31
0.0
  0
LINE
  5
B9
330
1F
100
AcDbEntity
  8
0
  6
Continuous
 62
     7
100
AcDbLine
 10
229.47
 20
256.399818332
 30
0.0
 11
229.47
 21
144.399818332
 31
0.0
  0
LINE
  5
BA
330
1F
100
AcDbEntity
  8
0
  6
Continuous
 62
     7
100
AcDbLine
 10
255.57
 20
248.399818332
 30
0.0
 11
255.57
 21
249.399818332
 31
0.0
  0
LINE
  5
BB
330
1F
100
AcDbEntity
  8
0
  6
Continuous
 62
     7
100
AcDbLine
 10
254.67
 20
248.399818332
 30
0.0
 11
254.67
 21
152.399818332
 31
0.0
  0
LINE
  5
BC
330
1F
100
AcDbEntity
  8
0
  6
Continuous
 62
     7
100
AcDbLine
 10
255.57
 20
152.399818332
 30
0.0
 11
255.57
 21
151.399818332
 31
0.0
  0
LINE
  5
BD
330
1F
100
AcDbEntity
  8
0
  6
Continuous
 62
     7
100
AcDbLine
 10
254.67
 20
249.399818332
 30
0.0
 11
254.67
 21
256.399818332
 31
0.0
  0
LINE
  5
BE
330
1F
100
AcDbEntity
  8
0
  6
Continuous
 62
     7
100
AcDbLine
 10
254.67
 20
151.399818332
 30
0.0
 11
254.67
 21
144.399818332
 31
0.0
  0
LINE
  5
BF
330
1F
100
AcDbEntity
  8
0
  6
Continuous
 62
     7
100
AcDbLine
 10
256.07
 20
275.399818332
 30
0.0
 11
230.07
 21
275.399818332
 31
0.0
  0
LINE
  5
C0
330
1F
100
AcDbEntity
  8
0
  6
Continuous
 62
     7
100
AcDbLine
 10
251.32
 20
254.699818332
 30
0.0
 11
234.82
 21
254.699818332
 31
0.0
  0
LINE
  5
C1
330
1F
100
AcDbEntity
  8
0
  6
Continuous
 62
     7
100
AcDbLine
 10
234.82
 20
248.399818332
 30
0.0
 11
234.82
 21
254.699818332
 31
0.0
  0
LINE
  5
C2
330
1F
100
AcDbEntity
  8
0
  6
Continuous
 62
     7
100
AcDbLine
 10
255.57
 20
255.399818332
 30
0.0
 11
255.57
 21
248.399818332
 31
0.0
  0
LINE
  5
C3
330
1F
100
AcDbEntity
  8
0
  6
Continuous
 62
     7
100
AcDbLine
 10
255.57
 20
255.399818332
 30
0.0
 11
254.57
 21
255.399818332
 31
0.0
  0
LINE
  5
C4
330
1F
100
AcDbEntity
  8
0
  6
Continuous
 62
     7
100
AcDbLine
 10
254.57
 20
255.399818332
 30
0.0
 11
254.57
 21
256.399818332
 31
0.0
  0
LINE
  5
C5
330
1F
100
AcDbEntity
  8
0
  6
Continuous
 62
     7
100
AcDbLine
 10
256.07
 20
275.399818332
 30
0.0
 11
256.07
 21
273.399818332
 31
0.0
  0
LINE
  5
C6
330
1F
100
AcDbEntity
  8
0
  6
Continuous
 62
     7
100
AcDbLine
 10
258.658457268
 20
271.905371832
 30
0.0
 11
256.07
 21
273.399818332
 31
0.0
  0
LINE
  5
C7
330
1F
100
AcDbEntity
  8
0
  6
Continuous
 62
     7
100
AcDbLine
 10
230.07
 20
275.399818332
 30
0.0
 11
230.07
 21
273.399818332
 31
0.0
  0
LINE
  5
C8
330
1F
100
AcDbEntity
  8
0
  6
Continuous
 62
     7
100
AcDbLine
 10
230.07
 20
273.399818332
 30
0.0
 11
227.481542732
 21
271.905371832
 31
0.0
  0
LINE
  5
C9
330
1F
100
AcDbEntity
  8
0
  6
Continuous
 62
     7
100
AcDbLine
 10
227.481542732
 20
271.905371832
 30
0.0
 11
227.481542732
 21
257.8942648329999
 31
0.0
  0
LINE
  5
CA
330
1F
100
AcDbEntity
  8
0
  6
Continuous
 62
     7
100
AcDbLine
 10
258.658457268
 20
271.905371832
 30
0.0
 11
258.658457268
 21
257.8942648329999
 31
0.0
  0
LINE
  5
CB
330
1F
100
AcDbEntity
  8
0
  6
Continuous
 62
     7
100
AcDbLine
 10
256.07
 20
256.399818332
 30
0.0
 11
254.57
 21
256.399818332
 31
0.0
  0
LINE
  5
CC
330
1F
100
AcDbEntity
  8
0
  6
Continuous
 62
     7
100
AcDbLine
 10
256.07
 20
256.399818332
 30
0.0
 11
258.658457268
 21
257.8942648329999
 31
0.0
  0
LINE
  5
CD
330
1F
100
AcDbEntity
  8
0
  6
Continuous
 62
     7
100
AcDbLine
 10
255.57
 20
249.399818332
 30
0.0
 11
254.67
 21
249.399818332
 31
0.0
  0
LINE
  5
CE
330
1F
100
AcDbEntity
  8
0
  6
Continuous
 62
     7
100
AcDbLine
 10
235.07
 20
248.399818332
 30
0.0
 11
230.57
 21
248.399818332
 31
0.0
  0
LINE
  5
CF
330
1F
100
AcDbEntity
  8
0
  6
Continuous
 62
     7
100
AcDbLine
 10
255.57
 20
248.399818332
 30
0.0
 11
251.07
 21
248.399818332
 31
0.0
  0
LINE
  5
D0
330
1F
100
AcDbEntity
  8
0
  6
Continuous
 62
     7
100
AcDbLine
 10
251.07
 20
248.399818332
 30
0.0
 11
255.57
 21
248.399818332
 31
0.0
  0
LINE
  5
D1
330
1F
100
AcDbEntity
  8
0
  6
Continuous
 62
     7
100
AcDbLine
 10
251.32
 20
248.399818332
 30
0.0
 11
251.32
 21
254.699818332
 31
0.0
  0
LINE
  5
D2
330
1F
100
AcDbEntity
  8
0
  6
Continuous
 62
     7
100
AcDbLine
 10
256.67
 20
256.399818332
 30
0.0
 11
254.57
 21
256.399818332
 31
0.0
  0
LINE
  5
D3
330
1F
100
AcDbEntity
  8
0
  6
Continuous
 62
     7
100
AcDbLine
 10
254.57
 20
152.399818332
 30
0.0
 11
255.57
 21
152.399818332
 31
0.0
  0
LINE
  5
D4
330
1F
100
AcDbEntity
  8
0
  6
Continuous
 62
     7
100
AcDbLine
 10
230.57
 20
152.399818332
 30
0.0
 11
235.07
 21
152.399818332
 31
0.0
  0
LINE
  5
D5
330
1F
100
AcDbEntity
  8
0
  6
Continuous
 62
     7
100
AcDbLine
 10
254.57
 20
152.399818332
 30
0.0
 11
255.57
 21
152.399818332
 31
0.0
  0
LINE
  5
D6
330
1F
100
AcDbEntity
  8
0
  6
Continuous
 62
     7
100
AcDbLine
 10
255.57
 20
151.399818332
 30
0.0
 11
254.57
 21
151.399818332
 31
0.0
  0
LINE
  5
D7
330
1F
100
AcDbEntity
  8
0
  6
Continuous
 62
     7
100
AcDbLine
 10
251.07
 20
152.399818332
 30
0.0
 11
254.57
 21
152.399818332
 31
0.0
  0
LINE
  5
D8
330
1F
100
AcDbEntity
  8
0
  6
Continuous
 62
     7
100
AcDbLine
 10
254.57
 20
144.399818332
 30
0.0
 11
256.67
 21
144.399818332
 31
0.0
  0
CIRCLE
  5
D9
330
1F
100
AcDbEntity
  8
0
  6
Continuous
 62
     7
100
AcDbCircle
 10
243.07
 20
196.258818332
 30
0.0
 40
3.25
  0
LINE
  5
DA
330
1F
100
AcDbEntity
  8
0
  6
Continuous
 62
     7
100
AcDbLine
 10
239.07
 20
146.099818332
 30
0.0
 11
239.07
 21
147.299818332
 31
0.0
  0
LINE
  5
DB
330
1F
100
AcDbEntity
  8
0
  6
Continuous
 62
     7
100
AcDbLine
 10
247.07
 20
146.099818332
 30
0.0
 11
247.07
 21
147.299818332
 31
0.0
  0
LINE
  5
DC
330
1F
100
AcDbEntity
  8
0
  6
Continuous
 62
     7
100
AcDbLine
 10
239.07
 20
146.099818332
 30
0.0
 11
247.07
 21
146.099818332
 31
0.0
  0
LINE
  5
DD
330
1F
100
AcDbEntity
  8
0
  6
Continuous
 62
     7
100
AcDbLine
 10
240.47
 20
161.099818332
 30
0.0
 11
240.47
 21
146.099818332
 31
0.0
  0
LINE
  5
DE
330
1F
100
AcDbEntity
  8
0
  6
Continuous
 62
     7
100
AcDbLine
 10
245.67
 20
146.099818332
 30
0.0
 11
245.67
 21
161.099818332
 31
0.0
  0
LINE
  5
DF
330
1F
100
AcDbEntity
  8
0
  6
Continuous
 62
     7
100
AcDbLine
 10
239.07
 20
147.299818332
 30
0.0
 11
239.97
 21
147.299818332
 31
0.0
  0
LINE
  5
E0
330
1F
100
AcDbEntity
  8
0
  6
Continuous
 62
     7
100
AcDbLine
 10
239.97
 20
147.299818332
 30
0.0
 11
239.97
 21
161.099818332
 31
0.0
  0
LINE
  5
E1
330
1F
100
AcDbEntity
  8
0
  6
Continuous
 62
     7
100
AcDbLine
 10
247.07
 20
147.299818332
 30
0.0
 11
246.17
 21
147.299818332
 31
0.0
  0
LINE
  5
E2
330
1F
100
AcDbEntity
  8
0
  6
Continuous
 62
     7
100
AcDbLine
 10
246.17
 20
147.299818332
 30
0.0
 11
246.17
 21
161.099818332
 31
0.0
  0
LINE
  5
E3
330
1F
100
AcDbEntity
  8
0
  6
Continuous
 62
     7
100
AcDbLine
 10
251.07
 20
253.299818332
 30
0.0
 11
251.07
 21
147.299818332
 31
0.0
  0
LINE
  5
E4
330
1F
100
AcDbEntity
  8
0
  6
Continuous
 62
     7
100
AcDbLine
 10
235.07
 20
147.299818332
 30
0.0
 11
235.07
 21
253.299818332
 31
0.0
  0
LINE
  5
E5
330
1F
100
AcDbEntity
  8
0
  6
Continuous
 62
     7
100
AcDbLine
 10
247.07
 20
254.499818332
 30
0.0
 11
247.07
 21
253.299818332
 31
0.0
  0
LINE
  5
E6
330
1F
100
AcDbEntity
  8
0
  6
Continuous
 62
     7
100
AcDbLine
 10
239.07
 20
254.499818332
 30
0.0
 11
239.07
 21
253.299818332
 31
0.0
  0
LINE
  5
E7
330
1F
100
AcDbEntity
  8
0
  6
Continuous
 62
     7
100
AcDbLine
 10
247.07
 20
254.499818332
 30
0.0
 11
239.07
 21
254.499818332
 31
0.0
  0
LINE
  5
E8
330
1F
100
AcDbEntity
  8
0
  6
Continuous
 62
     7
100
AcDbLine
 10
245.67
 20
239.499818332
 30
0.0
 11
245.67
 21
254.499818332
 31
0.0
  0
LINE
  5
E9
330
1F
100
AcDbEntity
  8
0
  6
Continuous
 62
     7
100
AcDbLine
 10
240.47
 20
254.499818332
 30
0.0
 11
240.47
 21
239.499818332
 31
0.0
  0
LINE
  5
EA
330
1F
100
AcDbEntity
  8
0
  6
Continuous
 62
     7
100
AcDbLine
 10
247.07
 20
253.299818332
 30
0.0
 11
246.17
 21
253.299818332
 31
0.0
  0
LINE
  5
EB
330
1F
100
AcDbEntity
  8
0
  6
Continuous
 62
     7
100
AcDbLine
 10
246.17
 20
253.299818332
 30
0.0
 11
246.17
 21
239.499818332
 31
0.0
  0
LINE
  5
EC
330
1F
100
AcDbEntity
  8
0
  6
Continuous
 62
     7
100
AcDbLine
 10
239.07
 20
253.299818332
 30
0.0
 11
239.97
 21
253.299818332
 31
0.0
  0
LINE
  5
ED
330
1F
100
AcDbEntity
  8
0
  6
Continuous
 62
     7
100
AcDbLine
 10
239.97
 20
253.299818332
 30
0.0
 11
239.97
 21
239.499818332
 31
0.0
  0
LINE
  5
EE
330
1F
100
AcDbEntity
  8
0
  6
Continuous
 62
     7
100
AcDbLine
 10
239.07
 20
253.299818332
 30
0.0
 11
235.07
 21
253.299818332
 31
0.0
  0
LINE
  5
EF
330
1F
100
AcDbEntity
  8
0
  6
Continuous
 62
     7
100
AcDbLine
 10
251.07
 20
253.299818332
 30
0.0
 11
247.07
 21
253.299818332
 31
0.0
  0
LINE
  5
F0
330
1F
100
AcDbEntity
  8
0
  6
Continuous
 62
     7
100
AcDbLine
 10
239.82
 20
147.299818332
 30
0.0
 11
239.57
 21
253.299818332
 31
0.0
  0
LINE
  5
F1
330
1F
100
AcDbEntity
  8
0
  6
Continuous
 62
     7
100
AcDbLine
 10
246.32
 20
147.299818332
 30
0.0
 11
246.57
 21
253.299818332
 31
0.0
  0
LINE
  5
F2
330
1F
100
AcDbEntity
  8
0
  6
Continuous
 62
     7
100
AcDbLine
 10
230.57
 20
248.399818332
 30
0.0
 11
230.57
 21
249.399818332
 31
0.0
  0
LINE
  5
F3
330
1F
100
AcDbEntity
  8
0
  6
Continuous
 62
     7
100
AcDbLine
 10
231.47
 20
249.399818332
 30
0.0
 11
231.47
 21
256.399818332
 31
0.0
  0
LINE
  5
F4
330
1F
100
AcDbEntity
  8
0
  6
Continuous
 62
     7
100
AcDbLine
 10
230.57
 20
255.399818332
 30
0.0
 11
230.57
 21
248.399818332
 31
0.0
  0
LINE
  5
F5
330
1F
100
AcDbEntity
  8
0
  6
Continuous
 62
     7
100
AcDbLine
 10
230.57
 20
255.399818332
 30
0.0
 11
231.57
 21
255.399818332
 31
0.0
  0
LINE
  5
F6
330
1F
100
AcDbEntity
  8
0
  6
Continuous
 62
     7
100
AcDbLine
 10
231.57
 20
255.399818332
 30
0.0
 11
231.57
 21
256.399818332
 31
0.0
  0
LINE
  5
F7
330
1F
100
AcDbEntity
  8
0
  6
Continuous
 62
     7
100
AcDbLine
 10
230.07
 20
256.399818332
 30
0.0
 11
231.57
 21
256.399818332
 31
0.0
  0
LINE
  5
F8
330
1F
100
AcDbEntity
  8
0
  6
Continuous
 62
     7
100
AcDbLine
 10
230.07
 20
256.399818332
 30
0.0
 11
227.481542732
 21
257.8942648329999
 31
0.0
  0
LINE
  5
F9
330
1F
100
AcDbEntity
  8
0
  6
Continuous
 62
     7
100
AcDbLine
 10
230.57
 20
249.399818332
 30
0.0
 11
231.47
 21
249.399818332
 31
0.0
  0
LINE
  5
FA
330
1F
100
AcDbEntity
  8
0
  6
Continuous
 62
     7
100
AcDbLine
 10
229.47
 20
256.399818332
 30
0.0
 11
231.57
 21
256.399818332
 31
0.0
  0
LINE
  5
FB
330
1F
100
AcDbEntity
  8
0
  6
Continuous
 62
     7
100
AcDbLine
 10
230.57
 20
152.399818332
 30
0.0
 11
230.57
 21
145.399818332
 31
0.0
  0
LINE
  5
FC
330
1F
100
AcDbEntity
  8
0
  6
Continuous
 62
     7
100
AcDbLine
 10
230.57
 20
145.399818332
 30
0.0
 11
231.57
 21
145.399818332
 31
0.0
  0
LINE
  5
FD
330
1F
100
AcDbEntity
  8
0
  6
Continuous
 62
     7
100
AcDbLine
 10
231.57
 20
145.399818332
 30
0.0
 11
231.57
 21
144.399818332
 31
0.0
  0
LINE
  5
FE
330
1F
100
AcDbEntity
  8
0
  6
Continuous
 62
     7
100
AcDbLine
 10
231.57
 20
144.399818332
 30
0.0
 11
230.07
 21
144.399818332
 31
0.0
  0
LINE
  5
FF
330
1F
100
AcDbEntity
  8
0
  6
Continuous
 62
     7
100
AcDbLine
 10
230.07
 20
144.399818332
 30
0.0
 11
227.481542732
 21
142.905371832
 31
0.0
  0
LINE
  5
100
330
1F
100
AcDbEntity
  8
0
  6
Continuous
 62
     7
100
AcDbLine
 10
230.57
 20
152.399818332
 30
0.0
 11
230.57
 21
151.399818332
 31
0.0
  0
LINE
  5
101
330
1F
100
AcDbEntity
  8
0
  6
Continuous
 62
     7
100
AcDbLine
 10
231.47
 20
151.399818332
 30
0.0
 11
231.47
 21
144.399818332
 31
0.0
  0
LINE
  5
102
330
1F
100
AcDbEntity
  8
0
  6
Continuous
 62
     7
100
AcDbLine
 10
231.57
 20
152.399818332
 30
0.0
 11
230.57
 21
152.399818332
 31
0.0
  0
LINE
  5
103
330
1F
100
AcDbEntity
  8
0
  6
Continuous
 62
     7
100
AcDbLine
 10
231.57
 20
152.399818332
 30
0.0
 11
230.57
 21
152.399818332
 31
0.0
  0
LINE
  5
104
330
1F
100
AcDbEntity
  8
0
  6
Continuous
 62
     7
100
AcDbLine
 10
230.57
 20
151.399818332
 30
0.0
 11
231.57
 21
151.399818332
 31
0.0
  0
LINE
  5
105
330
1F
100
AcDbEntity
  8
0
  6
Continuous
 62
     7
100
AcDbLine
 10
231.57
 20
144.399818332
 30
0.0
 11
229.47
 21
144.399818332
 31
0.0
  0
LINE
  5
106
330
1F
100
AcDbEntity
  8
0
  6
Continuous
 62
     7
100
AcDbLine
 10
239.97
 20
147.299818332
 30
0.0
 11
235.07
 21
147.299818332
 31
0.0
  0
LINE
  5
107
330
1F
100
AcDbEntity
  8
0
  6
Continuous
 62
     7
100
AcDbLine
 10
251.07
 20
147.299818332
 30
0.0
 11
246.17
 21
147.299818332
 31
0.0
  0
LINE
  5
108
330
1F
100
AcDbEntity
  8
0
  6
Continuous
 62
     7
100
AcDbLine
 10
241.57
 20
239.499818332
 30
0.0
 11
243.07
 21
240.999818332
 31
0.0
  0
LINE
  5
109
330
1F
100
AcDbEntity
  8
0
  6
Continuous
 62
     7
100
AcDbLine
 10
244.57
 20
239.499818332
 30
0.0
 11
243.07
 21
240.999818332
 31
0.0
  0
LINE
  5
10A
330
1F
100
AcDbEntity
  8
0
  6
Continuous
 62
     7
100
AcDbLine
 10
244.57
 20
239.499818332
 30
0.0
 11
246.17
 21
239.499818332
 31
0.0
  0
LINE
  5
10B
330
1F
100
AcDbEntity
  8
0
  6
Continuous
 62
     7
100
AcDbLine
 10
239.97
 20
239.499818332
 30
0.0
 11
241.57
 21
239.499818332
 31
0.0
  0
LINE
  5
10C
330
1F
100
AcDbEntity
  8
0
  6
Continuous
 62
     7
100
AcDbLine
 10
244.57
 20
161.099818332
 30
0.0
 11
243.07
 21
159.599818332
 31
0.0
  0
LINE
  5
10D
330
1F
100
AcDbEntity
  8
0
  6
Continuous
 62
     7
100
AcDbLine
 10
241.57
 20
161.099818332
 30
0.0
 11
243.07
 21
159.599818332
 31
0.0
  0
LINE
  5
10E
330
1F
100
AcDbEntity
  8
0
  6
Continuous
 62
     7
100
AcDbLine
 10
241.57
 20
161.099818332
 30
0.0
 11
239.97
 21
161.099818332
 31
0.0
  0
LINE
  5
10F
330
1F
100
AcDbEntity
  8
0
  6
Continuous
 62
     7
100
AcDbLine
 10
246.17
 20
161.099818332
 30
0.0
 11
244.57
 21
161.099818332
 31
0.0
  0
LINE
  5
110
330
1F
100
AcDbEntity
  8
0
  6
Continuous
 62
     7
100
AcDbLine
 10
243.07
 20
125.399818332
 30
0.0
 11
232.6
 21
125.399818332
 31
0.0
  0
LINE
  5
111
330
1F
100
AcDbEntity
  8
0
  6
Continuous
 62
     7
100
AcDbLine
 10
232.6
 20
125.399818332
 30
0.0
 11
233.75
 21
126.699818332
 31
0.0
  0
LINE
  5
112
330
1F
100
AcDbEntity
  8
0
  6
Continuous
 62
     7
100
AcDbLine
 10
233.75
 20
126.699818332
 30
0.0
 11
243.07
 21
126.699818332
 31
0.0
  0
LINE
  5
113
330
1F
100
AcDbEntity
  8
0
  6
Continuous
 62
     7
100
AcDbLine
 10
253.54
 20
125.399818332
 30
0.0
 11
252.39
 21
126.699818332
 31
0.0
  0
LINE
  5
114
330
1F
100
AcDbEntity
  8
0
  6
Continuous
 62
     7
100
AcDbLine
 10
252.39
 20
126.699818332
 30
0.0
 11
243.07
 21
126.699818332
 31
0.0
  0
LINE
  5
115
330
1F
100
AcDbEntity
  8
0
  6
Continuous
 62
     7
100
AcDbLine
 10
243.07
 20
125.399818332
 30
0.0
 11
253.54
 21
125.399818332
 31
0.0
  0
LINE
  5
116
330
1F
100
AcDbEntity
  8
0
  6
Continuous
 62
     7
100
AcDbLine
 10
233.131276549
 20
140.399818332
 30
0.0
 11
243.07
 21
140.399818332
 31
0.0
  0
LINE
  5
117
330
1F
100
AcDbEntity
  8
0
  6
Continuous
 62
     7
100
AcDbLine
 10
234.375031234
 20
143.399818332
 30
0.0
 11
243.07
 21
143.399818332
 31
0.0
  0
LINE
  5
118
330
1F
100
AcDbEntity
  8
0
  6
Continuous
 62
     7
100
AcDbLine
 10
253.008723451
 20
140.399818332
 30
0.0
 11
243.07
 21
140.399818332
 31
0.0
  0
LINE
  5
119
330
1F
100
AcDbEntity
  8
0
  6
Continuous
 62
     7
100
AcDbLine
 10
251.764968766
 20
143.399818332
 30
0.0
 11
243.07
 21
143.399818332
 31
0.0
  0
LINE
  5
11A
330
1F
100
AcDbEntity
  8
0
  6
Continuous
 62
     7
100
AcDbLine
 10
233.79062703
 20
126.699818332
 30
0.0
 11
234.375031234
 21
143.399818332
 31
0.0
  0
LINE
  5
11B
330
1F
100
AcDbEntity
  8
0
  6
Continuous
 62
     7
100
AcDbLine
 10
252.34937297
 20
126.699818332
 30
0.0
 11
251.764968766
 21
143.399818332
 31
0.0
  0
LINE
  5
11C
330
1F
100
AcDbEntity
  8
0
  6
Continuous
 62
     7
100
AcDbLine
 10
243.07
 20
275.399818332
 30
0.0
 11
253.54
 21
275.399818332
 31
0.0
  0
LINE
  5
11D
330
1F
100
AcDbEntity
  8
0
  6
Continuous
 62
     7
100
AcDbLine
 10
253.54
 20
275.399818332
 30
0.0
 11
252.39
 21
274.099818332
 31
0.0
  0
LINE
  5
11E
330
1F
100
AcDbEntity
  8
0
  6
Continuous
 62
     7
100
AcDbLine
 10
252.39
 20
274.099818332
 30
0.0
 11
243.07
 21
274.099818332
 31
0.0
  0
LINE
  5
11F
330
1F
100
AcDbEntity
  8
0
  6
Continuous
 62
     7
100
AcDbLine
 10
232.6
 20
275.399818332
 30
0.0
 11
233.75
 21
274.099818332
 31
0.0
  0
LINE
  5
120
330
1F
100
AcDbEntity
  8
0
  6
Continuous
 62
     7
100
AcDbLine
 10
233.75
 20
274.099818332
 30
0.0
 11
243.07
 21
274.099818332
 31
0.0
  0
LINE
  5
121
330
1F
100
AcDbEntity
  8
0
  6
Continuous
 62
     7
100
AcDbLine
 10
243.07
 20
275.399818332
 30
0.0
 11
232.6
 21
275.399818332
 31
0.0
  0
LINE
  5
122
330
1F
100
AcDbEntity
  8
0
  6
Continuous
 62
     7
100
AcDbLine
 10
253.008723451
 20
260.399818332
 30
0.0
 11
243.07
 21
260.399818332
 31
0.0
  0
LINE
  5
123
330
1F
100
AcDbEntity
  8
0
  6
Continuous
 62
     7
100
AcDbLine
 10
251.764968766
 20
257.399818332
 30
0.0
 11
243.07
 21
257.399818332
 31
0.0
  0
LINE
  5
124
330
1F
100
AcDbEntity
  8
0
  6
Continuous
 62
     7
100
AcDbLine
 10
233.131276549
 20
260.399818332
 30
0.0
 11
243.07
 21
260.399818332
 31
0.0
  0
LINE
  5
125
330
1F
100
AcDbEntity
  8
0
  6
Continuous
 62
     7
100
AcDbLine
 10
234.375031234
 20
257.399818332
 30
0.0
 11
243.07
 21
257.399818332
 31
0.0
  0
LINE
  5
126
330
1F
100
AcDbEntity
  8
0
  6
Continuous
 62
     7
100
AcDbLine
 10
252.34937297
 20
274.099818332
 30
0.0
 11
251.764968766
 21
257.399818332
 31
0.0
  0
LINE
  5
127
330
1F
100
AcDbEntity
  8
0
  6
Continuous
 62
     7
100
AcDbLine
 10
233.79062703
 20
274.099818332
 30
0.0
 11
234.375031234
 21
257.399818332
 31
0.0
  0
LINE
  5
128
330
1F
100
AcDbEntity
  8
0
  6
Continuous
 62
     7
100
AcDbLine
 10
245.57
 20
254.699818332
 30
0.0
 11
245.57
 21
257.399818332
 31
0.0
  0
LINE
  5
129
330
1F
100
AcDbEntity
  8
0
  6
Continuous
 62
     7
100
AcDbLine
 10
240.57
 20
254.699818332
 30
0.0
 11
240.57
 21
257.399818332
 31
0.0
  0
LINE
  5
12A
330
1F
100
AcDbEntity
  8
0
  6
Continuous
 62
     7
100
AcDbLine
 10
245.57
 20
146.099818332
 30
0.0
 11
245.57
 21
143.399818332
 31
0.0
  0
LINE
  5
12B
330
1F
100
AcDbEntity
  8
0
  6
Continuous
 62
     7
100
AcDbLine
 10
240.57
 20
146.099818332
 30
0.0
 11
240.57
 21
143.399818332
 31
0.0
  0
LINE
  5
12C
330
1F
100
AcDbEntity
  8
0
  6
Continuous
 62
     7
100
AcDbLine
 10
243.27
 20
254.699818332
 30
0.0
 11
235.27
 21
254.699818332
 31
0.0
  0
LINE
  5
12D
330
1F
100
AcDbEntity
  8
0
  6
Continuous
 62
     7
100
AcDbLine
 10
243.27
 20
254.699818332
 30
0.0
 11
251.27
 21
254.699818332
 31
0.0
  0
LINE
  5
12E
330
1F
100
AcDbEntity
  8
0
  6
Continuous
 62
     7
100
AcDbLine
 10
235.27
 20
254.699818332
 30
0.0
 11
235.27
 21
253.299818332
 31
0.0
  0
LINE
  5
12F
330
1F
100
AcDbEntity
  8
0
  6
Continuous
 62
     7
100
AcDbLine
 10
251.27
 20
254.699818332
 30
0.0
 11
251.27
 21
253.299818332
 31
0.0
  0
LINE
  5
130
330
1F
100
AcDbEntity
  8
0
  6
Continuous
 62
     7
100
AcDbLine
 10
251.27
 20
253.299818332
 30
0.0
 11
246.17
 21
253.299818332
 31
0.0
  0
LINE
  5
131
330
1F
100
AcDbEntity
  8
0
  6
Continuous
 62
     7
100
AcDbLine
 10
235.27
 20
253.299818332
 30
0.0
 11
239.97
 21
253.299818332
 31
0.0
  0
LINE
  5
132
330
1F
100
AcDbEntity
  8
0
  6
Continuous
 62
     7
100
AcDbLine
 10
247.07
 20
253.299818332
 30
0.0
 11
247.07
 21
254.699818332
 31
0.0
  0
LINE
  5
133
330
1F
100
AcDbEntity
  8
0
  6
Continuous
 62
     7
100
AcDbLine
 10
239.07
 20
253.299818332
 30
0.0
 11
239.07
 21
254.699818332
 31
0.0
  0
LINE
  5
134
330
1F
100
AcDbEntity
  8
0
  6
Continuous
 62
     7
100
AcDbLine
 10
232.6
 20
275.399818332
 30
0.0
 11
233.133464158
 21
260.329818332
 31
0.0
  0
LINE
  5
135
330
1F
100
AcDbEntity
  8
0
  6
Continuous
 62
     7
100
AcDbLine
 10
233.131276549
 20
260.399818332
 30
0.0
 11
234.375031234
 21
257.399818332
 31
0.0
  0
LINE
  5
136
330
1F
100
AcDbEntity
  8
0
  6
Continuous
 62
     7
100
AcDbLine
 10
253.54
 20
275.399818332
 30
0.0
 11
253.006535842
 21
260.329818332
 31
0.0
  0
LINE
  5
137
330
1F
100
AcDbEntity
  8
0
  6
Continuous
 62
     7
100
AcDbLine
 10
253.008723451
 20
260.399818332
 30
0.0
 11
251.764968766
 21
257.399818332
 31
0.0
  0
LINE
  5
138
330
1F
100
AcDbEntity
  8
0
  6
Continuous
 62
     7
100
AcDbLine
 10
243.07
 20
146.099818332
 30
0.0
 11
251.07
 21
146.099818332
 31
0.0
  0
LINE
  5
139
330
1F
100
AcDbEntity
  8
0
  6
Continuous
 62
     7
100
AcDbLine
 10
243.07
 20
146.099818332
 30
0.0
 11
235.07
 21
146.099818332
 31
0.0
  0
LINE
  5
13A
330
1F
100
AcDbEntity
  8
0
  6
Continuous
 62
     7
100
AcDbLine
 10
251.07
 20
146.099818332
 30
0.0
 11
251.07
 21
147.299818332
 31
0.0
  0
LINE
  5
13B
330
1F
100
AcDbEntity
  8
0
  6
Continuous
 62
     7
100
AcDbLine
 10
235.07
 20
146.099818332
 30
0.0
 11
235.07
 21
147.299818332
 31
0.0
  0
LINE
  5
13C
330
1F
100
AcDbEntity
  8
0
  6
Continuous
 62
     7
100
AcDbLine
 10
251.07
 20
147.299818332
 30
0.0
 11
246.17
 21
147.299818332
 31
0.0
  0
LINE
  5
13D
330
1F
100
AcDbEntity
  8
0
  6
Continuous
 62
     7
100
AcDbLine
 10
235.07
 20
147.299818332
 30
0.0
 11
239.97
 21
147.299818332
 31
0.0
  0
LINE
  5
13E
330
1F
100
AcDbEntity
  8
0
  6
Continuous
 62
     7
100
AcDbLine
 10
253.54
 20
125.399818332
 30
0.0
 11
253.006535842
 21
140.469818332
 31
0.0
  0
LINE
  5
13F
330
1F
100
AcDbEntity
  8
0
  6
Continuous
 62
     7
100
AcDbLine
 10
253.008723451
 20
140.399818332
 30
0.0
 11
251.764968766
 21
143.399818332
 31
0.0
  0
LINE
  5
140
330
1F
100
AcDbEntity
  8
0
  6
Continuous
 62
     7
100
AcDbLine
 10
232.6
 20
125.399818332
 30
0.0
 11
233.133464158
 21
140.469818332
 31
0.0
  0
LINE
  5
141
330
1F
100
AcDbEntity
  8
0
  6
Continuous
 62
     7
100
AcDbLine
 10
233.131276549
 20
140.399818332
 30
0.0
 11
234.375031234
 21
143.399818332
 31
0.0
  0
LINE
  5
142
330
1F
100
AcDbEntity
  8
0
  6
Continuous
 62
     7
100
AcDbLine
 10
258.658457268
 20
333.358818332
 30
0.0
 11
250.864228634
 21
346.858818332
 31
0.0
  0
LINE
  5
143
330
1F
100
AcDbEntity
  8
0
  6
Continuous
 62
     7
100
AcDbLine
 10
250.864228634
 20
346.858818332
 30
0.0
 11
235.275771366
 21
346.858818332
 31
0.0
  0
LINE
  5
144
330
1F
100
AcDbEntity
  8
0
  6
Continuous
 62
     7
100
AcDbLine
 10
235.275771366
 20
346.858818332
 30
0.0
 11
227.481542732
 21
333.358818332
 31
0.0
  0
LINE
  5
145
330
1F
100
AcDbEntity
  8
0
  6
Continuous
 62
     7
100
AcDbLine
 10
227.481542732
 20
333.358818332
 30
0.0
 11
235.275771366
 21
319.858818332
 31
0.0
  0
LINE
  5
146
330
1F
100
AcDbEntity
  8
0
  6
Continuous
 62
     7
100
AcDbLine
 10
235.275771366
 20
319.858818332
 30
0.0
 11
250.864228634
 21
319.858818332
 31
0.0
  0
LINE
  5
147
330
1F
100
AcDbEntity
  8
0
  6
Continuous
 62
     7
100
AcDbLine
 10
250.864228634
 20
319.858818332
 30
0.0
 11
258.658457268
 21
333.358818332
 31
0.0
  0
CIRCLE
  5
148
330
1F
100
AcDbEntity
  8
0
  6
Continuous
 62
     7
100
AcDbCircle
 10
243.07
 20
333.358818332
 30
0.0
 40
2.5
  0
CIRCLE
  5
149
330
1F
100
AcDbEntity
  8
0
  6
Continuous
 62
     7
100
AcDbCircle
 10
243.07
 20
333.358818332
 30
0.0
 40
13.0
  0
CIRCLE
  5
14A
330
1F
100
AcDbEntity
  8
0
  6
Continuous
 62
     7
100
AcDbCircle
 10
243.07
 20
333.358818332
 30
0.0
 40
9.32
  0
CIRCLE
  5
14B
330
1F
100
AcDbEntity
  8
0
  6
Continuous
 62
     7
100
AcDbCircle
 10
243.07
 20
333.358818332
 30
0.0
 40
10.47
  0
MTEXT
  5
14C
330
1F
100
AcDbEntity
  8
0
  6
Continuous
 62
     7
100
AcDbMText
 10
187.1
 20
389.809818332
 30
0.0
 40
8.0
 41
156.0
 71
     7
 72
     1
  1
\W0.750;ＧＤＲ１０１ＤＤＨＥＡＡＡ
  7
KANJI0
 73
     1
 44
1.0
1001
ACAD
1000
MTEXTBEGIN
1070
    73
1070
     1
1070
    44
1040
1.0
1070
    74
1070
     0
1000
MTEXTEND
  0
LINE
  5
14E
330
1F
100
AcDbEntity
  8
0
  6
Continuous
 62
     7
100
AcDbLine
 10
386.47
 20
152.399818332
 30
0.0
 11
386.47
 21
146.099818332
 31
0.0
  0
LINE
  5
14F
330
1F
100
AcDbEntity
  8
0
  6
Continuous
 62
     7
100
AcDbLine
 10
386.47
 20
146.099818332
 30
0.0
 11
402.97
 21
146.099818332
 31
0.0
  0
LINE
  5
150
330
1F
100
AcDbEntity
  8
0
  6
Continuous
 62
     7
100
AcDbLine
 10
402.97
 20
152.399818332
 30
0.0
 11
402.97
 21
146.099818332
 31
0.0
  0
LINE
  5
151
330
1F
100
AcDbEntity
  8
0
  6
Continuous
 62
     7
100
AcDbLine
 10
407.22
 20
152.399818332
 30
0.0
 11
407.22
 21
145.399818332
 31
0.0
  0
LINE
  5
152
330
1F
100
AcDbEntity
  8
0
  6
Continuous
 62
     7
100
AcDbLine
 10
407.22
 20
145.399818332
 30
0.0
 11
406.22
 21
145.399818332
 31
0.0
  0
LINE
  5
153
330
1F
100
AcDbEntity
  8
0
  6
Continuous
 62
     7
100
AcDbLine
 10
406.22
 20
145.399818332
 30
0.0
 11
406.22
 21
144.399818332
 31
0.0
  0
LINE
  5
154
330
1F
100
AcDbEntity
  8
0
  6
Continuous
 62
     7
100
AcDbLine
 10
381.72
 20
125.399818332
 30
0.0
 11
381.72
 21
127.399818332
 31
0.0
  0
LINE
  5
155
330
1F
100
AcDbEntity
  8
0
  6
Continuous
 62
     7
100
AcDbLine
 10
379.131542732
 20
128.894264833
 30
0.0
 11
381.72
 21
127.399818332
 31
0.0
  0
LINE
  5
156
330
1F
100
AcDbEntity
  8
0
  6
Continuous
 62
     7
100
AcDbLine
 10
407.72
 20
125.399818332
 30
0.0
 11
407.72
 21
127.399818332
 31
0.0
  0
LINE
  5
157
330
1F
100
AcDbEntity
  8
0
  6
Continuous
 62
     7
100
AcDbLine
 10
407.72
 20
127.399818332
 30
0.0
 11
410.308457268
 21
128.894264833
 31
0.0
  0
LINE
  5
158
330
1F
100
AcDbEntity
  8
0
  6
Continuous
 62
     7
100
AcDbLine
 10
410.308457268
 20
128.894264833
 30
0.0
 11
410.308457268
 21
142.905371832
 31
0.0
  0
LINE
  5
159
330
1F
100
AcDbEntity
  8
0
  6
Continuous
 62
     7
100
AcDbLine
 10
406.22
 20
144.399818332
 30
0.0
 11
407.72
 21
144.399818332
 31
0.0
  0
LINE
  5
15A
330
1F
100
AcDbEntity
  8
0
  6
Continuous
 62
     7
100
AcDbLine
 10
407.72
 20
144.399818332
 30
0.0
 11
410.308457268
 21
142.905371832
 31
0.0
  0
LINE
  5
15B
330
1F
100
AcDbEntity
  8
0
  6
Continuous
 62
     7
100
AcDbLine
 10
379.131542732
 20
128.894264833
 30
0.0
 11
379.131542732
 21
142.905371832
 31
0.0
  0
LINE
  5
15C
330
1F
100
AcDbEntity
  8
0
  6
Continuous
 62
     7
100
AcDbLine
 10
408.3199999999999
 20
144.399818332
 30
0.0
 11
408.3199999999999
 21
256.399818332
 31
0.0
  0
LINE
  5
15D
330
1F
100
AcDbEntity
  8
0
  6
Continuous
 62
     7
100
AcDbLine
 10
381.12
 20
256.399818332
 30
0.0
 11
381.12
 21
144.399818332
 31
0.0
  0
LINE
  5
15E
330
1F
100
AcDbEntity
  8
0
  6
Continuous
 62
     7
100
AcDbLine
 10
407.22
 20
248.399818332
 30
0.0
 11
407.22
 21
249.399818332
 31
0.0
  0
LINE
  5
15F
330
1F
100
AcDbEntity
  8
0
  6
Continuous
 62
     7
100
AcDbLine
 10
406.32
 20
248.399818332
 30
0.0
 11
406.32
 21
152.399818332
 31
0.0
  0
LINE
  5
160
330
1F
100
AcDbEntity
  8
0
  6
Continuous
 62
     7
100
AcDbLine
 10
407.22
 20
152.399818332
 30
0.0
 11
407.22
 21
151.399818332
 31
0.0
  0
LINE
  5
161
330
1F
100
AcDbEntity
  8
0
  6
Continuous
 62
     7
100
AcDbLine
 10
406.32
 20
249.399818332
 30
0.0
 11
406.32
 21
256.399818332
 31
0.0
  0
LINE
  5
162
330
1F
100
AcDbEntity
  8
0
  6
Continuous
 62
     7
100
AcDbLine
 10
406.32
 20
151.399818332
 30
0.0
 11
406.32
 21
144.399818332
 31
0.0
  0
LINE
  5
163
330
1F
100
AcDbEntity
  8
0
  6
Continuous
 62
     7
100
AcDbLine
 10
402.97
 20
254.699818332
 30
0.0
 11
386.47
 21
254.699818332
 31
0.0
  0
LINE
  5
164
330
1F
100
AcDbEntity
  8
0
  6
Continuous
 62
     7
100
AcDbLine
 10
386.47
 20
248.399818332
 30
0.0
 11
386.47
 21
254.699818332
 31
0.0
  0
LINE
  5
165
330
1F
100
AcDbEntity
  8
0
  6
Continuous
 62
     7
100
AcDbLine
 10
407.22
 20
255.399818332
 30
0.0
 11
407.22
 21
248.399818332
 31
0.0
  0
LINE
  5
166
330
1F
100
AcDbEntity
  8
0
  6
Continuous
 62
     7
100
AcDbLine
 10
407.22
 20
255.399818332
 30
0.0
 11
406.22
 21
255.399818332
 31
0.0
  0
LINE
  5
167
330
1F
100
AcDbEntity
  8
0
  6
Continuous
 62
     7
100
AcDbLine
 10
406.22
 20
255.399818332
 30
0.0
 11
406.22
 21
256.399818332
 31
0.0
  0
LINE
  5
168
330
1F
100
AcDbEntity
  8
0
  6
Continuous
 62
     7
100
AcDbLine
 10
407.72
 20
275.399818332
 30
0.0
 11
407.72
 21
273.399818332
 31
0.0
  0
LINE
  5
169
330
1F
100
AcDbEntity
  8
0
  6
Continuous
 62
     7
100
AcDbLine
 10
410.308457268
 20
271.905371832
 30
0.0
 11
407.72
 21
273.399818332
 31
0.0
  0
LINE
  5
16A
330
1F
100
AcDbEntity
  8
0
  6
Continuous
 62
     7
100
AcDbLine
 10
381.72
 20
275.399818332
 30
0.0
 11
381.72
 21
273.399818332
 31
0.0
  0
LINE
  5
16B
330
1F
100
AcDbEntity
  8
0
  6
Continuous
 62
     7
100
AcDbLine
 10
381.72
 20
273.399818332
 30
0.0
 11
379.131542732
 21
271.905371832
 31
0.0
  0
LINE
  5
16C
330
1F
100
AcDbEntity
  8
0
  6
Continuous
 62
     7
100
AcDbLine
 10
379.131542732
 20
271.905371832
 30
0.0
 11
379.131542732
 21
257.8942648329999
 31
0.0
  0
LINE
  5
16D
330
1F
100
AcDbEntity
  8
0
  6
Continuous
 62
     7
100
AcDbLine
 10
410.308457268
 20
271.905371832
 30
0.0
 11
410.308457268
 21
257.8942648329999
 31
0.0
  0
LINE
  5
16E
330
1F
100
AcDbEntity
  8
0
  6
Continuous
 62
     7
100
AcDbLine
 10
407.72
 20
256.399818332
 30
0.0
 11
406.22
 21
256.399818332
 31
0.0
  0
LINE
  5
16F
330
1F
100
AcDbEntity
  8
0
  6
Continuous
 62
     7
100
AcDbLine
 10
407.72
 20
256.399818332
 30
0.0
 11
410.308457268
 21
257.8942648329999
 31
0.0
  0
LINE
  5
170
330
1F
100
AcDbEntity
  8
0
  6
Continuous
 62
     7
100
AcDbLine
 10
407.22
 20
249.399818332
 30
0.0
 11
406.32
 21
249.399818332
 31
0.0
  0
LINE
  5
171
330
1F
100
AcDbEntity
  8
0
  6
Continuous
 62
     7
100
AcDbLine
 10
386.72
 20
248.399818332
 30
0.0
 11
382.22
 21
248.399818332
 31
0.0
  0
LINE
  5
172
330
1F
100
AcDbEntity
  8
0
  6
Continuous
 62
     7
100
AcDbLine
 10
407.22
 20
248.399818332
 30
0.0
 11
402.72
 21
248.399818332
 31
0.0
  0
LINE
  5
173
330
1F
100
AcDbEntity
  8
0
  6
Continuous
 62
     7
100
AcDbLine
 10
402.72
 20
248.399818332
 30
0.0
 11
407.22
 21
248.399818332
 31
0.0
  0
LINE
  5
174
330
1F
100
AcDbEntity
  8
0
  6
Continuous
 62
     7
100
AcDbLine
 10
402.97
 20
248.399818332
 30
0.0
 11
402.97
 21
254.699818332
 31
0.0
  0
LINE
  5
175
330
1F
100
AcDbEntity
  8
0
  6
Continuous
 62
     7
100
AcDbLine
 10
408.3199999999999
 20
256.399818332
 30
0.0
 11
406.22
 21
256.399818332
 31
0.0
  0
LINE
  5
176
330
1F
100
AcDbEntity
  8
0
  6
Continuous
 62
     7
100
AcDbLine
 10
406.22
 20
152.399818332
 30
0.0
 11
407.22
 21
152.399818332
 31
0.0
  0
LINE
  5
177
330
1F
100
AcDbEntity
  8
0
  6
Continuous
 62
     7
100
AcDbLine
 10
382.22
 20
152.399818332
 30
0.0
 11
386.72
 21
152.399818332
 31
0.0
  0
LINE
  5
178
330
1F
100
AcDbEntity
  8
0
  6
Continuous
 62
     7
100
AcDbLine
 10
406.22
 20
152.399818332
 30
0.0
 11
407.22
 21
152.399818332
 31
0.0
  0
LINE
  5
179
330
1F
100
AcDbEntity
  8
0
  6
Continuous
 62
     7
100
AcDbLine
 10
407.22
 20
151.399818332
 30
0.0
 11
406.22
 21
151.399818332
 31
0.0
  0
LINE
  5
17A
330
1F
100
AcDbEntity
  8
0
  6
Continuous
 62
     7
100
AcDbLine
 10
402.72
 20
152.399818332
 30
0.0
 11
406.22
 21
152.399818332
 31
0.0
  0
LINE
  5
17B
330
1F
100
AcDbEntity
  8
0
  6
Continuous
 62
     7
100
AcDbLine
 10
406.22
 20
144.399818332
 30
0.0
 11
408.3199999999999
 21
144.399818332
 31
0.0
  0
CIRCLE
  5
17C
330
1F
100
AcDbEntity
  8
0
  6
Continuous
 62
     7
100
AcDbCircle
 10
394.72
 20
196.258818332
 30
0.0
 40
3.25
  0
LINE
  5
17D
330
1F
100
AcDbEntity
  8
0
  6
Continuous
 62
     7
100
AcDbLine
 10
390.72
 20
146.099818332
 30
0.0
 11
390.72
 21
147.299818332
 31
0.0
  0
LINE
  5
17E
330
1F
100
AcDbEntity
  8
0
  6
Continuous
 62
     7
100
AcDbLine
 10
398.7200000000001
 20
146.099818332
 30
0.0
 11
398.7200000000001
 21
147.299818332
 31
0.0
  0
LINE
  5
17F
330
1F
100
AcDbEntity
  8
0
  6
Continuous
 62
     7
100
AcDbLine
 10
390.72
 20
146.099818332
 30
0.0
 11
398.7200000000001
 21
146.099818332
 31
0.0
  0
LINE
  5
180
330
1F
100
AcDbEntity
  8
0
  6
Continuous
 62
     7
100
AcDbLine
 10
392.12
 20
161.099818332
 30
0.0
 11
392.12
 21
146.099818332
 31
0.0
  0
LINE
  5
181
330
1F
100
AcDbEntity
  8
0
  6
Continuous
 62
     7
100
AcDbLine
 10
397.32
 20
146.099818332
 30
0.0
 11
397.32
 21
161.099818332
 31
0.0
  0
LINE
  5
182
330
1F
100
AcDbEntity
  8
0
  6
Continuous
 62
     7
100
AcDbLine
 10
390.72
 20
147.299818332
 30
0.0
 11
391.62
 21
147.299818332
 31
0.0
  0
LINE
  5
183
330
1F
100
AcDbEntity
  8
0
  6
Continuous
 62
     7
100
AcDbLine
 10
391.62
 20
147.299818332
 30
0.0
 11
391.62
 21
161.099818332
 31
0.0
  0
LINE
  5
184
330
1F
100
AcDbEntity
  8
0
  6
Continuous
 62
     7
100
AcDbLine
 10
398.7200000000001
 20
147.299818332
 30
0.0
 11
397.82
 21
147.299818332
 31
0.0
  0
LINE
  5
185
330
1F
100
AcDbEntity
  8
0
  6
Continuous
 62
     7
100
AcDbLine
 10
397.82
 20
147.299818332
 30
0.0
 11
397.82
 21
161.099818332
 31
0.0
  0
LINE
  5
186
330
1F
100
AcDbEntity
  8
0
  6
Continuous
 62
     7
100
AcDbLine
 10
402.72
 20
253.299818332
 30
0.0
 11
402.72
 21
147.299818332
 31
0.0
  0
LINE
  5
187
330
1F
100
AcDbEntity
  8
0
  6
Continuous
 62
     7
100
AcDbLine
 10
386.72
 20
147.299818332
 30
0.0
 11
386.72
 21
253.299818332
 31
0.0
  0
LINE
  5
188
330
1F
100
AcDbEntity
  8
0
  6
Continuous
 62
     7
100
AcDbLine
 10
398.7200000000001
 20
254.499818332
 30
0.0
 11
398.7200000000001
 21
253.299818332
 31
0.0
  0
LINE
  5
189
330
1F
100
AcDbEntity
  8
0
  6
Continuous
 62
     7
100
AcDbLine
 10
390.72
 20
254.499818332
 30
0.0
 11
390.72
 21
253.299818332
 31
0.0
  0
LINE
  5
18A
330
1F
100
AcDbEntity
  8
0
  6
Continuous
 62
     7
100
AcDbLine
 10
398.7200000000001
 20
254.499818332
 30
0.0
 11
390.72
 21
254.499818332
 31
0.0
  0
LINE
  5
18B
330
1F
100
AcDbEntity
  8
0
  6
Continuous
 62
     7
100
AcDbLine
 10
397.32
 20
239.499818332
 30
0.0
 11
397.32
 21
254.499818332
 31
0.0
  0
LINE
  5
18C
330
1F
100
AcDbEntity
  8
0
  6
Continuous
 62
     7
100
AcDbLine
 10
392.12
 20
254.499818332
 30
0.0
 11
392.12
 21
239.499818332
 31
0.0
  0
LINE
  5
18D
330
1F
100
AcDbEntity
  8
0
  6
Continuous
 62
     7
100
AcDbLine
 10
398.7200000000001
 20
253.299818332
 30
0.0
 11
397.82
 21
253.299818332
 31
0.0
  0
LINE
  5
18E
330
1F
100
AcDbEntity
  8
0
  6
Continuous
 62
     7
100
AcDbLine
 10
397.82
 20
253.299818332
 30
0.0
 11
397.82
 21
239.499818332
 31
0.0
  0
LINE
  5
18F
330
1F
100
AcDbEntity
  8
0
  6
Continuous
 62
     7
100
AcDbLine
 10
390.72
 20
253.299818332
 30
0.0
 11
391.62
 21
253.299818332
 31
0.0
  0
LINE
  5
190
330
1F
100
AcDbEntity
  8
0
  6
Continuous
 62
     7
100
AcDbLine
 10
391.62
 20
253.299818332
 30
0.0
 11
391.62
 21
239.499818332
 31
0.0
  0
LINE
  5
191
330
1F
100
AcDbEntity
  8
0
  6
Continuous
 62
     7
100
AcDbLine
 10
390.72
 20
253.299818332
 30
0.0
 11
386.72
 21
253.299818332
 31
0.0
  0
LINE
  5
192
330
1F
100
AcDbEntity
  8
0
  6
Continuous
 62
     7
100
AcDbLine
 10
402.72
 20
253.299818332
 30
0.0
 11
398.7200000000001
 21
253.299818332
 31
0.0
  0
LINE
  5
193
330
1F
100
AcDbEntity
  8
0
  6
Continuous
 62
     7
100
AcDbLine
 10
391.47
 20
147.299818332
 30
0.0
 11
391.22
 21
253.299818332
 31
0.0
  0
LINE
  5
194
330
1F
100
AcDbEntity
  8
0
  6
Continuous
 62
     7
100
AcDbLine
 10
397.97
 20
147.299818332
 30
0.0
 11
398.22
 21
253.299818332
 31
0.0
  0
LINE
  5
195
330
1F
100
AcDbEntity
  8
0
  6
Continuous
 62
     7
100
AcDbLine
 10
382.22
 20
248.399818332
 30
0.0
 11
382.22
 21
249.399818332
 31
0.0
  0
LINE
  5
196
330
1F
100
AcDbEntity
  8
0
  6
Continuous
 62
     7
100
AcDbLine
 10
383.12
 20
249.399818332
 30
0.0
 11
383.12
 21
256.399818332
 31
0.0
  0
LINE
  5
197
330
1F
100
AcDbEntity
  8
0
  6
Continuous
 62
     7
100
AcDbLine
 10
382.22
 20
255.399818332
 30
0.0
 11
382.22
 21
248.399818332
 31
0.0
  0
LINE
  5
198
330
1F
100
AcDbEntity
  8
0
  6
Continuous
 62
     7
100
AcDbLine
 10
382.22
 20
255.399818332
 30
0.0
 11
383.22
 21
255.399818332
 31
0.0
  0
LINE
  5
199
330
1F
100
AcDbEntity
  8
0
  6
Continuous
 62
     7
100
AcDbLine
 10
383.22
 20
255.399818332
 30
0.0
 11
383.22
 21
256.399818332
 31
0.0
  0
LINE
  5
19A
330
1F
100
AcDbEntity
  8
0
  6
Continuous
 62
     7
100
AcDbLine
 10
381.72
 20
256.399818332
 30
0.0
 11
383.22
 21
256.399818332
 31
0.0
  0
LINE
  5
19B
330
1F
100
AcDbEntity
  8
0
  6
Continuous
 62
     7
100
AcDbLine
 10
381.72
 20
256.399818332
 30
0.0
 11
379.131542732
 21
257.8942648329999
 31
0.0
  0
LINE
  5
19C
330
1F
100
AcDbEntity
  8
0
  6
Continuous
 62
     7
100
AcDbLine
 10
382.22
 20
249.399818332
 30
0.0
 11
383.12
 21
249.399818332
 31
0.0
  0
LINE
  5
19D
330
1F
100
AcDbEntity
  8
0
  6
Continuous
 62
     7
100
AcDbLine
 10
381.12
 20
256.399818332
 30
0.0
 11
383.22
 21
256.399818332
 31
0.0
  0
LINE
  5
19E
330
1F
100
AcDbEntity
  8
0
  6
Continuous
 62
     7
100
AcDbLine
 10
382.22
 20
152.399818332
 30
0.0
 11
382.22
 21
145.399818332
 31
0.0
  0
LINE
  5
19F
330
1F
100
AcDbEntity
  8
0
  6
Continuous
 62
     7
100
AcDbLine
 10
382.22
 20
145.399818332
 30
0.0
 11
383.22
 21
145.399818332
 31
0.0
  0
LINE
  5
1A0
330
1F
100
AcDbEntity
  8
0
  6
Continuous
 62
     7
100
AcDbLine
 10
383.22
 20
145.399818332
 30
0.0
 11
383.22
 21
144.399818332
 31
0.0
  0
LINE
  5
1A1
330
1F
100
AcDbEntity
  8
0
  6
Continuous
 62
     7
100
AcDbLine
 10
383.22
 20
144.399818332
 30
0.0
 11
381.72
 21
144.399818332
 31
0.0
  0
LINE
  5
1A2
330
1F
100
AcDbEntity
  8
0
  6
Continuous
 62
     7
100
AcDbLine
 10
381.72
 20
144.399818332
 30
0.0
 11
379.131542732
 21
142.905371832
 31
0.0
  0
LINE
  5
1A3
330
1F
100
AcDbEntity
  8
0
  6
Continuous
 62
     7
100
AcDbLine
 10
382.22
 20
152.399818332
 30
0.0
 11
382.22
 21
151.399818332
 31
0.0
  0
LINE
  5
1A4
330
1F
100
AcDbEntity
  8
0
  6
Continuous
 62
     7
100
AcDbLine
 10
383.12
 20
151.399818332
 30
0.0
 11
383.12
 21
144.399818332
 31
0.0
  0
LINE
  5
1A5
330
1F
100
AcDbEntity
  8
0
  6
Continuous
 62
     7
100
AcDbLine
 10
383.22
 20
152.399818332
 30
0.0
 11
382.22
 21
152.399818332
 31
0.0
  0
LINE
  5
1A6
330
1F
100
AcDbEntity
  8
0
  6
Continuous
 62
     7
100
AcDbLine
 10
383.22
 20
152.399818332
 30
0.0
 11
382.22
 21
152.399818332
 31
0.0
  0
LINE
  5
1A7
330
1F
100
AcDbEntity
  8
0
  6
Continuous
 62
     7
100
AcDbLine
 10
382.22
 20
151.399818332
 30
0.0
 11
383.22
 21
151.399818332
 31
0.0
  0
LINE
  5
1A8
330
1F
100
AcDbEntity
  8
0
  6
Continuous
 62
     7
100
AcDbLine
 10
383.22
 20
144.399818332
 30
0.0
 11
381.12
 21
144.399818332
 31
0.0
  0
LINE
  5
1A9
330
1F
100
AcDbEntity
  8
0
  6
Continuous
 62
     7
100
AcDbLine
 10
391.62
 20
147.299818332
 30
0.0
 11
386.72
 21
147.299818332
 31
0.0
  0
LINE
  5
1AA
330
1F
100
AcDbEntity
  8
0
  6
Continuous
 62
     7
100
AcDbLine
 10
402.72
 20
147.299818332
 30
0.0
 11
397.82
 21
147.299818332
 31
0.0
  0
LINE
  5
1AB
330
1F
100
AcDbEntity
  8
0
  6
Continuous
 62
     7
100
AcDbLine
 10
393.22
 20
239.499818332
 30
0.0
 11
394.72
 21
240.999818332
 31
0.0
  0
LINE
  5
1AC
330
1F
100
AcDbEntity
  8
0
  6
Continuous
 62
     7
100
AcDbLine
 10
396.22
 20
239.499818332
 30
0.0
 11
394.72
 21
240.999818332
 31
0.0
  0
LINE
  5
1AD
330
1F
100
AcDbEntity
  8
0
  6
Continuous
 62
     7
100
AcDbLine
 10
396.22
 20
239.499818332
 30
0.0
 11
397.82
 21
239.499818332
 31
0.0
  0
LINE
  5
1AE
330
1F
100
AcDbEntity
  8
0
  6
Continuous
 62
     7
100
AcDbLine
 10
391.62
 20
239.499818332
 30
0.0
 11
393.22
 21
239.499818332
 31
0.0
  0
LINE
  5
1AF
330
1F
100
AcDbEntity
  8
0
  6
Continuous
 62
     7
100
AcDbLine
 10
396.22
 20
161.099818332
 30
0.0
 11
394.72
 21
159.599818332
 31
0.0
  0
LINE
  5
1B0
330
1F
100
AcDbEntity
  8
0
  6
Continuous
 62
     7
100
AcDbLine
 10
393.22
 20
161.099818332
 30
0.0
 11
394.72
 21
159.599818332
 31
0.0
  0
LINE
  5
1B1
330
1F
100
AcDbEntity
  8
0
  6
Continuous
 62
     7
100
AcDbLine
 10
393.22
 20
161.099818332
 30
0.0
 11
391.62
 21
161.099818332
 31
0.0
  0
LINE
  5
1B2
330
1F
100
AcDbEntity
  8
0
  6
Continuous
 62
     7
100
AcDbLine
 10
397.82
 20
161.099818332
 30
0.0
 11
396.22
 21
161.099818332
 31
0.0
  0
LINE
  5
1B3
330
1F
100
AcDbEntity
  8
0
  6
Continuous
 62
     7
100
AcDbLine
 10
384.25
 20
125.399818332
 30
0.0
 11
385.4
 21
126.699818332
 31
0.0
  0
LINE
  5
1B4
330
1F
100
AcDbEntity
  8
0
  6
Continuous
 62
     7
100
AcDbLine
 10
405.1899999999999
 20
125.399818332
 30
0.0
 11
404.0399999999999
 21
126.699818332
 31
0.0
  0
LINE
  5
1B5
330
1F
100
AcDbEntity
  8
0
  6
Continuous
 62
     7
100
AcDbLine
 10
384.7812765490001
 20
140.399818332
 30
0.0
 11
394.72
 21
140.399818332
 31
0.0
  0
LINE
  5
1B6
330
1F
100
AcDbEntity
  8
0
  6
Continuous
 62
     7
100
AcDbLine
 10
386.025031234
 20
143.399818332
 30
0.0
 11
394.72
 21
143.399818332
 31
0.0
  0
LINE
  5
1B7
330
1F
100
AcDbEntity
  8
0
  6
Continuous
 62
     7
100
AcDbLine
 10
404.6587234509999
 20
140.399818332
 30
0.0
 11
394.72
 21
140.399818332
 31
0.0
  0
LINE
  5
1B8
330
1F
100
AcDbEntity
  8
0
  6
Continuous
 62
     7
100
AcDbLine
 10
403.4149687659999
 20
143.399818332
 30
0.0
 11
394.72
 21
143.399818332
 31
0.0
  0
LINE
  5
1B9
330
1F
100
AcDbEntity
  8
0
  6
Continuous
 62
     7
100
AcDbLine
 10
385.44062703
 20
126.699818332
 30
0.0
 11
386.025031234
 21
143.399818332
 31
0.0
  0
LINE
  5
1BA
330
1F
100
AcDbEntity
  8
0
  6
Continuous
 62
     7
100
AcDbLine
 10
403.9993729699999
 20
126.699818332
 30
0.0
 11
403.4149687659999
 21
143.399818332
 31
0.0
  0
LINE
  5
1BB
330
1F
100
AcDbEntity
  8
0
  6
Continuous
 62
     7
100
AcDbLine
 10
405.1899999999999
 20
275.399818332
 30
0.0
 11
404.0399999999999
 21
274.099818332
 31
0.0
  0
LINE
  5
1BC
330
1F
100
AcDbEntity
  8
0
  6
Continuous
 62
     7
100
AcDbLine
 10
384.25
 20
275.399818332
 30
0.0
 11
385.4
 21
274.099818332
 31
0.0
  0
LINE
  5
1BD
330
1F
100
AcDbEntity
  8
0
  6
Continuous
 62
     7
100
AcDbLine
 10
404.6587234509999
 20
260.399818332
 30
0.0
 11
394.72
 21
260.399818332
 31
0.0
  0
LINE
  5
1BE
330
1F
100
AcDbEntity
  8
0
  6
Continuous
 62
     7
100
AcDbLine
 10
403.4149687659999
 20
257.399818332
 30
0.0
 11
394.72
 21
257.399818332
 31
0.0
  0
LINE
  5
1BF
330
1F
100
AcDbEntity
  8
0
  6
Continuous
 62
     7
100
AcDbLine
 10
384.7812765490001
 20
260.399818332
 30
0.0
 11
394.72
 21
260.399818332
 31
0.0
  0
LINE
  5
1C0
330
1F
100
AcDbEntity
  8
0
  6
Continuous
 62
     7
100
AcDbLine
 10
386.025031234
 20
257.399818332
 30
0.0
 11
394.72
 21
257.399818332
 31
0.0
  0
LINE
  5
1C1
330
1F
100
AcDbEntity
  8
0
  6
Continuous
 62
     7
100
AcDbLine
 10
403.9993729699999
 20
274.099818332
 30
0.0
 11
403.4149687659999
 21
257.399818332
 31
0.0
  0
LINE
  5
1C2
330
1F
100
AcDbEntity
  8
0
  6
Continuous
 62
     7
100
AcDbLine
 10
385.44062703
 20
274.099818332
 30
0.0
 11
386.025031234
 21
257.399818332
 31
0.0
  0
LINE
  5
1C3
330
1F
100
AcDbEntity
  8
0
  6
Continuous
 62
     7
100
AcDbLine
 10
397.22
 20
254.699818332
 30
0.0
 11
397.22
 21
257.399818332
 31
0.0
  0
LINE
  5
1C4
330
1F
100
AcDbEntity
  8
0
  6
Continuous
 62
     7
100
AcDbLine
 10
392.2200000000001
 20
254.699818332
 30
0.0
 11
392.2200000000001
 21
257.399818332
 31
0.0
  0
LINE
  5
1C5
330
1F
100
AcDbEntity
  8
0
  6
Continuous
 62
     7
100
AcDbLine
 10
397.22
 20
146.099818332
 30
0.0
 11
397.22
 21
143.399818332
 31
0.0
  0
LINE
  5
1C6
330
1F
100
AcDbEntity
  8
0
  6
Continuous
 62
     7
100
AcDbLine
 10
392.2200000000001
 20
146.099818332
 30
0.0
 11
392.2200000000001
 21
143.399818332
 31
0.0
  0
LINE
  5
1C7
330
1F
100
AcDbEntity
  8
0
  6
Continuous
 62
     7
100
AcDbLine
 10
394.92
 20
254.699818332
 30
0.0
 11
386.92
 21
254.699818332
 31
0.0
  0
LINE
  5
1C8
330
1F
100
AcDbEntity
  8
0
  6
Continuous
 62
     7
100
AcDbLine
 10
394.92
 20
254.699818332
 30
0.0
 11
402.92
 21
254.699818332
 31
0.0
  0
LINE
  5
1C9
330
1F
100
AcDbEntity
  8
0
  6
Continuous
 62
     7
100
AcDbLine
 10
386.92
 20
254.699818332
 30
0.0
 11
386.92
 21
253.299818332
 31
0.0
  0
LINE
  5
1CA
330
1F
100
AcDbEntity
  8
0
  6
Continuous
 62
     7
100
AcDbLine
 10
402.92
 20
254.699818332
 30
0.0
 11
402.92
 21
253.299818332
 31
0.0
  0
LINE
  5
1CB
330
1F
100
AcDbEntity
  8
0
  6
Continuous
 62
     7
100
AcDbLine
 10
402.92
 20
253.299818332
 30
0.0
 11
397.82
 21
253.299818332
 31
0.0
  0
LINE
  5
1CC
330
1F
100
AcDbEntity
  8
0
  6
Continuous
 62
     7
100
AcDbLine
 10
386.92
 20
253.299818332
 30
0.0
 11
391.62
 21
253.299818332
 31
0.0
  0
LINE
  5
1CD
330
1F
100
AcDbEntity
  8
0
  6
Continuous
 62
     7
100
AcDbLine
 10
398.7200000000001
 20
253.299818332
 30
0.0
 11
398.7200000000001
 21
254.699818332
 31
0.0
  0
LINE
  5
1CE
330
1F
100
AcDbEntity
  8
0
  6
Continuous
 62
     7
100
AcDbLine
 10
390.72
 20
253.299818332
 30
0.0
 11
390.72
 21
254.699818332
 31
0.0
  0
LINE
  5
1CF
330
1F
100
AcDbEntity
  8
0
  6
Continuous
 62
     7
100
AcDbLine
 10
384.25
 20
275.399818332
 30
0.0
 11
384.783464158
 21
260.329818332
 31
0.0
  0
LINE
  5
1D0
330
1F
100
AcDbEntity
  8
0
  6
Continuous
 62
     7
100
AcDbLine
 10
384.7812765490001
 20
260.399818332
 30
0.0
 11
386.025031234
 21
257.399818332
 31
0.0
  0
LINE
  5
1D1
330
1F
100
AcDbEntity
  8
0
  6
Continuous
 62
     7
100
AcDbLine
 10
405.1899999999999
 20
275.399818332
 30
0.0
 11
404.6565358419999
 21
260.329818332
 31
0.0
  0
LINE
  5
1D2
330
1F
100
AcDbEntity
  8
0
  6
Continuous
 62
     7
100
AcDbLine
 10
404.6587234509999
 20
260.399818332
 30
0.0
 11
403.4149687659999
 21
257.399818332
 31
0.0
  0
LINE
  5
1D3
330
1F
100
AcDbEntity
  8
0
  6
Continuous
 62
     7
100
AcDbLine
 10
394.72
 20
146.099818332
 30
0.0
 11
402.72
 21
146.099818332
 31
0.0
  0
LINE
  5
1D4
330
1F
100
AcDbEntity
  8
0
  6
Continuous
 62
     7
100
AcDbLine
 10
394.72
 20
146.099818332
 30
0.0
 11
386.72
 21
146.099818332
 31
0.0
  0
LINE
  5
1D5
330
1F
100
AcDbEntity
  8
0
  6
Continuous
 62
     7
100
AcDbLine
 10
402.72
 20
146.099818332
 30
0.0
 11
402.72
 21
147.299818332
 31
0.0
  0
LINE
  5
1D6
330
1F
100
AcDbEntity
  8
0
  6
Continuous
 62
     7
100
AcDbLine
 10
386.72
 20
146.099818332
 30
0.0
 11
386.72
 21
147.299818332
 31
0.0
  0
LINE
  5
1D7
330
1F
100
AcDbEntity
  8
0
  6
Continuous
 62
     7
100
AcDbLine
 10
402.72
 20
147.299818332
 30
0.0
 11
397.82
 21
147.299818332
 31
0.0
  0
LINE
  5
1D8
330
1F
100
AcDbEntity
  8
0
  6
Continuous
 62
     7
100
AcDbLine
 10
386.72
 20
147.299818332
 30
0.0
 11
391.62
 21
147.299818332
 31
0.0
  0
LINE
  5
1D9
330
1F
100
AcDbEntity
  8
0
  6
Continuous
 62
     7
100
AcDbLine
 10
405.1899999999999
 20
125.399818332
 30
0.0
 11
404.6565358419999
 21
140.469818332
 31
0.0
  0
LINE
  5
1DA
330
1F
100
AcDbEntity
  8
0
  6
Continuous
 62
     7
100
AcDbLine
 10
404.6587234509999
 20
140.399818332
 30
0.0
 11
403.4149687659999
 21
143.399818332
 31
0.0
  0
LINE
  5
1DB
330
1F
100
AcDbEntity
  8
0
  6
Continuous
 62
     7
100
AcDbLine
 10
384.25
 20
125.399818332
 30
0.0
 11
384.783464158
 21
140.469818332
 31
0.0
  0
LINE
  5
1DC
330
1F
100
AcDbEntity
  8
0
  6
Continuous
 62
     7
100
AcDbLine
 10
384.7812765490001
 20
140.399818332
 30
0.0
 11
386.025031234
 21
143.399818332
 31
0.0
  0
LINE
  5
1DD
330
1F
100
AcDbEntity
  8
0
  6
Continuous
 62
     7
100
AcDbLine
 10
410.308457268
 20
333.358818332
 30
0.0
 11
402.514228634
 21
346.858818332
 31
0.0
  0
LINE
  5
1DE
330
1F
100
AcDbEntity
  8
0
  6
Continuous
 62
     7
100
AcDbLine
 10
402.514228634
 20
346.858818332
 30
0.0
 11
386.925771366
 21
346.858818332
 31
0.0
  0
LINE
  5
1DF
330
1F
100
AcDbEntity
  8
0
  6
Continuous
 62
     7
100
AcDbLine
 10
386.925771366
 20
346.858818332
 30
0.0
 11
379.131542732
 21
333.358818332
 31
0.0
  0
LINE
  5
1E0
330
1F
100
AcDbEntity
  8
0
  6
Continuous
 62
     7
100
AcDbLine
 10
379.131542732
 20
333.358818332
 30
0.0
 11
386.925771366
 21
319.858818332
 31
0.0
  0
LINE
  5
1E1
330
1F
100
AcDbEntity
  8
0
  6
Continuous
 62
     7
100
AcDbLine
 10
386.925771366
 20
319.858818332
 30
0.0
 11
402.514228634
 21
319.858818332
 31
0.0
  0
LINE
  5
1E2
330
1F
100
AcDbEntity
  8
0
  6
Continuous
 62
     7
100
AcDbLine
 10
402.514228634
 20
319.858818332
 30
0.0
 11
410.308457268
 21
333.358818332
 31
0.0
  0
CIRCLE
  5
1E3
330
1F
100
AcDbEntity
  8
0
  6
Continuous
 62
     7
100
AcDbCircle
 10
394.72
 20
333.358818332
 30
0.0
 40
2.5
  0
CIRCLE
  5
1E4
330
1F
100
AcDbEntity
  8
0
  6
Continuous
 62
     7
100
AcDbCircle
 10
394.72
 20
333.358818332
 30
0.0
 40
13.0
  0
LINE
  5
1E5
330
1F
100
AcDbEntity
  8
0
  6
Continuous
 62
     7
100
AcDbLine
 10
530.0399999999999
 20
152.399818332
 30
0.0
 11
530.0399999999999
 21
146.099818332
 31
0.0
  0
LINE
  5
1E6
330
1F
100
AcDbEntity
  8
0
  6
Continuous
 62
     7
100
AcDbLine
 10
530.0399999999999
 20
146.099818332
 30
0.0
 11
546.5399999999999
 21
146.099818332
 31
0.0
  0
LINE
  5
1E7
330
1F
100
AcDbEntity
  8
0
  6
Continuous
 62
     7
100
AcDbLine
 10
546.5399999999999
 20
152.399818332
 30
0.0
 11
546.5399999999999
 21
146.099818332
 31
0.0
  0
LINE
  5
1E8
330
1F
100
AcDbEntity
  8
0
  6
Continuous
 62
     7
100
AcDbLine
 10
550.7899999999999
 20
152.399818332
 30
0.0
 11
550.7899999999999
 21
145.399818332
 31
0.0
  0
LINE
  5
1E9
330
1F
100
AcDbEntity
  8
0
  6
Continuous
 62
     7
100
AcDbLine
 10
550.7899999999999
 20
145.399818332
 30
0.0
 11
549.7899999999999
 21
145.399818332
 31
0.0
  0
LINE
  5
1EA
330
1F
100
AcDbEntity
  8
0
  6
Continuous
 62
     7
100
AcDbLine
 10
549.7899999999999
 20
145.399818332
 30
0.0
 11
549.7899999999999
 21
144.399818332
 31
0.0
  0
LINE
  5
1EB
330
1F
100
AcDbEntity
  8
0
  6
Continuous
 62
     7
100
AcDbLine
 10
525.2899999999999
 20
125.399818332
 30
0.0
 11
525.2899999999999
 21
127.399818332
 31
0.0
  0
LINE
  5
1EC
330
1F
100
AcDbEntity
  8
0
  6
Continuous
 62
     7
100
AcDbLine
 10
522.701542732
 20
128.894264833
 30
0.0
 11
525.2899999999999
 21
127.399818332
 31
0.0
  0
LINE
  5
1ED
330
1F
100
AcDbEntity
  8
0
  6
Continuous
 62
     7
100
AcDbLine
 10
551.29
 20
125.399818332
 30
0.0
 11
551.29
 21
127.399818332
 31
0.0
  0
LINE
  5
1EE
330
1F
100
AcDbEntity
  8
0
  6
Continuous
 62
     7
100
AcDbLine
 10
551.29
 20
127.399818332
 30
0.0
 11
553.878457268
 21
128.894264833
 31
0.0
  0
LINE
  5
1EF
330
1F
100
AcDbEntity
  8
0
  6
Continuous
 62
     7
100
AcDbLine
 10
553.878457268
 20
128.894264833
 30
0.0
 11
553.878457268
 21
142.905371832
 31
0.0
  0
LINE
  5
1F0
330
1F
100
AcDbEntity
  8
0
  6
Continuous
 62
     7
100
AcDbLine
 10
549.7899999999999
 20
144.399818332
 30
0.0
 11
551.29
 21
144.399818332
 31
0.0
  0
LINE
  5
1F1
330
1F
100
AcDbEntity
  8
0
  6
Continuous
 62
     7
100
AcDbLine
 10
551.29
 20
144.399818332
 30
0.0
 11
553.878457268
 21
142.905371832
 31
0.0
  0
LINE
  5
1F2
330
1F
100
AcDbEntity
  8
0
  6
Continuous
 62
     7
100
AcDbLine
 10
522.701542732
 20
128.894264833
 30
0.0
 11
522.701542732
 21
142.905371832
 31
0.0
  0
LINE
  5
1F3
330
1F
100
AcDbEntity
  8
0
  6
Continuous
 62
     7
100
AcDbLine
 10
551.89
 20
144.399818332
 30
0.0
 11
551.89
 21
256.399818332
 31
0.0
  0
LINE
  5
1F4
330
1F
100
AcDbEntity
  8
0
  6
Continuous
 62
     7
100
AcDbLine
 10
524.6900000000001
 20
256.399818332
 30
0.0
 11
524.6900000000001
 21
144.399818332
 31
0.0
  0
LINE
  5
1F5
330
1F
100
AcDbEntity
  8
0
  6
Continuous
 62
     7
100
AcDbLine
 10
550.7899999999999
 20
248.399818332
 30
0.0
 11
550.7899999999999
 21
249.399818332
 31
0.0
  0
LINE
  5
1F6
330
1F
100
AcDbEntity
  8
0
  6
Continuous
 62
     7
100
AcDbLine
 10
549.8899999999999
 20
248.399818332
 30
0.0
 11
549.8899999999999
 21
152.399818332
 31
0.0
  0
LINE
  5
1F7
330
1F
100
AcDbEntity
  8
0
  6
Continuous
 62
     7
100
AcDbLine
 10
550.7899999999999
 20
152.399818332
 30
0.0
 11
550.7899999999999
 21
151.399818332
 31
0.0
  0
LINE
  5
1F8
330
1F
100
AcDbEntity
  8
0
  6
Continuous
 62
     7
100
AcDbLine
 10
549.8899999999999
 20
249.399818332
 30
0.0
 11
549.8899999999999
 21
256.399818332
 31
0.0
  0
LINE
  5
1F9
330
1F
100
AcDbEntity
  8
0
  6
Continuous
 62
     7
100
AcDbLine
 10
549.8899999999999
 20
151.399818332
 30
0.0
 11
549.8899999999999
 21
144.399818332
 31
0.0
  0
LINE
  5
1FA
330
1F
100
AcDbEntity
  8
0
  6
Continuous
 62
     7
100
AcDbLine
 10
546.5399999999999
 20
254.699818332
 30
0.0
 11
530.0399999999999
 21
254.699818332
 31
0.0
  0
LINE
  5
1FB
330
1F
100
AcDbEntity
  8
0
  6
Continuous
 62
     7
100
AcDbLine
 10
530.0399999999999
 20
248.399818332
 30
0.0
 11
530.0399999999999
 21
254.699818332
 31
0.0
  0
LINE
  5
1FC
330
1F
100
AcDbEntity
  8
0
  6
Continuous
 62
     7
100
AcDbLine
 10
550.7899999999999
 20
255.399818332
 30
0.0
 11
550.7899999999999
 21
248.399818332
 31
0.0
  0
LINE
  5
1FD
330
1F
100
AcDbEntity
  8
0
  6
Continuous
 62
     7
100
AcDbLine
 10
550.7899999999999
 20
255.399818332
 30
0.0
 11
549.7899999999999
 21
255.399818332
 31
0.0
  0
LINE
  5
1FE
330
1F
100
AcDbEntity
  8
0
  6
Continuous
 62
     7
100
AcDbLine
 10
549.7899999999999
 20
255.399818332
 30
0.0
 11
549.7899999999999
 21
256.399818332
 31
0.0
  0
LINE
  5
1FF
330
1F
100
AcDbEntity
  8
0
  6
Continuous
 62
     7
100
AcDbLine
 10
551.29
 20
275.399818332
 30
0.0
 11
551.29
 21
273.399818332
 31
0.0
  0
LINE
  5
200
330
1F
100
AcDbEntity
  8
0
  6
Continuous
 62
     7
100
AcDbLine
 10
553.878457268
 20
271.905371832
 30
0.0
 11
551.29
 21
273.399818332
 31
0.0
  0
LINE
  5
201
330
1F
100
AcDbEntity
  8
0
  6
Continuous
 62
     7
100
AcDbLine
 10
525.2899999999999
 20
275.399818332
 30
0.0
 11
525.2899999999999
 21
273.399818332
 31
0.0
  0
LINE
  5
202
330
1F
100
AcDbEntity
  8
0
  6
Continuous
 62
     7
100
AcDbLine
 10
525.2899999999999
 20
273.399818332
 30
0.0
 11
522.701542732
 21
271.905371832
 31
0.0
  0
LINE
  5
203
330
1F
100
AcDbEntity
  8
0
  6
Continuous
 62
     7
100
AcDbLine
 10
522.701542732
 20
271.905371832
 30
0.0
 11
522.701542732
 21
257.8942648329999
 31
0.0
  0
LINE
  5
204
330
1F
100
AcDbEntity
  8
0
  6
Continuous
 62
     7
100
AcDbLine
 10
553.878457268
 20
271.905371832
 30
0.0
 11
553.878457268
 21
257.8942648329999
 31
0.0
  0
LINE
  5
205
330
1F
100
AcDbEntity
  8
0
  6
Continuous
 62
     7
100
AcDbLine
 10
551.29
 20
256.399818332
 30
0.0
 11
549.7899999999999
 21
256.399818332
 31
0.0
  0
LINE
  5
206
330
1F
100
AcDbEntity
  8
0
  6
Continuous
 62
     7
100
AcDbLine
 10
551.29
 20
256.399818332
 30
0.0
 11
553.878457268
 21
257.8942648329999
 31
0.0
  0
LINE
  5
207
330
1F
100
AcDbEntity
  8
0
  6
Continuous
 62
     7
100
AcDbLine
 10
550.7899999999999
 20
249.399818332
 30
0.0
 11
549.8899999999999
 21
249.399818332
 31
0.0
  0
LINE
  5
208
330
1F
100
AcDbEntity
  8
0
  6
Continuous
 62
     7
100
AcDbLine
 10
530.29
 20
248.399818332
 30
0.0
 11
525.7899999999999
 21
248.399818332
 31
0.0
  0
LINE
  5
209
330
1F
100
AcDbEntity
  8
0
  6
Continuous
 62
     7
100
AcDbLine
 10
550.7899999999999
 20
248.399818332
 30
0.0
 11
546.2899999999999
 21
248.399818332
 31
0.0
  0
LINE
  5
20A
330
1F
100
AcDbEntity
  8
0
  6
Continuous
 62
     7
100
AcDbLine
 10
546.2899999999999
 20
248.399818332
 30
0.0
 11
550.7899999999999
 21
248.399818332
 31
0.0
  0
LINE
  5
20B
330
1F
100
AcDbEntity
  8
0
  6
Continuous
 62
     7
100
AcDbLine
 10
546.5399999999999
 20
248.399818332
 30
0.0
 11
546.5399999999999
 21
254.699818332
 31
0.0
  0
LINE
  5
20C
330
1F
100
AcDbEntity
  8
0
  6
Continuous
 62
     7
100
AcDbLine
 10
551.89
 20
256.399818332
 30
0.0
 11
549.7899999999999
 21
256.399818332
 31
0.0
  0
LINE
  5
20D
330
1F
100
AcDbEntity
  8
0
  6
Continuous
 62
     7
100
AcDbLine
 10
549.7899999999999
 20
152.399818332
 30
0.0
 11
550.7899999999999
 21
152.399818332
 31
0.0
  0
LINE
  5
20E
330
1F
100
AcDbEntity
  8
0
  6
Continuous
 62
     7
100
AcDbLine
 10
525.7899999999999
 20
152.399818332
 30
0.0
 11
530.29
 21
152.399818332
 31
0.0
  0
LINE
  5
20F
330
1F
100
AcDbEntity
  8
0
  6
Continuous
 62
     7
100
AcDbLine
 10
549.7899999999999
 20
152.399818332
 30
0.0
 11
550.7899999999999
 21
152.399818332
 31
0.0
  0
LINE
  5
210
330
1F
100
AcDbEntity
  8
0
  6
Continuous
 62
     7
100
AcDbLine
 10
550.7899999999999
 20
151.399818332
 30
0.0
 11
549.7899999999999
 21
151.399818332
 31
0.0
  0
LINE
  5
211
330
1F
100
AcDbEntity
  8
0
  6
Continuous
 62
     7
100
AcDbLine
 10
546.2899999999999
 20
152.399818332
 30
0.0
 11
549.7899999999999
 21
152.399818332
 31
0.0
  0
LINE
  5
212
330
1F
100
AcDbEntity
  8
0
  6
Continuous
 62
     7
100
AcDbLine
 10
549.7899999999999
 20
144.399818332
 30
0.0
 11
551.89
 21
144.399818332
 31
0.0
  0
CIRCLE
  5
213
330
1F
100
AcDbEntity
  8
0
  6
Continuous
 62
     7
100
AcDbCircle
 10
538.2899999999999
 20
196.258818332
 30
0.0
 40
3.25
  0
LINE
  5
214
330
1F
100
AcDbEntity
  8
0
  6
Continuous
 62
     7
100
AcDbLine
 10
534.2899999999999
 20
146.099818332
 30
0.0
 11
534.2899999999999
 21
147.299818332
 31
0.0
  0
LINE
  5
215
330
1F
100
AcDbEntity
  8
0
  6
Continuous
 62
     7
100
AcDbLine
 10
542.2899999999999
 20
146.099818332
 30
0.0
 11
542.2899999999999
 21
147.299818332
 31
0.0
  0
LINE
  5
216
330
1F
100
AcDbEntity
  8
0
  6
Continuous
 62
     7
100
AcDbLine
 10
534.2899999999999
 20
146.099818332
 30
0.0
 11
542.2899999999999
 21
146.099818332
 31
0.0
  0
LINE
  5
217
330
1F
100
AcDbEntity
  8
0
  6
Continuous
 62
     7
100
AcDbLine
 10
535.69
 20
161.099818332
 30
0.0
 11
535.69
 21
146.099818332
 31
0.0
  0
LINE
  5
218
330
1F
100
AcDbEntity
  8
0
  6
Continuous
 62
     7
100
AcDbLine
 10
540.89
 20
146.099818332
 30
0.0
 11
540.89
 21
161.099818332
 31
0.0
  0
LINE
  5
219
330
1F
100
AcDbEntity
  8
0
  6
Continuous
 62
     7
100
AcDbLine
 10
534.2899999999999
 20
147.299818332
 30
0.0
 11
535.19
 21
147.299818332
 31
0.0
  0
LINE
  5
21A
330
1F
100
AcDbEntity
  8
0
  6
Continuous
 62
     7
100
AcDbLine
 10
535.19
 20
147.299818332
 30
0.0
 11
535.19
 21
161.099818332
 31
0.0
  0
LINE
  5
21B
330
1F
100
AcDbEntity
  8
0
  6
Continuous
 62
     7
100
AcDbLine
 10
542.2899999999999
 20
147.299818332
 30
0.0
 11
541.3899999999999
 21
147.299818332
 31
0.0
  0
LINE
  5
21C
330
1F
100
AcDbEntity
  8
0
  6
Continuous
 62
     7
100
AcDbLine
 10
541.3899999999999
 20
147.299818332
 30
0.0
 11
541.3899999999999
 21
161.099818332
 31
0.0
  0
LINE
  5
21D
330
1F
100
AcDbEntity
  8
0
  6
Continuous
 62
     7
100
AcDbLine
 10
546.2899999999999
 20
253.299818332
 30
0.0
 11
546.2899999999999
 21
147.299818332
 31
0.0
  0
LINE
  5
21E
330
1F
100
AcDbEntity
  8
0
  6
Continuous
 62
     7
100
AcDbLine
 10
530.29
 20
147.299818332
 30
0.0
 11
530.29
 21
253.299818332
 31
0.0
  0
LINE
  5
21F
330
1F
100
AcDbEntity
  8
0
  6
Continuous
 62
     7
100
AcDbLine
 10
542.2899999999999
 20
254.499818332
 30
0.0
 11
542.2899999999999
 21
253.299818332
 31
0.0
  0
LINE
  5
220
330
1F
100
AcDbEntity
  8
0
  6
Continuous
 62
     7
100
AcDbLine
 10
534.2899999999999
 20
254.499818332
 30
0.0
 11
534.2899999999999
 21
253.299818332
 31
0.0
  0
LINE
  5
221
330
1F
100
AcDbEntity
  8
0
  6
Continuous
 62
     7
100
AcDbLine
 10
542.2899999999999
 20
254.499818332
 30
0.0
 11
534.2899999999999
 21
254.499818332
 31
0.0
  0
LINE
  5
222
330
1F
100
AcDbEntity
  8
0
  6
Continuous
 62
     7
100
AcDbLine
 10
540.89
 20
239.499818332
 30
0.0
 11
540.89
 21
254.499818332
 31
0.0
  0
LINE
  5
223
330
1F
100
AcDbEntity
  8
0
  6
Continuous
 62
     7
100
AcDbLine
 10
535.69
 20
254.499818332
 30
0.0
 11
535.69
 21
239.499818332
 31
0.0
  0
LINE
  5
224
330
1F
100
AcDbEntity
  8
0
  6
Continuous
 62
     7
100
AcDbLine
 10
542.2899999999999
 20
253.299818332
 30
0.0
 11
541.3899999999999
 21
253.299818332
 31
0.0
  0
LINE
  5
225
330
1F
100
AcDbEntity
  8
0
  6
Continuous
 62
     7
100
AcDbLine
 10
541.3899999999999
 20
253.299818332
 30
0.0
 11
541.3899999999999
 21
239.499818332
 31
0.0
  0
LINE
  5
226
330
1F
100
AcDbEntity
  8
0
  6
Continuous
 62
     7
100
AcDbLine
 10
534.2899999999999
 20
253.299818332
 30
0.0
 11
535.19
 21
253.299818332
 31
0.0
  0
LINE
  5
227
330
1F
100
AcDbEntity
  8
0
  6
Continuous
 62
     7
100
AcDbLine
 10
535.19
 20
253.299818332
 30
0.0
 11
535.19
 21
239.499818332
 31
0.0
  0
LINE
  5
228
330
1F
100
AcDbEntity
  8
0
  6
Continuous
 62
     7
100
AcDbLine
 10
534.2899999999999
 20
253.299818332
 30
0.0
 11
530.29
 21
253.299818332
 31
0.0
  0
LINE
  5
229
330
1F
100
AcDbEntity
  8
0
  6
Continuous
 62
     7
100
AcDbLine
 10
546.2899999999999
 20
253.299818332
 30
0.0
 11
542.2899999999999
 21
253.299818332
 31
0.0
  0
LINE
  5
22A
330
1F
100
AcDbEntity
  8
0
  6
Continuous
 62
     7
100
AcDbLine
 10
535.0399999999999
 20
147.299818332
 30
0.0
 11
534.79
 21
253.299818332
 31
0.0
  0
LINE
  5
22B
330
1F
100
AcDbEntity
  8
0
  6
Continuous
 62
     7
100
AcDbLine
 10
541.5399999999999
 20
147.299818332
 30
0.0
 11
541.7899999999999
 21
253.299818332
 31
0.0
  0
LINE
  5
22C
330
1F
100
AcDbEntity
  8
0
  6
Continuous
 62
     7
100
AcDbLine
 10
525.7899999999999
 20
248.399818332
 30
0.0
 11
525.7899999999999
 21
249.399818332
 31
0.0
  0
LINE
  5
22D
330
1F
100
AcDbEntity
  8
0
  6
Continuous
 62
     7
100
AcDbLine
 10
526.69
 20
249.399818332
 30
0.0
 11
526.69
 21
256.399818332
 31
0.0
  0
LINE
  5
22E
330
1F
100
AcDbEntity
  8
0
  6
Continuous
 62
     7
100
AcDbLine
 10
525.7899999999999
 20
255.399818332
 30
0.0
 11
525.7899999999999
 21
248.399818332
 31
0.0
  0
LINE
  5
22F
330
1F
100
AcDbEntity
  8
0
  6
Continuous
 62
     7
100
AcDbLine
 10
525.7899999999999
 20
255.399818332
 30
0.0
 11
526.79
 21
255.399818332
 31
0.0
  0
LINE
  5
230
330
1F
100
AcDbEntity
  8
0
  6
Continuous
 62
     7
100
AcDbLine
 10
526.79
 20
255.399818332
 30
0.0
 11
526.79
 21
256.399818332
 31
0.0
  0
LINE
  5
231
330
1F
100
AcDbEntity
  8
0
  6
Continuous
 62
     7
100
AcDbLine
 10
525.2899999999999
 20
256.399818332
 30
0.0
 11
526.79
 21
256.399818332
 31
0.0
  0
LINE
  5
232
330
1F
100
AcDbEntity
  8
0
  6
Continuous
 62
     7
100
AcDbLine
 10
525.2899999999999
 20
256.399818332
 30
0.0
 11
522.701542732
 21
257.8942648329999
 31
0.0
  0
LINE
  5
233
330
1F
100
AcDbEntity
  8
0
  6
Continuous
 62
     7
100
AcDbLine
 10
525.7899999999999
 20
249.399818332
 30
0.0
 11
526.69
 21
249.399818332
 31
0.0
  0
LINE
  5
234
330
1F
100
AcDbEntity
  8
0
  6
Continuous
 62
     7
100
AcDbLine
 10
524.6900000000001
 20
256.399818332
 30
0.0
 11
526.79
 21
256.399818332
 31
0.0
  0
LINE
  5
235
330
1F
100
AcDbEntity
  8
0
  6
Continuous
 62
     7
100
AcDbLine
 10
525.7899999999999
 20
152.399818332
 30
0.0
 11
525.7899999999999
 21
145.399818332
 31
0.0
  0
LINE
  5
236
330
1F
100
AcDbEntity
  8
0
  6
Continuous
 62
     7
100
AcDbLine
 10
525.7899999999999
 20
145.399818332
 30
0.0
 11
526.79
 21
145.399818332
 31
0.0
  0
LINE
  5
237
330
1F
100
AcDbEntity
  8
0
  6
Continuous
 62
     7
100
AcDbLine
 10
526.79
 20
145.399818332
 30
0.0
 11
526.79
 21
144.399818332
 31
0.0
  0
LINE
  5
238
330
1F
100
AcDbEntity
  8
0
  6
Continuous
 62
     7
100
AcDbLine
 10
526.79
 20
144.399818332
 30
0.0
 11
525.2899999999999
 21
144.399818332
 31
0.0
  0
LINE
  5
239
330
1F
100
AcDbEntity
  8
0
  6
Continuous
 62
     7
100
AcDbLine
 10
525.2899999999999
 20
144.399818332
 30
0.0
 11
522.701542732
 21
142.905371832
 31
0.0
  0
LINE
  5
23A
330
1F
100
AcDbEntity
  8
0
  6
Continuous
 62
     7
100
AcDbLine
 10
525.7899999999999
 20
152.399818332
 30
0.0
 11
525.7899999999999
 21
151.399818332
 31
0.0
  0
LINE
  5
23B
330
1F
100
AcDbEntity
  8
0
  6
Continuous
 62
     7
100
AcDbLine
 10
526.69
 20
151.399818332
 30
0.0
 11
526.69
 21
144.399818332
 31
0.0
  0
LINE
  5
23C
330
1F
100
AcDbEntity
  8
0
  6
Continuous
 62
     7
100
AcDbLine
 10
526.79
 20
152.399818332
 30
0.0
 11
525.7899999999999
 21
152.399818332
 31
0.0
  0
LINE
  5
23D
330
1F
100
AcDbEntity
  8
0
  6
Continuous
 62
     7
100
AcDbLine
 10
526.79
 20
152.399818332
 30
0.0
 11
525.7899999999999
 21
152.399818332
 31
0.0
  0
LINE
  5
23E
330
1F
100
AcDbEntity
  8
0
  6
Continuous
 62
     7
100
AcDbLine
 10
525.7899999999999
 20
151.399818332
 30
0.0
 11
526.79
 21
151.399818332
 31
0.0
  0
LINE
  5
23F
330
1F
100
AcDbEntity
  8
0
  6
Continuous
 62
     7
100
AcDbLine
 10
526.79
 20
144.399818332
 30
0.0
 11
524.6900000000001
 21
144.399818332
 31
0.0
  0
LINE
  5
240
330
1F
100
AcDbEntity
  8
0
  6
Continuous
 62
     7
100
AcDbLine
 10
535.19
 20
147.299818332
 30
0.0
 11
530.29
 21
147.299818332
 31
0.0
  0
LINE
  5
241
330
1F
100
AcDbEntity
  8
0
  6
Continuous
 62
     7
100
AcDbLine
 10
546.2899999999999
 20
147.299818332
 30
0.0
 11
541.3899999999999
 21
147.299818332
 31
0.0
  0
LINE
  5
242
330
1F
100
AcDbEntity
  8
0
  6
Continuous
 62
     7
100
AcDbLine
 10
536.7899999999999
 20
239.499818332
 30
0.0
 11
538.2899999999999
 21
240.999818332
 31
0.0
  0
LINE
  5
243
330
1F
100
AcDbEntity
  8
0
  6
Continuous
 62
     7
100
AcDbLine
 10
539.7899999999999
 20
239.499818332
 30
0.0
 11
538.2899999999999
 21
240.999818332
 31
0.0
  0
LINE
  5
244
330
1F
100
AcDbEntity
  8
0
  6
Continuous
 62
     7
100
AcDbLine
 10
539.7899999999999
 20
239.499818332
 30
0.0
 11
541.3899999999999
 21
239.499818332
 31
0.0
  0
LINE
  5
245
330
1F
100
AcDbEntity
  8
0
  6
Continuous
 62
     7
100
AcDbLine
 10
535.19
 20
239.499818332
 30
0.0
 11
536.7899999999999
 21
239.499818332
 31
0.0
  0
LINE
  5
246
330
1F
100
AcDbEntity
  8
0
  6
Continuous
 62
     7
100
AcDbLine
 10
539.7899999999999
 20
161.099818332
 30
0.0
 11
538.2899999999999
 21
159.599818332
 31
0.0
  0
LINE
  5
247
330
1F
100
AcDbEntity
  8
0
  6
Continuous
 62
     7
100
AcDbLine
 10
536.7899999999999
 20
161.099818332
 30
0.0
 11
538.2899999999999
 21
159.599818332
 31
0.0
  0
LINE
  5
248
330
1F
100
AcDbEntity
  8
0
  6
Continuous
 62
     7
100
AcDbLine
 10
536.7899999999999
 20
161.099818332
 30
0.0
 11
535.19
 21
161.099818332
 31
0.0
  0
LINE
  5
249
330
1F
100
AcDbEntity
  8
0
  6
Continuous
 62
     7
100
AcDbLine
 10
541.3899999999999
 20
161.099818332
 30
0.0
 11
539.7899999999999
 21
161.099818332
 31
0.0
  0
LINE
  5
24A
330
1F
100
AcDbEntity
  8
0
  6
Continuous
 62
     7
100
AcDbLine
 10
527.82
 20
125.399818332
 30
0.0
 11
528.97
 21
126.699818332
 31
0.0
  0
LINE
  5
24B
330
1F
100
AcDbEntity
  8
0
  6
Continuous
 62
     7
100
AcDbLine
 10
548.7599999999999
 20
125.399818332
 30
0.0
 11
547.61
 21
126.699818332
 31
0.0
  0
LINE
  5
24C
330
1F
100
AcDbEntity
  8
0
  6
Continuous
 62
     7
100
AcDbLine
 10
528.351276549
 20
140.399818332
 30
0.0
 11
538.2899999999999
 21
140.399818332
 31
0.0
  0
LINE
  5
24D
330
1F
100
AcDbEntity
  8
0
  6
Continuous
 62
     7
100
AcDbLine
 10
529.5950312339999
 20
143.399818332
 30
0.0
 11
538.2899999999999
 21
143.399818332
 31
0.0
  0
LINE
  5
24E
330
1F
100
AcDbEntity
  8
0
  6
Continuous
 62
     7
100
AcDbLine
 10
548.2287234509999
 20
140.399818332
 30
0.0
 11
538.2899999999999
 21
140.399818332
 31
0.0
  0
LINE
  5
24F
330
1F
100
AcDbEntity
  8
0
  6
Continuous
 62
     7
100
AcDbLine
 10
546.984968766
 20
143.399818332
 30
0.0
 11
538.2899999999999
 21
143.399818332
 31
0.0
  0
LINE
  5
250
330
1F
100
AcDbEntity
  8
0
  6
Continuous
 62
     7
100
AcDbLine
 10
529.0106270299999
 20
126.699818332
 30
0.0
 11
529.5950312339999
 21
143.399818332
 31
0.0
  0
LINE
  5
251
330
1F
100
AcDbEntity
  8
0
  6
Continuous
 62
     7
100
AcDbLine
 10
547.56937297
 20
126.699818332
 30
0.0
 11
546.984968766
 21
143.399818332
 31
0.0
  0
LINE
  5
252
330
1F
100
AcDbEntity
  8
0
  6
Continuous
 62
     7
100
AcDbLine
 10
548.7599999999999
 20
275.399818332
 30
0.0
 11
547.61
 21
274.099818332
 31
0.0
  0
LINE
  5
253
330
1F
100
AcDbEntity
  8
0
  6
Continuous
 62
     7
100
AcDbLine
 10
527.82
 20
275.399818332
 30
0.0
 11
528.97
 21
274.099818332
 31
0.0
  0
LINE
  5
254
330
1F
100
AcDbEntity
  8
0
  6
Continuous
 62
     7
100
AcDbLine
 10
548.2287234509999
 20
260.399818332
 30
0.0
 11
538.2899999999999
 21
260.399818332
 31
0.0
  0
LINE
  5
255
330
1F
100
AcDbEntity
  8
0
  6
Continuous
 62
     7
100
AcDbLine
 10
546.984968766
 20
257.399818332
 30
0.0
 11
538.2899999999999
 21
257.399818332
 31
0.0
  0
LINE
  5
256
330
1F
100
AcDbEntity
  8
0
  6
Continuous
 62
     7
100
AcDbLine
 10
528.351276549
 20
260.399818332
 30
0.0
 11
538.2899999999999
 21
260.399818332
 31
0.0
  0
LINE
  5
257
330
1F
100
AcDbEntity
  8
0
  6
Continuous
 62
     7
100
AcDbLine
 10
529.5950312339999
 20
257.399818332
 30
0.0
 11
538.2899999999999
 21
257.399818332
 31
0.0
  0
LINE
  5
258
330
1F
100
AcDbEntity
  8
0
  6
Continuous
 62
     7
100
AcDbLine
 10
547.56937297
 20
274.099818332
 30
0.0
 11
546.984968766
 21
257.399818332
 31
0.0
  0
LINE
  5
259
330
1F
100
AcDbEntity
  8
0
  6
Continuous
 62
     7
100
AcDbLine
 10
529.0106270299999
 20
274.099818332
 30
0.0
 11
529.5950312339999
 21
257.399818332
 31
0.0
  0
LINE
  5
25A
330
1F
100
AcDbEntity
  8
0
  6
Continuous
 62
     7
100
AcDbLine
 10
540.7899999999999
 20
254.699818332
 30
0.0
 11
540.7899999999999
 21
257.399818332
 31
0.0
  0
LINE
  5
25B
330
1F
100
AcDbEntity
  8
0
  6
Continuous
 62
     7
100
AcDbLine
 10
535.7899999999999
 20
254.699818332
 30
0.0
 11
535.7899999999999
 21
257.399818332
 31
0.0
  0
LINE
  5
25C
330
1F
100
AcDbEntity
  8
0
  6
Continuous
 62
     7
100
AcDbLine
 10
540.7899999999999
 20
146.099818332
 30
0.0
 11
540.7899999999999
 21
143.399818332
 31
0.0
  0
LINE
  5
25D
330
1F
100
AcDbEntity
  8
0
  6
Continuous
 62
     7
100
AcDbLine
 10
535.7899999999999
 20
146.099818332
 30
0.0
 11
535.7899999999999
 21
143.399818332
 31
0.0
  0
LINE
  5
25E
330
1F
100
AcDbEntity
  8
0
  6
Continuous
 62
     7
100
AcDbLine
 10
538.49
 20
254.699818332
 30
0.0
 11
530.4899999999999
 21
254.699818332
 31
0.0
  0
LINE
  5
25F
330
1F
100
AcDbEntity
  8
0
  6
Continuous
 62
     7
100
AcDbLine
 10
538.49
 20
254.699818332
 30
0.0
 11
546.49
 21
254.699818332
 31
0.0
  0
LINE
  5
260
330
1F
100
AcDbEntity
  8
0
  6
Continuous
 62
     7
100
AcDbLine
 10
530.4899999999999
 20
254.699818332
 30
0.0
 11
530.4899999999999
 21
253.299818332
 31
0.0
  0
LINE
  5
261
330
1F
100
AcDbEntity
  8
0
  6
Continuous
 62
     7
100
AcDbLine
 10
546.49
 20
254.699818332
 30
0.0
 11
546.49
 21
253.299818332
 31
0.0
  0
LINE
  5
262
330
1F
100
AcDbEntity
  8
0
  6
Continuous
 62
     7
100
AcDbLine
 10
546.49
 20
253.299818332
 30
0.0
 11
541.3899999999999
 21
253.299818332
 31
0.0
  0
LINE
  5
263
330
1F
100
AcDbEntity
  8
0
  6
Continuous
 62
     7
100
AcDbLine
 10
530.4899999999999
 20
253.299818332
 30
0.0
 11
535.19
 21
253.299818332
 31
0.0
  0
LINE
  5
264
330
1F
100
AcDbEntity
  8
0
  6
Continuous
 62
     7
100
AcDbLine
 10
542.2899999999999
 20
253.299818332
 30
0.0
 11
542.2899999999999
 21
254.699818332
 31
0.0
  0
LINE
  5
265
330
1F
100
AcDbEntity
  8
0
  6
Continuous
 62
     7
100
AcDbLine
 10
534.2899999999999
 20
253.299818332
 30
0.0
 11
534.2899999999999
 21
254.699818332
 31
0.0
  0
LINE
  5
266
330
1F
100
AcDbEntity
  8
0
  6
Continuous
 62
     7
100
AcDbLine
 10
527.82
 20
275.399818332
 30
0.0
 11
528.3534641580001
 21
260.329818332
 31
0.0
  0
LINE
  5
267
330
1F
100
AcDbEntity
  8
0
  6
Continuous
 62
     7
100
AcDbLine
 10
528.351276549
 20
260.399818332
 30
0.0
 11
529.5950312339999
 21
257.399818332
 31
0.0
  0
LINE
  5
268
330
1F
100
AcDbEntity
  8
0
  6
Continuous
 62
     7
100
AcDbLine
 10
548.7599999999999
 20
275.399818332
 30
0.0
 11
548.226535842
 21
260.329818332
 31
0.0
  0
LINE
  5
269
330
1F
100
AcDbEntity
  8
0
  6
Continuous
 62
     7
100
AcDbLine
 10
548.2287234509999
 20
260.399818332
 30
0.0
 11
546.984968766
 21
257.399818332
 31
0.0
  0
LINE
  5
26A
330
1F
100
AcDbEntity
  8
0
  6
Continuous
 62
     7
100
AcDbLine
 10
538.2899999999999
 20
146.099818332
 30
0.0
 11
546.2899999999999
 21
146.099818332
 31
0.0
  0
LINE
  5
26B
330
1F
100
AcDbEntity
  8
0
  6
Continuous
 62
     7
100
AcDbLine
 10
538.2899999999999
 20
146.099818332
 30
0.0
 11
530.29
 21
146.099818332
 31
0.0
  0
LINE
  5
26C
330
1F
100
AcDbEntity
  8
0
  6
Continuous
 62
     7
100
AcDbLine
 10
546.2899999999999
 20
146.099818332
 30
0.0
 11
546.2899999999999
 21
147.299818332
 31
0.0
  0
LINE
  5
26D
330
1F
100
AcDbEntity
  8
0
  6
Continuous
 62
     7
100
AcDbLine
 10
530.29
 20
146.099818332
 30
0.0
 11
530.29
 21
147.299818332
 31
0.0
  0
LINE
  5
26E
330
1F
100
AcDbEntity
  8
0
  6
Continuous
 62
     7
100
AcDbLine
 10
546.2899999999999
 20
147.299818332
 30
0.0
 11
541.3899999999999
 21
147.299818332
 31
0.0
  0
LINE
  5
26F
330
1F
100
AcDbEntity
  8
0
  6
Continuous
 62
     7
100
AcDbLine
 10
530.29
 20
147.299818332
 30
0.0
 11
535.19
 21
147.299818332
 31
0.0
  0
LINE
  5
270
330
1F
100
AcDbEntity
  8
0
  6
Continuous
 62
     7
100
AcDbLine
 10
548.7599999999999
 20
125.399818332
 30
0.0
 11
548.226535842
 21
140.469818332
 31
0.0
  0
LINE
  5
271
330
1F
100
AcDbEntity
  8
0
  6
Continuous
 62
     7
100
AcDbLine
 10
548.2287234509999
 20
140.399818332
 30
0.0
 11
546.984968766
 21
143.399818332
 31
0.0
  0
LINE
  5
272
330
1F
100
AcDbEntity
  8
0
  6
Continuous
 62
     7
100
AcDbLine
 10
527.82
 20
125.399818332
 30
0.0
 11
528.3534641580001
 21
140.469818332
 31
0.0
  0
LINE
  5
273
330
1F
100
AcDbEntity
  8
0
  6
Continuous
 62
     7
100
AcDbLine
 10
528.351276549
 20
140.399818332
 30
0.0
 11
529.5950312339999
 21
143.399818332
 31
0.0
  0
LINE
  5
274
330
1F
100
AcDbEntity
  8
0
  6
Continuous
 62
     7
100
AcDbLine
 10
553.878457268
 20
333.358818332
 30
0.0
 11
546.0842286340001
 21
346.858818332
 31
0.0
  0
LINE
  5
275
330
1F
100
AcDbEntity
  8
0
  6
Continuous
 62
     7
100
AcDbLine
 10
546.0842286340001
 20
346.858818332
 30
0.0
 11
530.495771366
 21
346.858818332
 31
0.0
  0
LINE
  5
276
330
1F
100
AcDbEntity
  8
0
  6
Continuous
 62
     7
100
AcDbLine
 10
530.495771366
 20
346.858818332
 30
0.0
 11
522.701542732
 21
333.358818332
 31
0.0
  0
LINE
  5
277
330
1F
100
AcDbEntity
  8
0
  6
Continuous
 62
     7
100
AcDbLine
 10
522.701542732
 20
333.358818332
 30
0.0
 11
530.495771366
 21
319.858818332
 31
0.0
  0
LINE
  5
278
330
1F
100
AcDbEntity
  8
0
  6
Continuous
 62
     7
100
AcDbLine
 10
530.495771366
 20
319.858818332
 30
0.0
 11
546.0842286340001
 21
319.858818332
 31
0.0
  0
LINE
  5
279
330
1F
100
AcDbEntity
  8
0
  6
Continuous
 62
     7
100
AcDbLine
 10
546.0842286340001
 20
319.858818332
 30
0.0
 11
553.878457268
 21
333.358818332
 31
0.0
  0
CIRCLE
  5
27A
330
1F
100
AcDbEntity
  8
0
  6
Continuous
 62
     7
100
AcDbCircle
 10
538.2899999999999
 20
333.358818332
 30
0.0
 40
2.5
  0
CIRCLE
  5
27B
330
1F
100
AcDbEntity
  8
0
  6
Continuous
 62
     7
100
AcDbCircle
 10
538.2899999999999
 20
333.358818332
 30
0.0
 40
13.0
  0
LINE
  5
27C
330
1F
100
AcDbEntity
  8
0
  6
Continuous
 62
     7
100
AcDbLine
 10
401.2999999999999
 20
114.399818332
 30
0.0
 11
400.9875
 21
124.399818332
 31
0.0
  0
LINE
  5
27D
330
1F
100
AcDbEntity
  8
0
  6
Continuous
 62
     7
100
AcDbLine
 10
400.9875
 20
124.399818332
 30
0.0
 11
400.0449999999999
 21
126.399818332
 31
0.0
  0
LINE
  5
27E
330
1F
100
AcDbEntity
  8
0
  6
Continuous
 62
     7
100
AcDbLine
 10
404.461356649
 20
121.277111341
 30
0.0
 11
405.4332477009999
 21
120.376232892
 31
0.0
  0
LINE
  5
27F
330
1F
100
AcDbEntity
  8
0
  6
Continuous
 62
     7
100
AcDbLine
 10
404.0199999999999
 20
135.399818332
 30
0.0
 11
404.461356649
 21
121.277111341
 31
0.0
  0
LINE
  5
280
330
1F
100
AcDbEntity
  8
0
  6
Continuous
 62
     7
100
AcDbLine
 10
388.14
 20
114.399818332
 30
0.0
 11
388.4525
 21
124.399818332
 31
0.0
  0
LINE
  5
281
330
1F
100
AcDbEntity
  8
0
  6
Continuous
 62
     7
100
AcDbLine
 10
388.4525
 20
124.399818332
 30
0.0
 11
389.395
 21
126.399818332
 31
0.0
  0
LINE
  5
282
330
1F
100
AcDbEntity
  8
0
  6
Continuous
 62
     7
100
AcDbLine
 10
385.42
 20
135.399818332
 30
0.0
 11
384.978643351
 21
121.277111341
 31
0.0
  0
LINE
  5
283
330
1F
100
AcDbEntity
  8
0
  6
Continuous
 62
     7
100
AcDbLine
 10
384.978643351
 20
121.277111341
 30
0.0
 11
384.006752299
 21
120.376232892
 31
0.0
  0
LINE
  5
284
330
1F
100
AcDbEntity
  8
0
  6
Continuous
 62
     7
100
AcDbLine
 10
404.994012572
 20
134.431054644
 30
0.0
 11
405.463762181
 21
119.399818332
 31
0.0
  0
LINE
  5
285
330
1F
100
AcDbEntity
  8
0
  6
Continuous
 62
     7
100
AcDbLine
 10
407.72
 20
119.099818332
 30
0.0
 11
407.42
 21
119.399818332
 31
0.0
  0
LINE
  5
286
330
1F
100
AcDbEntity
  8
0
  6
Continuous
 62
     7
100
AcDbLine
 10
394.72
 20
114.399818332
 30
0.0
 11
407.42
 21
114.399818332
 31
0.0
  0
LINE
  5
287
330
1F
100
AcDbEntity
  8
0
  6
Continuous
 62
     7
100
AcDbLine
 10
407.72
 20
114.699818332
 30
0.0
 11
407.72
 21
119.099818332
 31
0.0
  0
LINE
  5
288
330
1F
100
AcDbEntity
  8
0
  6
Continuous
 62
     7
100
AcDbLine
 10
407.42
 20
114.399818332
 30
0.0
 11
407.72
 21
114.699818332
 31
0.0
  0
LINE
  5
289
330
1F
100
AcDbEntity
  8
0
  6
Continuous
 62
     7
100
AcDbLine
 10
407.42
 20
119.399818332
 30
0.0
 11
405.463762181
 21
119.399818332
 31
0.0
  0
LINE
  5
28A
330
1F
100
AcDbEntity
  8
0
  6
Continuous
 62
     7
100
AcDbLine
 10
401.2999999999999
 20
114.399818332
 30
0.0
 11
400.388721951
 21
115.400715893
 31
0.0
  0
LINE
  5
28B
330
1F
100
AcDbEntity
  8
0
  6
Continuous
 62
     7
100
AcDbLine
 10
400.388721951
 20
115.400715893
 30
0.0
 11
394.72
 21
115.400715893
 31
0.0
  0
LINE
  5
28C
330
1F
100
AcDbEntity
  8
0
  6
Continuous
 62
     7
100
AcDbLine
 10
400.388721951
 20
115.400715893
 30
0.0
 11
400.0449999999999
 21
126.399818332
 31
0.0
  0
LINE
  5
28D
330
1F
100
AcDbEntity
  8
0
  6
Continuous
 62
     7
100
AcDbLine
 10
388.14
 20
114.399818332
 30
0.0
 11
389.051278049
 21
115.400715893
 31
0.0
  0
LINE
  5
28E
330
1F
100
AcDbEntity
  8
0
  6
Continuous
 62
     7
100
AcDbLine
 10
389.051278049
 20
115.400715893
 30
0.0
 11
394.72
 21
115.400715893
 31
0.0
  0
LINE
  5
28F
330
1F
100
AcDbEntity
  8
0
  6
Continuous
 62
     7
100
AcDbLine
 10
389.051278049
 20
115.400715893
 30
0.0
 11
389.395
 21
126.399818332
 31
0.0
  0
LINE
  5
290
330
1F
100
AcDbEntity
  8
0
  6
Continuous
 62
     7
100
AcDbLine
 10
394.72
 20
114.399818332
 30
0.0
 11
382.02
 21
114.399818332
 31
0.0
  0
LINE
  5
291
330
1F
100
AcDbEntity
  8
0
  6
Continuous
 62
     7
100
AcDbLine
 10
382.02
 20
114.399818332
 30
0.0
 11
381.72
 21
114.699818332
 31
0.0
  0
LINE
  5
292
330
1F
100
AcDbEntity
  8
0
  6
Continuous
 62
     7
100
AcDbLine
 10
381.72
 20
119.099818332
 30
0.0
 11
382.02
 21
119.399818332
 31
0.0
  0
LINE
  5
293
330
1F
100
AcDbEntity
  8
0
  6
Continuous
 62
     7
100
AcDbLine
 10
381.72
 20
114.699818332
 30
0.0
 11
381.72
 21
119.099818332
 31
0.0
  0
LINE
  5
294
330
1F
100
AcDbEntity
  8
0
  6
Continuous
 62
     7
100
AcDbLine
 10
384.445987428
 20
134.431054644
 30
0.0
 11
383.976237819
 21
119.399818332
 31
0.0
  0
LINE
  5
295
330
1F
100
AcDbEntity
  8
0
  6
Continuous
 62
     7
100
AcDbLine
 10
382.02
 20
119.399818332
 30
0.0
 11
383.976237819
 21
119.399818332
 31
0.0
  0
LINE
  5
296
330
1F
100
AcDbEntity
  8
0
  6
Continuous
 62
     7
100
AcDbLine
 10
390.22
 20
126.399818332
 30
0.0
 11
390.22
 21
135.399818332
 31
0.0
  0
LINE
  5
297
330
1F
100
AcDbEntity
  8
0
  6
Continuous
 62
     7
100
AcDbLine
 10
385.445499455
 20
135.399818332
 30
0.0
 11
394.72
 21
135.399818332
 31
0.0
  0
LINE
  5
298
330
1F
100
AcDbEntity
  8
0
  6
Continuous
 62
     7
100
AcDbLine
 10
399.22
 20
126.399818332
 30
0.0
 11
399.22
 21
135.399818332
 31
0.0
  0
LINE
  5
299
330
1F
100
AcDbEntity
  8
0
  6
Continuous
 62
     7
100
AcDbLine
 10
403.9945005449999
 20
135.399818332
 30
0.0
 11
394.72
 21
135.399818332
 31
0.0
  0
LINE
  5
29A
330
1F
100
AcDbEntity
  8
0
  6
Continuous
 62
     7
100
AcDbLine
 10
404.994012572
 20
134.431054644
 30
0.0
 11
403.9945005449999
 21
135.399818332
 31
0.0
  0
LINE
  5
29B
330
1F
100
AcDbEntity
  8
0
  6
Continuous
 62
     7
100
AcDbLine
 10
384.445987428
 20
134.431054644
 30
0.0
 11
385.445499455
 21
135.399818332
 31
0.0
  0
LINE
  5
29C
330
1F
100
AcDbEntity
  8
0
  6
Continuous
 62
     7
100
AcDbLine
 10
394.72
 20
126.399818332
 30
0.0
 11
400.0449999999999
 21
126.399818332
 31
0.0
  0
LINE
  5
29D
330
1F
100
AcDbEntity
  8
0
  6
Continuous
 62
     7
100
AcDbLine
 10
400.9875
 20
124.399818332
 30
0.0
 11
394.72
 21
124.399818332
 31
0.0
  0
LINE
  5
29E
330
1F
100
AcDbEntity
  8
0
  6
Continuous
 62
     7
100
AcDbLine
 10
388.4525
 20
124.399818332
 30
0.0
 11
394.72
 21
124.399818332
 31
0.0
  0
LINE
  5
29F
330
1F
100
AcDbEntity
  8
0
  6
Continuous
 62
     7
100
AcDbLine
 10
394.72
 20
126.399818332
 30
0.0
 11
389.395
 21
126.399818332
 31
0.0
  0
LINE
  5
2A0
330
1F
100
AcDbEntity
  8
0
  6
Continuous
 62
     7
100
AcDbLine
 10
388.14
 20
286.399818332
 30
0.0
 11
388.4525
 21
276.399818332
 31
0.0
  0
LINE
  5
2A1
330
1F
100
AcDbEntity
  8
0
  6
Continuous
 62
     7
100
AcDbLine
 10
388.4525
 20
276.399818332
 30
0.0
 11
389.395
 21
274.399818332
 31
0.0
  0
LINE
  5
2A2
330
1F
100
AcDbEntity
  8
0
  6
Continuous
 62
     7
100
AcDbLine
 10
384.978643351
 20
279.522525323
 30
0.0
 11
384.006752299
 21
280.423403772
 31
0.0
  0
LINE
  5
2A3
330
1F
100
AcDbEntity
  8
0
  6
Continuous
 62
     7
100
AcDbLine
 10
385.42
 20
265.399818332
 30
0.0
 11
384.978643351
 21
279.522525323
 31
0.0
  0
LINE
  5
2A4
330
1F
100
AcDbEntity
  8
0
  6
Continuous
 62
     7
100
AcDbLine
 10
401.2999999999999
 20
286.399818332
 30
0.0
 11
400.9875
 21
276.399818332
 31
0.0
  0
LINE
  5
2A5
330
1F
100
AcDbEntity
  8
0
  6
Continuous
 62
     7
100
AcDbLine
 10
400.9875
 20
276.399818332
 30
0.0
 11
400.0449999999999
 21
274.399818332
 31
0.0
  0
LINE
  5
2A6
330
1F
100
AcDbEntity
  8
0
  6
Continuous
 62
     7
100
AcDbLine
 10
404.0199999999999
 20
265.399818332
 30
0.0
 11
404.461356649
 21
279.522525323
 31
0.0
  0
LINE
  5
2A7
330
1F
100
AcDbEntity
  8
0
  6
Continuous
 62
     7
100
AcDbLine
 10
404.461356649
 20
279.522525323
 30
0.0
 11
405.4332477009999
 21
280.423403772
 31
0.0
  0
LINE
  5
2A8
330
1F
100
AcDbEntity
  8
0
  6
Continuous
 62
     7
100
AcDbLine
 10
384.445987428
 20
266.36858202
 30
0.0
 11
383.976237819
 21
281.399818332
 31
0.0
  0
LINE
  5
2A9
330
1F
100
AcDbEntity
  8
0
  6
Continuous
 62
     7
100
AcDbLine
 10
381.72
 20
281.699818332
 30
0.0
 11
382.02
 21
281.399818332
 31
0.0
  0
LINE
  5
2AA
330
1F
100
AcDbEntity
  8
0
  6
Continuous
 62
     7
100
AcDbLine
 10
394.72
 20
286.399818332
 30
0.0
 11
382.02
 21
286.399818332
 31
0.0
  0
LINE
  5
2AB
330
1F
100
AcDbEntity
  8
0
  6
Continuous
 62
     7
100
AcDbLine
 10
381.72
 20
286.099818332
 30
0.0
 11
381.72
 21
281.699818332
 31
0.0
  0
LINE
  5
2AC
330
1F
100
AcDbEntity
  8
0
  6
Continuous
 62
     7
100
AcDbLine
 10
382.02
 20
286.399818332
 30
0.0
 11
381.72
 21
286.099818332
 31
0.0
  0
LINE
  5
2AD
330
1F
100
AcDbEntity
  8
0
  6
Continuous
 62
     7
100
AcDbLine
 10
382.02
 20
281.399818332
 30
0.0
 11
383.976237819
 21
281.399818332
 31
0.0
  0
LINE
  5
2AE
330
1F
100
AcDbEntity
  8
0
  6
Continuous
 62
     7
100
AcDbLine
 10
388.14
 20
286.399818332
 30
0.0
 11
389.051278049
 21
285.398920771
 31
0.0
  0
LINE
  5
2AF
330
1F
100
AcDbEntity
  8
0
  6
Continuous
 62
     7
100
AcDbLine
 10
389.051278049
 20
285.398920771
 30
0.0
 11
394.72
 21
285.398920771
 31
0.0
  0
LINE
  5
2B0
330
1F
100
AcDbEntity
  8
0
  6
Continuous
 62
     7
100
AcDbLine
 10
389.051278049
 20
285.398920771
 30
0.0
 11
389.395
 21
274.399818332
 31
0.0
  0
LINE
  5
2B1
330
1F
100
AcDbEntity
  8
0
  6
Continuous
 62
     7
100
AcDbLine
 10
401.2999999999999
 20
286.399818332
 30
0.0
 11
400.388721951
 21
285.398920771
 31
0.0
  0
LINE
  5
2B2
330
1F
100
AcDbEntity
  8
0
  6
Continuous
 62
     7
100
AcDbLine
 10
400.388721951
 20
285.398920771
 30
0.0
 11
394.72
 21
285.398920771
 31
0.0
  0
LINE
  5
2B3
330
1F
100
AcDbEntity
  8
0
  6
Continuous
 62
     7
100
AcDbLine
 10
400.388721951
 20
285.398920771
 30
0.0
 11
400.0449999999999
 21
274.399818332
 31
0.0
  0
LINE
  5
2B4
330
1F
100
AcDbEntity
  8
0
  6
Continuous
 62
     7
100
AcDbLine
 10
394.72
 20
286.399818332
 30
0.0
 11
407.42
 21
286.399818332
 31
0.0
  0
LINE
  5
2B5
330
1F
100
AcDbEntity
  8
0
  6
Continuous
 62
     7
100
AcDbLine
 10
407.42
 20
286.399818332
 30
0.0
 11
407.72
 21
286.099818332
 31
0.0
  0
LINE
  5
2B6
330
1F
100
AcDbEntity
  8
0
  6
Continuous
 62
     7
100
AcDbLine
 10
407.72
 20
281.699818332
 30
0.0
 11
407.42
 21
281.399818332
 31
0.0
  0
LINE
  5
2B7
330
1F
100
AcDbEntity
  8
0
  6
Continuous
 62
     7
100
AcDbLine
 10
407.72
 20
286.099818332
 30
0.0
 11
407.72
 21
281.699818332
 31
0.0
  0
LINE
  5
2B8
330
1F
100
AcDbEntity
  8
0
  6
Continuous
 62
     7
100
AcDbLine
 10
404.994012572
 20
266.36858202
 30
0.0
 11
405.463762181
 21
281.399818332
 31
0.0
  0
LINE
  5
2B9
330
1F
100
AcDbEntity
  8
0
  6
Continuous
 62
     7
100
AcDbLine
 10
407.42
 20
281.399818332
 30
0.0
 11
405.463762181
 21
281.399818332
 31
0.0
  0
LINE
  5
2BA
330
1F
100
AcDbEntity
  8
0
  6
Continuous
 62
     7
100
AcDbLine
 10
399.22
 20
274.399818332
 30
0.0
 11
399.22
 21
265.399818332
 31
0.0
  0
LINE
  5
2BB
330
1F
100
AcDbEntity
  8
0
  6
Continuous
 62
     7
100
AcDbLine
 10
403.9945005449999
 20
265.399818332
 30
0.0
 11
394.72
 21
265.399818332
 31
0.0
  0
LINE
  5
2BC
330
1F
100
AcDbEntity
  8
0
  6
Continuous
 62
     7
100
AcDbLine
 10
390.22
 20
274.399818332
 30
0.0
 11
390.22
 21
265.399818332
 31
0.0
  0
LINE
  5
2BD
330
1F
100
AcDbEntity
  8
0
  6
Continuous
 62
     7
100
AcDbLine
 10
385.445499455
 20
265.399818332
 30
0.0
 11
394.72
 21
265.399818332
 31
0.0
  0
LINE
  5
2BE
330
1F
100
AcDbEntity
  8
0
  6
Continuous
 62
     7
100
AcDbLine
 10
384.445987428
 20
266.36858202
 30
0.0
 11
385.445499455
 21
265.399818332
 31
0.0
  0
LINE
  5
2BF
330
1F
100
AcDbEntity
  8
0
  6
Continuous
 62
     7
100
AcDbLine
 10
404.994012572
 20
266.36858202
 30
0.0
 11
403.9945005449999
 21
265.399818332
 31
0.0
  0
LINE
  5
2C0
330
1F
100
AcDbEntity
  8
0
  6
Continuous
 62
     7
100
AcDbLine
 10
394.72
 20
274.399818332
 30
0.0
 11
389.395
 21
274.399818332
 31
0.0
  0
LINE
  5
2C1
330
1F
100
AcDbEntity
  8
0
  6
Continuous
 62
     7
100
AcDbLine
 10
388.4525
 20
276.399818332
 30
0.0
 11
394.72
 21
276.399818332
 31
0.0
  0
LINE
  5
2C2
330
1F
100
AcDbEntity
  8
0
  6
Continuous
 62
     7
100
AcDbLine
 10
400.9875
 20
276.399818332
 30
0.0
 11
394.72
 21
276.399818332
 31
0.0
  0
LINE
  5
2C3
330
1F
100
AcDbEntity
  8
0
  6
Continuous
 62
     7
100
AcDbLine
 10
394.72
 20
274.399818332
 30
0.0
 11
400.0449999999999
 21
274.399818332
 31
0.0
  0
LINE
  5
2C4
330
1F
100
AcDbEntity
  8
0
  6
Continuous
 62
     7
100
AcDbLine
 10
544.2899999999999
 20
129.399818332
 30
0.0
 11
544.2899999999999
 21
135.399818332
 31
0.0
  0
LINE
  5
2C5
330
1F
100
AcDbEntity
  8
0
  6
Continuous
 62
     7
100
AcDbLine
 10
547.5645005449999
 20
135.399818332
 30
0.0
 11
538.2899999999999
 21
135.399818332
 31
0.0
  0
LINE
  5
2C6
330
1F
100
AcDbEntity
  8
0
  6
Continuous
 62
     7
100
AcDbLine
 10
548.564012572
 20
134.431054644
 30
0.0
 11
547.5645005449999
 21
135.399818332
 31
0.0
  0
LINE
  5
2C7
330
1F
100
AcDbEntity
  8
0
  6
Continuous
 62
     7
100
AcDbLine
 10
548.564012572
 20
134.431054644
 30
0.0
 11
549.0337621809999
 21
119.399818332
 31
0.0
  0
LINE
  5
2C8
330
1F
100
AcDbEntity
  8
0
  6
Continuous
 62
     7
100
AcDbLine
 10
532.2899999999999
 20
129.399818332
 30
0.0
 11
532.2899999999999
 21
135.399818332
 31
0.0
  0
LINE
  5
2C9
330
1F
100
AcDbEntity
  8
0
  6
Continuous
 62
     7
100
AcDbLine
 10
529.015499455
 20
135.399818332
 30
0.0
 11
538.2899999999999
 21
135.399818332
 31
0.0
  0
LINE
  5
2CA
330
1F
100
AcDbEntity
  8
0
  6
Continuous
 62
     7
100
AcDbLine
 10
528.015987428
 20
134.431054644
 30
0.0
 11
529.015499455
 21
135.399818332
 31
0.0
  0
LINE
  5
2CB
330
1F
100
AcDbEntity
  8
0
  6
Continuous
 62
     7
100
AcDbLine
 10
528.015987428
 20
134.431054644
 30
0.0
 11
527.546237819
 21
119.399818332
 31
0.0
  0
LINE
  5
2CC
330
1F
100
AcDbEntity
  8
0
  6
Continuous
 62
     7
100
AcDbLine
 10
545.296226574
 20
129.399818332
 30
0.0
 11
538.2899999999999
 21
129.399818332
 31
0.0
  0
LINE
  5
2CD
330
1F
100
AcDbEntity
  8
0
  6
Continuous
 62
     7
100
AcDbLine
 10
546.247667134
 20
126.399818332
 30
0.0
 11
538.2899999999999
 21
126.399818332
 31
0.0
  0
LINE
  5
2CE
330
1F
100
AcDbEntity
  8
0
  6
Continuous
 62
     7
100
AcDbLine
 10
531.283773426
 20
129.399818332
 30
0.0
 11
538.2899999999999
 21
129.399818332
 31
0.0
  0
LINE
  5
2CF
330
1F
100
AcDbEntity
  8
0
  6
Continuous
 62
     7
100
AcDbLine
 10
530.332332866
 20
126.399818332
 30
0.0
 11
538.2899999999999
 21
126.399818332
 31
0.0
  0
LINE
  5
2D0
330
1F
100
AcDbEntity
  8
0
  6
Continuous
 62
     7
100
AcDbLine
 10
551.29
 20
119.099818332
 30
0.0
 11
550.99
 21
119.399818332
 31
0.0
  0
LINE
  5
2D1
330
1F
100
AcDbEntity
  8
0
  6
Continuous
 62
     7
100
AcDbLine
 10
538.2899999999999
 20
114.399818332
 30
0.0
 11
550.99
 21
114.399818332
 31
0.0
  0
LINE
  5
2D2
330
1F
100
AcDbEntity
  8
0
  6
Continuous
 62
     7
100
AcDbLine
 10
551.29
 20
114.699818332
 30
0.0
 11
551.29
 21
119.099818332
 31
0.0
  0
LINE
  5
2D3
330
1F
100
AcDbEntity
  8
0
  6
Continuous
 62
     7
100
AcDbLine
 10
550.99
 20
114.399818332
 30
0.0
 11
551.29
 21
114.699818332
 31
0.0
  0
LINE
  5
2D4
330
1F
100
AcDbEntity
  8
0
  6
Continuous
 62
     7
100
AcDbLine
 10
550.99
 20
119.399818332
 30
0.0
 11
549.0337621809999
 21
119.399818332
 31
0.0
  0
LINE
  5
2D5
330
1F
100
AcDbEntity
  8
0
  6
Continuous
 62
     7
100
AcDbLine
 10
546.6199999999999
 20
114.399818332
 30
0.0
 11
545.7318526009999
 21
115.460482094
 31
0.0
  0
LINE
  5
2D6
330
1F
100
AcDbEntity
  8
0
  6
Continuous
 62
     7
100
AcDbLine
 10
545.7318526009999
 20
115.460482094
 30
0.0
 11
545.296226574
 21
129.399818332
 31
0.0
  0
LINE
  5
2D7
330
1F
100
AcDbEntity
  8
0
  6
Continuous
 62
     7
100
AcDbLine
 10
545.7318526009999
 20
115.460482094
 30
0.0
 11
538.2899999999999
 21
115.460482094
 31
0.0
  0
LINE
  5
2D8
330
1F
100
AcDbEntity
  8
0
  6
Continuous
 62
     7
100
AcDbLine
 10
529.96
 20
114.399818332
 30
0.0
 11
530.848147399
 21
115.460482094
 31
0.0
  0
LINE
  5
2D9
330
1F
100
AcDbEntity
  8
0
  6
Continuous
 62
     7
100
AcDbLine
 10
530.848147399
 20
115.460482094
 30
0.0
 11
538.2899999999999
 21
115.460482094
 31
0.0
  0
LINE
  5
2DA
330
1F
100
AcDbEntity
  8
0
  6
Continuous
 62
     7
100
AcDbLine
 10
530.848147399
 20
115.460482094
 30
0.0
 11
531.283773426
 21
129.399818332
 31
0.0
  0
LINE
  5
2DB
330
1F
100
AcDbEntity
  8
0
  6
Continuous
 62
     7
100
AcDbLine
 10
538.2899999999999
 20
114.399818332
 30
0.0
 11
525.59
 21
114.399818332
 31
0.0
  0
LINE
  5
2DC
330
1F
100
AcDbEntity
  8
0
  6
Continuous
 62
     7
100
AcDbLine
 10
525.59
 20
114.399818332
 30
0.0
 11
525.2899999999999
 21
114.699818332
 31
0.0
  0
LINE
  5
2DD
330
1F
100
AcDbEntity
  8
0
  6
Continuous
 62
     7
100
AcDbLine
 10
525.2899999999999
 20
119.099818332
 30
0.0
 11
525.59
 21
119.399818332
 31
0.0
  0
LINE
  5
2DE
330
1F
100
AcDbEntity
  8
0
  6
Continuous
 62
     7
100
AcDbLine
 10
525.2899999999999
 20
114.699818332
 30
0.0
 11
525.2899999999999
 21
119.099818332
 31
0.0
  0
LINE
  5
2DF
330
1F
100
AcDbEntity
  8
0
  6
Continuous
 62
     7
100
AcDbLine
 10
525.59
 20
119.399818332
 30
0.0
 11
527.546237819
 21
119.399818332
 31
0.0
  0
LINE
  5
2E0
330
1F
100
AcDbEntity
  8
0
  6
Continuous
 62
     7
100
AcDbLine
 10
546.6199999999999
 20
114.399818332
 30
0.0
 11
546.244687663
 21
126.40921294
 31
0.0
  0
LINE
  5
2E1
330
1F
100
AcDbEntity
  8
0
  6
Continuous
 62
     7
100
AcDbLine
 10
549.011864734
 20
120.100501639
 30
0.0
 11
548.031356649
 21
121.277111341
 31
0.0
  0
LINE
  5
2E2
330
1F
100
AcDbEntity
  8
0
  6
Continuous
 62
     7
100
AcDbLine
 10
547.59
 20
135.399818332
 30
0.0
 11
548.031356649
 21
121.277111341
 31
0.0
  0
LINE
  5
2E3
330
1F
100
AcDbEntity
  8
0
  6
Continuous
 62
     7
100
AcDbLine
 10
546.244687663
 20
126.40921294
 30
0.0
 11
545.296226574
 21
129.399818332
 31
0.0
  0
LINE
  5
2E4
330
1F
100
AcDbEntity
  8
0
  6
Continuous
 62
     7
100
AcDbLine
 10
530.3353123369999
 20
126.40921294
 30
0.0
 11
531.283773426
 21
129.399818332
 31
0.0
  0
LINE
  5
2E5
330
1F
100
AcDbEntity
  8
0
  6
Continuous
 62
     7
100
AcDbLine
 10
529.96
 20
114.399818332
 30
0.0
 11
530.3353123369999
 21
126.40921294
 31
0.0
  0
LINE
  5
2E6
330
1F
100
AcDbEntity
  8
0
  6
Continuous
 62
     7
100
AcDbLine
 10
527.568135266
 20
120.100501639
 30
0.0
 11
528.548643351
 21
121.277111341
 31
0.0
  0
LINE
  5
2E7
330
1F
100
AcDbEntity
  8
0
  6
Continuous
 62
     7
100
AcDbLine
 10
528.99
 20
135.399818332
 30
0.0
 11
528.548643351
 21
121.277111341
 31
0.0
  0
LINE
  5
2E8
330
1F
100
AcDbEntity
  8
0
  6
Continuous
 62
     7
100
AcDbLine
 10
532.2899999999999
 20
271.399818332
 30
0.0
 11
532.2899999999999
 21
265.399818332
 31
0.0
  0
LINE
  5
2E9
330
1F
100
AcDbEntity
  8
0
  6
Continuous
 62
     7
100
AcDbLine
 10
529.015499455
 20
265.399818332
 30
0.0
 11
538.2899999999999
 21
265.399818332
 31
0.0
  0
LINE
  5
2EA
330
1F
100
AcDbEntity
  8
0
  6
Continuous
 62
     7
100
AcDbLine
 10
528.015987428
 20
266.36858202
 30
0.0
 11
529.015499455
 21
265.399818332
 31
0.0
  0
LINE
  5
2EB
330
1F
100
AcDbEntity
  8
0
  6
Continuous
 62
     7
100
AcDbLine
 10
528.015987428
 20
266.36858202
 30
0.0
 11
527.546237819
 21
281.399818332
 31
0.0
  0
LINE
  5
2EC
330
1F
100
AcDbEntity
  8
0
  6
Continuous
 62
     7
100
AcDbLine
 10
544.2899999999999
 20
271.399818332
 30
0.0
 11
544.2899999999999
 21
265.399818332
 31
0.0
  0
LINE
  5
2ED
330
1F
100
AcDbEntity
  8
0
  6
Continuous
 62
     7
100
AcDbLine
 10
547.5645005449999
 20
265.399818332
 30
0.0
 11
538.2899999999999
 21
265.399818332
 31
0.0
  0
LINE
  5
2EE
330
1F
100
AcDbEntity
  8
0
  6
Continuous
 62
     7
100
AcDbLine
 10
548.564012572
 20
266.36858202
 30
0.0
 11
547.5645005449999
 21
265.399818332
 31
0.0
  0
LINE
  5
2EF
330
1F
100
AcDbEntity
  8
0
  6
Continuous
 62
     7
100
AcDbLine
 10
548.564012572
 20
266.36858202
 30
0.0
 11
549.0337621809999
 21
281.399818332
 31
0.0
  0
LINE
  5
2F0
330
1F
100
AcDbEntity
  8
0
  6
Continuous
 62
     7
100
AcDbLine
 10
531.283773426
 20
271.399818332
 30
0.0
 11
538.2899999999999
 21
271.399818332
 31
0.0
  0
LINE
  5
2F1
330
1F
100
AcDbEntity
  8
0
  6
Continuous
 62
     7
100
AcDbLine
 10
530.332332866
 20
274.399818332
 30
0.0
 11
538.2899999999999
 21
274.399818332
 31
0.0
  0
LINE
  5
2F2
330
1F
100
AcDbEntity
  8
0
  6
Continuous
 62
     7
100
AcDbLine
 10
545.296226574
 20
271.399818332
 30
0.0
 11
538.2899999999999
 21
271.399818332
 31
0.0
  0
LINE
  5
2F3
330
1F
100
AcDbEntity
  8
0
  6
Continuous
 62
     7
100
AcDbLine
 10
546.247667134
 20
274.399818332
 30
0.0
 11
538.2899999999999
 21
274.399818332
 31
0.0
  0
LINE
  5
2F4
330
1F
100
AcDbEntity
  8
0
  6
Continuous
 62
     7
100
AcDbLine
 10
525.2899999999999
 20
281.699818332
 30
0.0
 11
525.59
 21
281.399818332
 31
0.0
  0
LINE
  5
2F5
330
1F
100
AcDbEntity
  8
0
  6
Continuous
 62
     7
100
AcDbLine
 10
538.2899999999999
 20
286.399818332
 30
0.0
 11
525.59
 21
286.399818332
 31
0.0
  0
LINE
  5
2F6
330
1F
100
AcDbEntity
  8
0
  6
Continuous
 62
     7
100
AcDbLine
 10
525.2899999999999
 20
286.099818332
 30
0.0
 11
525.2899999999999
 21
281.699818332
 31
0.0
  0
LINE
  5
2F7
330
1F
100
AcDbEntity
  8
0
  6
Continuous
 62
     7
100
AcDbLine
 10
525.59
 20
286.399818332
 30
0.0
 11
525.2899999999999
 21
286.099818332
 31
0.0
  0
LINE
  5
2F8
330
1F
100
AcDbEntity
  8
0
  6
Continuous
 62
     7
100
AcDbLine
 10
525.59
 20
281.399818332
 30
0.0
 11
527.546237819
 21
281.399818332
 31
0.0
  0
LINE
  5
2F9
330
1F
100
AcDbEntity
  8
0
  6
Continuous
 62
     7
100
AcDbLine
 10
529.96
 20
286.399818332
 30
0.0
 11
530.848147399
 21
285.33915457
 31
0.0
  0
LINE
  5
2FA
330
1F
100
AcDbEntity
  8
0
  6
Continuous
 62
     7
100
AcDbLine
 10
530.848147399
 20
285.33915457
 30
0.0
 11
531.283773426
 21
271.399818332
 31
0.0
  0
LINE
  5
2FB
330
1F
100
AcDbEntity
  8
0
  6
Continuous
 62
     7
100
AcDbLine
 10
530.848147399
 20
285.33915457
 30
0.0
 11
538.2899999999999
 21
285.33915457
 31
0.0
  0
LINE
  5
2FC
330
1F
100
AcDbEntity
  8
0
  6
Continuous
 62
     7
100
AcDbLine
 10
546.6199999999999
 20
286.399818332
 30
0.0
 11
545.7318526009999
 21
285.33915457
 31
0.0
  0
LINE
  5
2FD
330
1F
100
AcDbEntity
  8
0
  6
Continuous
 62
     7
100
AcDbLine
 10
545.7318526009999
 20
285.33915457
 30
0.0
 11
538.2899999999999
 21
285.33915457
 31
0.0
  0
LINE
  5
2FE
330
1F
100
AcDbEntity
  8
0
  6
Continuous
 62
     7
100
AcDbLine
 10
545.7318526009999
 20
285.33915457
 30
0.0
 11
545.296226574
 21
271.399818332
 31
0.0
  0
LINE
  5
2FF
330
1F
100
AcDbEntity
  8
0
  6
Continuous
 62
     7
100
AcDbLine
 10
538.2899999999999
 20
286.399818332
 30
0.0
 11
550.99
 21
286.399818332
 31
0.0
  0
LINE
  5
300
330
1F
100
AcDbEntity
  8
0
  6
Continuous
 62
     7
100
AcDbLine
 10
550.99
 20
286.399818332
 30
0.0
 11
551.29
 21
286.099818332
 31
0.0
  0
LINE
  5
301
330
1F
100
AcDbEntity
  8
0
  6
Continuous
 62
     7
100
AcDbLine
 10
551.29
 20
281.699818332
 30
0.0
 11
550.99
 21
281.399818332
 31
0.0
  0
LINE
  5
302
330
1F
100
AcDbEntity
  8
0
  6
Continuous
 62
     7
100
AcDbLine
 10
551.29
 20
286.099818332
 30
0.0
 11
551.29
 21
281.699818332
 31
0.0
  0
LINE
  5
303
330
1F
100
AcDbEntity
  8
0
  6
Continuous
 62
     7
100
AcDbLine
 10
550.99
 20
281.399818332
 30
0.0
 11
549.0337621809999
 21
281.399818332
 31
0.0
  0
LINE
  5
304
330
1F
100
AcDbEntity
  8
0
  6
Continuous
 62
     7
100
AcDbLine
 10
529.96
 20
286.399818332
 30
0.0
 11
530.3353123369999
 21
274.390423724
 31
0.0
  0
LINE
  5
305
330
1F
100
AcDbEntity
  8
0
  6
Continuous
 62
     7
100
AcDbLine
 10
527.568135266
 20
280.699135025
 30
0.0
 11
528.548643351
 21
279.522525323
 31
0.0
  0
LINE
  5
306
330
1F
100
AcDbEntity
  8
0
  6
Continuous
 62
     7
100
AcDbLine
 10
528.99
 20
265.399818332
 30
0.0
 11
528.548643351
 21
279.522525323
 31
0.0
  0
LINE
  5
307
330
1F
100
AcDbEntity
  8
0
  6
Continuous
 62
     7
100
AcDbLine
 10
530.3353123369999
 20
274.390423724
 30
0.0
 11
531.283773426
 21
271.399818332
 31
0.0
  0
LINE
  5
308
330
1F
100
AcDbEntity
  8
0
  6
Continuous
 62
     7
100
AcDbLine
 10
546.244687663
 20
274.390423724
 30
0.0
 11
545.296226574
 21
271.399818332
 31
0.0
  0
LINE
  5
309
330
1F
100
AcDbEntity
  8
0
  6
Continuous
 62
     7
100
AcDbLine
 10
546.6199999999999
 20
286.399818332
 30
0.0
 11
546.244687663
 21
274.390423724
 31
0.0
  0
LINE
  5
30A
330
1F
100
AcDbEntity
  8
0
  6
Continuous
 62
     7
100
AcDbLine
 10
549.011864734
 20
280.699135025
 30
0.0
 11
548.031356649
 21
279.522525323
 31
0.0
  0
LINE
  5
30B
330
1F
100
AcDbEntity
  8
0
  6
Continuous
 62
     7
100
AcDbLine
 10
547.59
 20
265.399818332
 30
0.0
 11
548.031356649
 21
279.522525323
 31
0.0
  0
MTEXT
  5
30C
330
1F
100
AcDbEntity
  8
0
  6
Continuous
 62
     7
100
AcDbMText
 10
360.23
 20
389.809818332
 30
0.0
 40
8.0
 41
156.0
 71
     7
 72
     1
  1
\W0.750;ＧＤＲ１０１ＢＤＨＥＡＡＡ
  7
KANJI0
 73
     1
 44
1.0
1001
ACAD
1000
MTEXTBEGIN
1070
    73
1070
     1
1070
    44
1040
1.0
1070
    74
1070
     0
1000
MTEXTEND
  0
MTEXT
  5
30D
330
1F
100
AcDbEntity
  8
0
  6
Continuous
 62
     7
100
AcDbMText
 10
508.03
 20
389.809818332
 30
0.0
 40
8.0
 41
156.0
 71
     7
 72
     1
  1
\W0.750;ＧＤＲ１０１ＣＤＨＥＡＡＡ
  7
KANJI0
 73
     1
 44
1.0
1001
ACAD
1000
MTEXTBEGIN
1070
    73
1070
     1
1070
    44
1040
1.0
1070
    74
1070
     0
1000
MTEXTEND
  0
LINE
  5
30E
330
1F
100
AcDbEntity
  8
0
  6
Continuous
 62
     7
100
AcDbLine
 10
527.733747189
 20
275.399818332
 30
0.0
 11
525.2899999999999
 21
275.399818332
 31
0.0
  0
LINE
  5
30F
330
1F
100
AcDbEntity
  8
0
  6
Continuous
 62
     7
100
AcDbLine
 10
551.29
 20
275.399818332
 30
0.0
 11
548.846252811
 21
275.399818332
 31
0.0
  0
LINE
  5
310
330
1F
100
AcDbEntity
  8
0
  6
Continuous
 62
     7
100
AcDbLine
 10
548.846252811
 20
125.399818332
 30
0.0
 11
551.29
 21
125.399818332
 31
0.0
  0
LINE
  5
311
330
1F
100
AcDbEntity
  8
0
  6
Continuous
 62
     7
100
AcDbLine
 10
525.2899999999999
 20
125.399818332
 30
0.0
 11
527.82
 21
125.399818332
 31
0.0
  0
LINE
  5
312
330
1F
100
AcDbEntity
  8
0
  6
Continuous
 62
     7
100
AcDbLine
 10
405.2762528109999
 20
125.399818332
 30
0.0
 11
407.72
 21
125.399818332
 31
0.0
  0
LINE
  5
313
330
1F
100
AcDbEntity
  8
0
  6
Continuous
 62
     7
100
AcDbLine
 10
381.72
 20
125.399818332
 30
0.0
 11
384.163747189
 21
125.399818332
 31
0.0
  0
LINE
  5
314
330
1F
100
AcDbEntity
  8
0
  6
Continuous
 62
     7
100
AcDbLine
 10
384.25
 20
275.399818332
 30
0.0
 11
381.72
 21
275.399818332
 31
0.0
  0
LINE
  5
315
330
1F
100
AcDbEntity
  8
0
  6
Continuous
 62
     7
100
AcDbLine
 10
407.72
 20
275.399818332
 30
0.0
 11
405.1899999999999
 21
275.399818332
 31
0.0
  0
CIRCLE
  5
316
330
1F
100
AcDbEntity
  8
0
  6
Continuous
 62
     7
100
AcDbCircle
 10
394.72
 20
333.358818332
 30
0.0
 40
5.736837107999999
  0
CIRCLE
  5
317
330
1F
100
AcDbEntity
  8
0
  6
Continuous
 62
     7
100
AcDbCircle
 10
394.72
 20
333.358818332
 30
0.0
 40
6.199739302999999
  0
CIRCLE
  5
318
330
1F
100
AcDbEntity
  8
0
  6
Continuous
 62
     7
100
AcDbCircle
 10
538.2899999999999
 20
333.358818332
 30
0.0
 40
8.294727241
  0
CIRCLE
  5
319
330
1F
100
AcDbEntity
  8
0
  6
Continuous
 62
     7
100
AcDbCircle
 10
538.2899999999999
 20
333.358818332
 30
0.0
 40
7.748612779
  0
LINE
  5
31B
330
1F
100
AcDbEntity
  8
0
  6
LTYPE1
 62
     7
100
AcDbLine
 10
255.57
 20
249.399818332
 30
0.0
 11
255.57
 21
256.399818332
 31
0.0
  0
LINE
  5
31C
330
1F
100
AcDbEntity
  8
0
  6
LTYPE1
 62
     7
100
AcDbLine
 10
254.57
 20
255.399818332
 30
0.0
 11
254.57
 21
248.399818332
 31
0.0
  0
LINE
  5
31D
330
1F
100
AcDbEntity
  8
0
  6
LTYPE1
 62
     7
100
AcDbLine
 10
230.57
 20
249.399818332
 30
0.0
 11
230.57
 21
256.399818332
 31
0.0
  0
LINE
  5
31E
330
1F
100
AcDbEntity
  8
0
  6
LTYPE1
 62
     7
100
AcDbLine
 10
231.57
 20
255.399818332
 30
0.0
 11
231.57
 21
248.399818332
 31
0.0
  0
LINE
  5
31F
330
1F
100
AcDbEntity
  8
0
  6
LTYPE1
 62
     7
100
AcDbLine
 10
254.57
 20
145.399818332
 30
0.0
 11
254.57
 21
152.399818332
 31
0.0
  0
LINE
  5
320
330
1F
100
AcDbEntity
  8
0
  6
LTYPE1
 62
     7
100
AcDbLine
 10
255.57
 20
151.399818332
 30
0.0
 11
255.57
 21
144.399818332
 31
0.0
  0
LINE
  5
321
330
1F
100
AcDbEntity
  8
0
  6
LTYPE1
 62
     7
100
AcDbLine
 10
231.57
 20
145.399818332
 30
0.0
 11
231.57
 21
152.399818332
 31
0.0
  0
LINE
  5
322
330
1F
100
AcDbEntity
  8
0
  6
LTYPE1
 62
     7
100
AcDbLine
 10
230.57
 20
151.399818332
 30
0.0
 11
230.57
 21
144.399818332
 31
0.0
  0
LINE
  5
323
330
1F
100
AcDbEntity
  8
0
  6
LTYPE1
 62
     7
100
AcDbLine
 10
243.07
 20
122.500715893
 30
0.0
 11
243.07
 21
278.399818332
 31
0.0
  0
LINE
  5
324
330
1F
100
AcDbEntity
  8
0
  6
LTYPE1
 62
     7
100
AcDbLine
 10
224.481542732
 20
333.358818332
 30
0.0
 11
261.658457268
 21
333.358818332
 31
0.0
  0
LINE
  5
325
330
1F
100
AcDbEntity
  8
0
  6
LTYPE1
 62
     7
100
AcDbLine
 10
243.07
 20
349.8588183319999
 30
0.0
 11
243.07
 21
316.858818332
 31
0.0
  0
LINE
  5
326
330
1F
100
AcDbEntity
  8
0
  6
LTYPE1
 62
     7
100
AcDbLine
 10
407.22
 20
249.399818332
 30
0.0
 11
407.22
 21
256.399818332
 31
0.0
  0
LINE
  5
327
330
1F
100
AcDbEntity
  8
0
  6
LTYPE1
 62
     7
100
AcDbLine
 10
406.22
 20
255.399818332
 30
0.0
 11
406.22
 21
248.399818332
 31
0.0
  0
LINE
  5
328
330
1F
100
AcDbEntity
  8
0
  6
LTYPE1
 62
     7
100
AcDbLine
 10
382.22
 20
249.399818332
 30
0.0
 11
382.22
 21
256.399818332
 31
0.0
  0
LINE
  5
329
330
1F
100
AcDbEntity
  8
0
  6
LTYPE1
 62
     7
100
AcDbLine
 10
383.22
 20
255.399818332
 30
0.0
 11
383.22
 21
248.399818332
 31
0.0
  0
LINE
  5
32A
330
1F
100
AcDbEntity
  8
0
  6
LTYPE1
 62
     7
100
AcDbLine
 10
406.22
 20
145.399818332
 30
0.0
 11
406.22
 21
152.399818332
 31
0.0
  0
LINE
  5
32B
330
1F
100
AcDbEntity
  8
0
  6
LTYPE1
 62
     7
100
AcDbLine
 10
407.22
 20
151.399818332
 30
0.0
 11
407.22
 21
144.399818332
 31
0.0
  0
LINE
  5
32C
330
1F
100
AcDbEntity
  8
0
  6
LTYPE1
 62
     7
100
AcDbLine
 10
383.22
 20
145.399818332
 30
0.0
 11
383.22
 21
152.399818332
 31
0.0
  0
LINE
  5
32D
330
1F
100
AcDbEntity
  8
0
  6
LTYPE1
 62
     7
100
AcDbLine
 10
382.22
 20
151.399818332
 30
0.0
 11
382.22
 21
144.399818332
 31
0.0
  0
LINE
  5
32E
330
1F
100
AcDbEntity
  8
0
  6
LTYPE1
 62
     7
100
AcDbLine
 10
376.131542732
 20
333.358818332
 30
0.0
 11
413.308457268
 21
333.358818332
 31
0.0
  0
LINE
  5
32F
330
1F
100
AcDbEntity
  8
0
  6
LTYPE1
 62
     7
100
AcDbLine
 10
394.72
 20
349.8588183319999
 30
0.0
 11
394.72
 21
316.858818332
 31
0.0
  0
LINE
  5
330
330
1F
100
AcDbEntity
  8
0
  6
LTYPE1
 62
     7
100
AcDbLine
 10
550.7899999999999
 20
249.399818332
 30
0.0
 11
550.7899999999999
 21
256.399818332
 31
0.0
  0
LINE
  5
331
330
1F
100
AcDbEntity
  8
0
  6
LTYPE1
 62
     7
100
AcDbLine
 10
549.7899999999999
 20
255.399818332
 30
0.0
 11
549.7899999999999
 21
248.399818332
 31
0.0
  0
LINE
  5
332
330
1F
100
AcDbEntity
  8
0
  6
LTYPE1
 62
     7
100
AcDbLine
 10
525.7899999999999
 20
249.399818332
 30
0.0
 11
525.7899999999999
 21
256.399818332
 31
0.0
  0
LINE
  5
333
330
1F
100
AcDbEntity
  8
0
  6
LTYPE1
 62
     7
100
AcDbLine
 10
526.79
 20
255.399818332
 30
0.0
 11
526.79
 21
248.399818332
 31
0.0
  0
LINE
  5
334
330
1F
100
AcDbEntity
  8
0
  6
LTYPE1
 62
     7
100
AcDbLine
 10
549.7899999999999
 20
145.399818332
 30
0.0
 11
549.7899999999999
 21
152.399818332
 31
0.0
  0
LINE
  5
335
330
1F
100
AcDbEntity
  8
0
  6
LTYPE1
 62
     7
100
AcDbLine
 10
550.7899999999999
 20
151.399818332
 30
0.0
 11
550.7899999999999
 21
144.399818332
 31
0.0
  0
LINE
  5
336
330
1F
100
AcDbEntity
  8
0
  6
LTYPE1
 62
     7
100
AcDbLine
 10
526.79
 20
145.399818332
 30
0.0
 11
526.79
 21
152.399818332
 31
0.0
  0
LINE
  5
337
330
1F
100
AcDbEntity
  8
0
  6
LTYPE1
 62
     7
100
AcDbLine
 10
525.7899999999999
 20
151.399818332
 30
0.0
 11
525.7899999999999
 21
144.399818332
 31
0.0
  0
LINE
  5
338
330
1F
100
AcDbEntity
  8
0
  6
LTYPE1
 62
     7
100
AcDbLine
 10
519.701542732
 20
333.358818332
 30
0.0
 11
556.878457268
 21
333.358818332
 31
0.0
  0
LINE
  5
339
330
1F
100
AcDbEntity
  8
0
  6
LTYPE1
 62
     7
100
AcDbLine
 10
538.2899999999999
 20
349.8588183319999
 30
0.0
 11
538.2899999999999
 21
316.858818332
 31
0.0
  0
LINE
  5
33A
330
1F
100
AcDbEntity
  8
0
  6
LTYPE1
 62
     7
100
AcDbLine
 10
394.72
 20
114.399818332
 30
0.0
 11
401.2999999999999
 21
114.399818332
 31
0.0
  0
LINE
  5
33B
330
1F
100
AcDbEntity
  8
0
  6
LTYPE1
 62
     7
100
AcDbLine
 10
394.72
 20
114.399818332
 30
0.0
 11
388.14
 21
114.399818332
 31
0.0
  0
LINE
  5
33C
330
1F
100
AcDbEntity
  8
0
  6
LTYPE1
 62
     7
100
AcDbLine
 10
394.72
 20
286.399818332
 30
0.0
 11
388.14
 21
286.399818332
 31
0.0
  0
LINE
  5
33D
330
1F
100
AcDbEntity
  8
0
  6
LTYPE1
 62
     7
100
AcDbLine
 10
394.72
 20
286.399818332
 30
0.0
 11
401.2999999999999
 21
286.399818332
 31
0.0
  0
LINE
  5
33E
330
1F
100
AcDbEntity
  8
0
  6
LTYPE1
 62
     7
100
AcDbLine
 10
538.2899999999999
 20
114.399818332
 30
0.0
 11
546.6199999999999
 21
114.399818332
 31
0.0
  0
LINE
  5
33F
330
1F
100
AcDbEntity
  8
0
  6
LTYPE1
 62
     7
100
AcDbLine
 10
538.2899999999999
 20
114.399818332
 30
0.0
 11
529.96
 21
114.399818332
 31
0.0
  0
LINE
  5
340
330
1F
100
AcDbEntity
  8
0
  6
LTYPE1
 62
     7
100
AcDbLine
 10
538.2899999999999
 20
286.399818332
 30
0.0
 11
529.96
 21
286.399818332
 31
0.0
  0
LINE
  5
341
330
1F
100
AcDbEntity
  8
0
  6
LTYPE1
 62
     7
100
AcDbLine
 10
538.2899999999999
 20
286.399818332
 30
0.0
 11
546.6199999999999
 21
286.399818332
 31
0.0
  0
LINE
  5
342
330
1F
100
AcDbEntity
  8
0
  6
LTYPE1
 62
     7
100
AcDbLine
 10
538.2899999999999
 20
114.399818332
 30
0.0
 11
538.2899999999999
 21
286.399818332
 31
0.0
  0
LINE
  5
343
330
1F
100
AcDbEntity
  8
0
  6
LTYPE1
 62
     7
100
AcDbLine
 10
394.72
 20
114.399818332
 30
0.0
 11
394.72
 21
286.399818332
 31
0.0
  0
ENDSEC
  0
SECTION
  2
OBJECTS
  0
DICTIONARY
  5
C
330
0
100
AcDbDictionary
281
     1
  3
ACAD_COLOR
350
35B
  3
ACAD_GROUP
350
D
  3
ACAD_LAYOUT
350
1A
  3
ACAD_MATERIAL
350
346
  3
ACAD_MLINESTYLE
350
17
  3
ACAD_PLOTSETTINGS
350
19
  3
ACAD_PLOTSTYLENAME
350
E
  3
ACAD_TABLESTYLE
350
35C
  3
ACAD_VISUALSTYLE
350
34A
  3
AcDbVariableDictionary
350
366
  3
DWGPROPS
350
36B
  0
DICTIONARY
  5
361
330
2
100
AcDbDictionary
280
     1
281
     1
  3
ACAD_LAYERFILTERS
360
365
  3
ACLYDICTIONARY
360
364
  0
DICTIONARY
  5
35B
102
{ACAD_REACTORS
330
C
102
}
330
C
100
AcDbDictionary
281
     1
  0
DICTIONARY
  5
D
102
{ACAD_REACTORS
330
C
102
}
330
C
100
AcDbDictionary
281
     1
  0
DICTIONARY
  5
1A
102
{ACAD_REACTORS
330
C
102
}
330
C
100
AcDbDictionary
281
     1
  3
Model
350
22
  3
ﾚｲｱｳﾄ1
350
1E
  3
ﾚｲｱｳﾄ2
350
26
  0
DICTIONARY
  5
346
102
{ACAD_REACTORS
330
C
102
}
330
C
100
AcDbDictionary
281
     1
  3
ByBlock
350
348
  3
ByLayer
350
347
  3
Global
350
349
  0
DICTIONARY
  5
17
102
{ACAD_REACTORS
330
C
102
}
330
C
100
AcDbDictionary
281
     1
  3
Standard
350
18
  0
DICTIONARY
  5
19
102
{ACAD_REACTORS
330
C
102
}
330
C
100
AcDbDictionary
281
     1
  0
ACDBDICTIONARYWDFLT
  5
E
330
C
100
AcDbDictionary
281
     0
  3
Normal
350
F
100
AcDbDictionaryWithDefault
340
F
  0
DICTIONARY
  5
35C
102
{ACAD_REACTORS
330
C
102
}
330
C
100
AcDbDictionary
281
     1
  3
Standard
350
35D
  0
DICTIONARY
  5
34A
102
{ACAD_REACTORS
330
C
102
}
330
C
100
AcDbDictionary
281
     1
  3
2dWireframe
350
350
  3
3D Hidden
350
352
  3
3dWireframe
350
351
  3
Basic
350
34F
  3
Brighten
350
356
  3
ColorChange
350
35A
  3
Conceptual
350
353
  3
Dim
350
355
  3
Facepattern
350
359
  3
Flat
350
34B
  3
FlatWithEdges
350
34C
  3
Gouraud
350
34D
  3
GouraudWithEdges
350
34E
  3
Linepattern
350
358
  3
Realistic
350
354
  3
Thicken
350
357
  0
DICTIONARY
  5
366
102
{ACAD_REACTORS
330
C
102
}
330
C
100
AcDbDictionary
281
     1
  3
CTABLESTYLE
350
367
  3
DIMASSOC
350
36A
  3
INDEXCTL
350
369
  3
SORTENTS
350
368
  0
XRECORD
  5
36B
102
{ACAD_REACTORS
330
C
102
}
330
C
100
AcDbXrecord
280
     1
  1
DWGPROPS COOKIE
  2

  3

  4

  6

  7

  8
gijutsu-sakata
  9

300
=
301
=
302
=
303
=
304
=
305
=
306
=
307
=
308
=
309
=
 40
0.0002475925925926
 41
2457476.616514294
 42
2457476.616761054
  1

 90
        0
  0
DICTIONARY
  5
365
102
{ACAD_REACTORS
330
361
102
}
330
361
100
AcDbDictionary
281
     1
  0
DICTIONARY
  5
364
102
{ACAD_REACTORS
330
361
102
}
330
361
100
AcDbDictionary
281
     1
1001
ACAD
1000
<All
  0
LAYOUT
  5
22
102
{ACAD_XDICTIONARY
360
36E
102
}
102
{ACAD_REACTORS
330
1A
102
}
330
1A
100
AcDbPlotSettings
  1

  2

  4

  6

 40
0.0
 41
0.0
 42
0.0
 43
0.0
 44
0.0
 45
0.0
 46
0.0
 47
0.0
 48
0.0
 49
0.0
140
0.0
141
0.0
142
1.0
143
1.0
 70
  1712
 72
     0
 73
     0
 74
     0
  7

 75
     0
147
1.0
148
0.0
149
0.0
100
AcDbLayout
  1
Model
 70
     1
 71
     0
 10
0.0
 20
0.0
 11
0.0
 21
0.0
 12
0.0
 22
0.0
 32
0.0
 14
0.0
 24
0.0
 34
0.0
 15
0.0
 25
0.0
 35
0.0
146
0.0
 13
0.0
 23
0.0
 33
0.0
 16
1.0
 26
0.0
 36
0.0
 17
0.0
 27
1.0
 37
0.0
 76
     0
330
1F
331
29
  0
LAYOUT
  5
1E
102
{ACAD_XDICTIONARY
360
36C
102
}
102
{ACAD_REACTORS
330
1A
102
}
330
1A
100
AcDbPlotSettings
  1

  2

  4

  6

 40
0.0
 41
0.0
 42
0.0
 43
0.0
 44
0.0
 45
0.0
 46
0.0
 47
0.0
 48
0.0
 49
0.0
140
0.0
141
0.0
142
1.0
143
1.0
 70
   688
 72
     0
 73
     0
 74
     5
  7

 75
    16
147
1.0
148
0.0
149
0.0
100
AcDbLayout
  1
ﾚｲｱｳﾄ1
 70
     1
 71
     1
 10
0.0
 20
0.0
 11
0.0
 21
0.0
 12
0.0
 22
0.0
 32
0.0
 14
1.000000000000000E+20
 24
1.000000000000000E+20
 34
1.000000000000000E+20
 15
-1.000000000000000E+20
 25
-1.000000000000000E+20
 35
-1.000000000000000E+20
146
0.0
 13
0.0
 23
0.0
 33
0.0
 16
1.0
 26
0.0
 36
0.0
 17
0.0
 27
1.0
 37
0.0
 76
     0
330
1B
  0
LAYOUT
  5
26
102
{ACAD_XDICTIONARY
360
370
102
}
102
{ACAD_REACTORS
330
1A
102
}
330
1A
100
AcDbPlotSettings
  1

  2

  4

  6

 40
0.0
 41
0.0
 42
0.0
 43
0.0
 44
0.0
 45
0.0
 46
0.0
 47
0.0
 48
0.0
 49
0.0
140
0.0
141
0.0
142
1.0
143
1.0
 70
   688
 72
     0
 73
     0
 74
     5
  7

 75
    16
147
1.0
148
0.0
149
0.0
100
AcDbLayout
  1
ﾚｲｱｳﾄ2
 70
     1
 71
     2
 10
0.0
 20
0.0
 11
0.0
 21
0.0
 12
0.0
 22
0.0
 32
0.0
 14
0.0
 24
0.0
 34
0.0
 15
0.0
 25
0.0
 35
0.0
146
0.0
 13
0.0
 23
0.0
 33
0.0
 16
1.0
 26
0.0
 36
0.0
 17
0.0
 27
1.0
 37
0.0
 76
     0
330
23
  0
MATERIAL
  5
348
102
{ACAD_XDICTIONARY
360
374
102
}
102
{ACAD_REACTORS
330
346
102
}
330
346
100
AcDbMaterial
  1
ByBlock
  0
MATERIAL
  5
347
102
{ACAD_XDICTIONARY
360
372
102
}
102
{ACAD_REACTORS
330
346
102
}
330
346
100
AcDbMaterial
  1
ByLayer
  0
MATERIAL
  5
349
102
{ACAD_XDICTIONARY
360
376
102
}
102
{ACAD_REACTORS
330
346
102
}
330
346
100
AcDbMaterial
  1
Global
  0
MLINESTYLE
  5
18
102
{ACAD_REACTORS
330
17
102
}
330
17
100
AcDbMlineStyle
  2
STANDARD
 70
     0
  3

 62
   256
 51
90.0
 52
90.0
 71
     2
 49
0.5
 62
   256
  6
BYLAYER
 49
-0.5
 62
   256
  6
BYLAYER
  0
ACDBPLACEHOLDER
  5
F
102
{ACAD_REACTORS
330
E
102
}
330
E
  0
TABLESTYLE
  5
35D
102
{ACAD_XDICTIONARY
360
378
102
}
102
{ACAD_REACTORS
330
35C
102
}
330
35C
100
AcDbTableStyle
  3
Standard
 70
     0
 71
     0
 40
1.5
 41
1.5
280
     0
281
     0
  7
Standard
140
4.5
170
     2
 62
     0
 63
     7
283
     0
274
    -2
284
     1
 64
     0
275
    -2
285
     1
 65
     0
276
    -2
286
     1
 66
     0
277
    -2
287
     1
 67
     0
278
    -2
288
     1
 68
     0
279
    -2
289
     1
 69
     0
  7
Standard
140
6.0
170
     5
 62
     0
 63
     7
283
     0
274
    -2
284
     1
 64
     0
275
    -2
285
     1
 65
     0
276
    -2
286
     1
 66
     0
277
    -2
287
     1
 67
     0
278
    -2
288
     1
 68
     0
279
    -2
289
     1
 69
     0
  7
Standard
140
4.5
170
     5
 62
     0
 63
     7
283
     0
274
    -2
284
     1
 64
     0
275
    -2
285
     1
 65
     0
276
    -2
286
     1
 66
     0
277
    -2
287
     1
 67
     0
278
    -2
288
     1
 68
     0
279
    -2
289
     1
 69
     0
  0
VISUALSTYLE
  5
350
102
{ACAD_REACTORS
330
34A
102
}
330
34A
100
AcDbVisualStyle
  2
2dWireframe
 70
     4
 71
     0
 72
     2
 73
     0
 90
        0
 40
-0.6
 41
-30.0
 62
     5
 63
     7
 74
     1
 91
        4
 64
     7
 65
   257
 75
     1
175
     1
 42
1.0
 92
        0
 66
   257
 43
1.0
 76
     1
 77
     6
 78
     2
 67
     7
 79
     5
170
     0
171
     0
290
     0
174
     0
 93
        1
 44
0.0
173
     0
291
     0
 45
0.0
1001
ACAD
1000
AcDbSavedByObjectVersion
1070
     0
  0
VISUALSTYLE
  5
352
102
{ACAD_REACTORS
330
34A
102
}
330
34A
100
AcDbVisualStyle
  2
3D Hidden
 70
     6
 71
     1
 72
     2
 73
     2
 90
        0
 40
-0.6
 41
-30.0
 62
     5
 63
     7
 74
     2
 91
        2
 64
     7
 65
   257
 75
     2
175
     1
 42
40.0
 92
        0
 66
   257
 43
1.0
 76
     1
 77
     6
 78
     2
 67
     7
 79
     3
170
     0
171
     0
290
     0
174
     0
 93
        1
 44
0.0
173
     0
291
     0
 45
0.0
1001
ACAD
1000
AcDbSavedByObjectVersion
1070
     0
  0
VISUALSTYLE
  5
351
102
{ACAD_REACTORS
330
34A
102
}
330
34A
100
AcDbVisualStyle
  2
3dWireframe
 70
     5
 71
     0
 72
     2
 73
     0
 90
        0
 40
-0.6
 41
-30.0
 62
     5
 63
     7
 74
     1
 91
        4
 64
     7
 65
   257
 75
     1
175
     1
 42
1.0
 92
        0
 66
   257
 43
1.0
 76
     1
 77
     6
 78
     2
 67
     7
 79
     5
170
     0
171
     0
290
     0
174
     0
 93
        1
 44
0.0
173
     0
291
     0
 45
0.0
1001
ACAD
1000
AcDbSavedByObjectVersion
1070
     0
  0
VISUALSTYLE
  5
34F
102
{ACAD_REACTORS
330
34A
102
}
330
34A
100
AcDbVisualStyle
  2
Basic
 70
     7
 71
     1
 72
     0
 73
     1
 90
        0
 40
-0.6
 41
-30.0
 62
     5
 63
     7
 74
     0
 91
        4
 64
     7
 65
   257
 75
     1
175
     1
 42
1.0
 92
        8
 66
     7
 43
1.0
 76
     1
 77
     6
 78
     2
 67
     7
 79
     5
170
     0
171
     0
290
     0
174
     0
 93
        1
 44
0.0
173
     0
291
     1
 45
0.0
1001
ACAD
1000
AcDbSavedByObjectVersion
1070
     0
  0
VISUALSTYLE
  5
356
102
{ACAD_REACTORS
330
34A
102
}
330
34A
100
AcDbVisualStyle
  2
Brighten
 70
    12
 71
     2
 72
     2
 73
     0
 90
        0
 40
-0.6
 41
-30.0
 62
     5
 63
     7
 74
     1
 91
        4
 64
     7
 65
   257
 75
     1
175
     1
 42
1.0
 92
        8
 66
     7
 43
1.0
 76
     1
 77
     6
 78
     2
 67
     7
 79
     5
170
     0
171
     0
290
     0
174
     0
 93
        1
 44
50.0
173
     0
291
     1
 45
0.0
1001
ACAD
1000
AcDbSavedByObjectVersion
1070
     0
  0
VISUALSTYLE
  5
35A
102
{ACAD_REACTORS
330
34A
102
}
330
34A
100
AcDbVisualStyle
  2
ColorChange
 70
    16
 71
     2
 72
     2
 73
     3
 90
        0
 40
-0.6
 41
-30.0
 62
     5
 63
     8
 74
     1
 91
        4
 64
     7
 65
   257
 75
     1
175
     1
 42
1.0
 92
        8
 66
     8
 43
1.0
 76
     1
 77
     6
 78
     2
 67
     7
 79
     5
170
     0
171
     0
290
     0
174
     0
 93
        1
 44
0.0
173
     0
291
     1
 45
0.0
1001
ACAD
1000
AcDbSavedByObjectVersion
1070
     0
  0
VISUALSTYLE
  5
353
102
{ACAD_REACTORS
330
34A
102
}
330
34A
100
AcDbVisualStyle
  2
Conceptual
 70
     9
 71
     3
 72
     2
 73
     0
 90
        0
 40
-0.6
 41
-30.0
 62
     5
 63
     7
 74
     2
 91
        2
 64
     7
 65
   257
 75
     1
175
     1
 42
40.0
 92
        8
 66
     7
 43
1.0
 76
     1
 77
     6
 78
     2
 67
     7
 79
     3
170
     0
171
     0
290
     0
174
     0
 93
        1
 44
0.0
173
     0
291
     0
 45
0.0
1001
ACAD
1000
AcDbSavedByObjectVersion
1070
     0
  0
VISUALSTYLE
  5
355
102
{ACAD_REACTORS
330
34A
102
}
330
34A
100
AcDbVisualStyle
  2
Dim
 70
    11
 71
     2
 72
     2
 73
     0
 90
        0
 40
-0.6
 41
-30.0
 62
     5
 63
     7
 74
     1
 91
        4
 64
     7
 65
   257
 75
     1
175
     1
 42
1.0
 92
        8
 66
     7
 43
1.0
 76
     1
 77
     6
 78
     2
 67
     7
 79
     5
170
     0
171
     0
290
     0
174
     0
 93
        1
 44
-50.0
173
     0
291
     1
 45
0.0
1001
ACAD
1000
AcDbSavedByObjectVersion
1070
     0
  0
VISUALSTYLE
  5
359
102
{ACAD_REACTORS
330
34A
102
}
330
34A
100
AcDbVisualStyle
  2
Facepattern
 70
    15
 71
     2
 72
     2
 73
     0
 90
        0
 40
-0.6
 41
-30.0
 62
     5
 63
     7
 74
     1
 91
        4
 64
     7
 65
   257
 75
     1
175
     1
 42
1.0
 92
        8
 66
     7
 43
1.0
 76
     1
 77
     6
 78
     2
 67
     7
 79
     5
170
     0
171
     0
290
     0
174
     0
 93
        1
 44
0.0
173
     0
291
     1
 45
0.0
1001
ACAD
1000
AcDbSavedByObjectVersion
1070
     0
  0
VISUALSTYLE
  5
34B
102
{ACAD_REACTORS
330
34A
102
}
330
34A
100
AcDbVisualStyle
  2
Flat
 70
     0
 71
     2
 72
     1
 73
     1
 90
        2
 40
-0.6
 41
30.0
 62
     5
 63
     7
 74
     0
 91
        4
 64
     7
 65
   257
 75
     1
175
     1
 42
1.0
 92
        8
 66
     7
 43
1.0
 76
     1
 77
     6
 78
     2
 67
     7
 79
     5
170
     0
171
     0
290
     0
174
     0
 93
       13
 44
0.0
173
     0
291
     1
 45
0.0
1001
ACAD
1000
AcDbSavedByObjectVersion
1070
     0
  0
VISUALSTYLE
  5
34C
102
{ACAD_REACTORS
330
34A
102
}
330
34A
100
AcDbVisualStyle
  2
FlatWithEdges
 70
     1
 71
     2
 72
     1
 73
     1
 90
        2
 40
-0.6
 41
30.0
 62
     5
 63
     7
 74
     1
 91
        4
 64
     7
 65
   257
 75
     1
175
     1
 42
1.0
 92
        0
 66
   257
 43
1.0
 76
     1
 77
     6
 78
     2
 67
     7
 79
     5
170
     0
171
     0
290
     0
174
     0
 93
       13
 44
0.0
173
     0
291
     1
 45
0.0
1001
ACAD
1000
AcDbSavedByObjectVersion
1070
     0
  0
VISUALSTYLE
  5
34D
102
{ACAD_REACTORS
330
34A
102
}
330
34A
100
AcDbVisualStyle
  2
Gouraud
 70
     2
 71
     2
 72
     2
 73
     1
 90
        2
 40
-0.6
 41
30.0
 62
     5
 63
     7
 74
     0
 91
        4
 64
     7
 65
   257
 75
     1
175
     1
 42
1.0
 92
        0
 66
     7
 43
1.0
 76
     1
 77
     6
 78
     2
 67
     7
 79
     5
170
     0
171
     0
290
     0
174
     0
 93
       13
 44
0.0
173
     0
291
     1
 45
0.0
1001
ACAD
1000
AcDbSavedByObjectVersion
1070
     0
  0
VISUALSTYLE
  5
34E
102
{ACAD_REACTORS
330
34A
102
}
330
34A
100
AcDbVisualStyle
  2
GouraudWithEdges
 70
     3
 71
     2
 72
     2
 73
     1
 90
        2
 40
-0.6
 41
30.0
 62
     5
 63
     7
 74
     1
 91
        4
 64
     7
 65
   257
 75
     1
175
     1
 42
1.0
 92
        0
 66
   257
 43
1.0
 76
     1
 77
     6
 78
     2
 67
     7
 79
     5
170
     0
171
     0
290
     0
174
     0
 93
       13
 44
0.0
173
     0
291
     1
 45
0.0
1001
ACAD
1000
AcDbSavedByObjectVersion
1070
     0
  0
VISUALSTYLE
  5
358
102
{ACAD_REACTORS
330
34A
102
}
330
34A
100
AcDbVisualStyle
  2
Linepattern
 70
    14
 71
     2
 72
     2
 73
     0
 90
        0
 40
-0.6
 41
-30.0
 62
     5
 63
     7
 74
     1
 91
        4
 64
     7
 65
   257
 75
     7
175
     7
 42
1.0
 92
        8
 66
     7
 43
1.0
 76
     1
 77
     6
 78
     2
 67
     7
 79
     5
170
     0
171
     0
290
     0
174
     0
 93
        1
 44
0.0
173
     0
291
     1
 45
0.0
1001
ACAD
1000
AcDbSavedByObjectVersion
1070
     0
  0
VISUALSTYLE
  5
354
102
{ACAD_REACTORS
330
34A
102
}
330
34A
100
AcDbVisualStyle
  2
Realistic
 70
     8
 71
     2
 72
     2
 73
     0
 90
        0
 40
-0.6
 41
-30.0
 62
     5
 63
     7
 74
     1
 91
        0
 64
     7
 65
   257
 75
     1
175
     1
 42
1.0
 92
        8
 66
     8
 43
1.0
 76
     1
 77
     6
 78
     2
 67
     7
 79
     5
170
     0
171
     0
290
     0
174
     0
 93
       13
 44
0.0
173
     0
291
     0
 45
0.0
1001
ACAD
1000
AcDbSavedByObjectVersion
1070
     0
  0
VISUALSTYLE
  5
357
102
{ACAD_REACTORS
330
34A
102
}
330
34A
100
AcDbVisualStyle
  2
Thicken
 70
    13
 71
     2
 72
     2
 73
     0
 90
        0
 40
-0.6
 41
-30.0
 62
     5
 63
     7
 74
     1
 91
        4
 64
     7
 65
   257
 75
     1
175
     1
 42
1.0
 92
       12
 66
     7
 43
1.0
 76
     1
 77
     6
 78
     2
 67
     7
 79
     5
170
     0
171
     0
290
     0
174
     0
 93
        1
 44
0.0
173
     0
291
     1
 45
0.0
1001
ACAD
1000
AcDbSavedByObjectVersion
1070
     0
  0
DICTIONARYVAR
  5
367
102
{ACAD_REACTORS
330
366
102
}
330
366
100
DictionaryVariables
280
     0
  1
STANDARD
  0
DICTIONARYVAR
  5
36A
102
{ACAD_REACTORS
330
366
102
}
330
366
100
DictionaryVariables
280
     0
  1
1
  0
DICTIONARYVAR
  5
369
102
{ACAD_REACTORS
330
366
102
}
330
366
100
DictionaryVariables
280
     0
  1
0
  0
DICTIONARYVAR
  5
368
102
{ACAD_REACTORS
330
366
102
}
330
366
100
DictionaryVariables
280
     0
  1
127
  0
DICTIONARY
  5
36E
330
22
100
AcDbDictionary
280
     1
281
     1
  3
ACAD_XREC_ROUNDTRIP
360
36F
  0
DICTIONARY
  5
36C
330
1E
100
AcDbDictionary
280
     1
281
     1
  3
ACAD_XREC_ROUNDTRIP
360
36D
  0
DICTIONARY
  5
370
330
26
100
AcDbDictionary
280
     1
281
     1
  3
ACAD_XREC_ROUNDTRIP
360
371
  0
DICTIONARY
  5
374
330
348
100
AcDbDictionary
280
     1
281
     1
  3
ACAD_XREC_ROUNDTRIP
360
375
  0
DICTIONARY
  5
372
330
347
100
AcDbDictionary
280
     1
281
     1
  3
ACAD_XREC_ROUNDTRIP
360
373
  0
DICTIONARY
  5
376
330
349
100
AcDbDictionary
280
     1
281
     1
  3
ACAD_XREC_ROUNDTRIP
360
377
  0
DICTIONARY
  5
378
330
35D
100
AcDbDictionary
280
     1
281
     1
  3
ACAD_XREC_ROUNDTRIP
360
379
  0
XRECORD
  5
36F
102
{ACAD_REACTORS
330
36E
102
}
330
36E
100
AcDbXrecord
280
     1
102
SHADEPLOT
 70
     0
102
SHADEPLOTRESLEVEL
 70
     2
102
SHADEPLOTCUSTOMDPI
 70
   300
  0
XRECORD
  5
36D
102
{ACAD_REACTORS
330
36C
102
}
330
36C
100
AcDbXrecord
280
     1
102
SHADEPLOT
 70
     0
102
SHADEPLOTRESLEVEL
 70
     2
102
SHADEPLOTCUSTOMDPI
 70
   300
  0
XRECORD
  5
371
102
{ACAD_REACTORS
330
370
102
}
330
370
100
AcDbXrecord
280
     1
102
SHADEPLOT
 70
     0
102
SHADEPLOTRESLEVEL
 70
     2
102
SHADEPLOTCUSTOMDPI
 70
   300
  0
XRECORD
  5
375
102
{ACAD_REACTORS
330
374
102
}
330
374
100
AcDbXrecord
280
     1
102
MATERIAL
148
0.0
149
0.0
149
0.0
 93
        0
 94
       63
282
     0
 72
     1
 77
     1
171
     1
175
     1
179
     1
273
     0
  0
XRECORD
  5
373
102
{ACAD_REACTORS
330
372
102
}
330
372
100
AcDbXrecord
280
     1
102
MATERIAL
148
0.0
149
0.0
149
0.0
 93
        0
 94
       63
282
     0
 72
     1
 77
     1
171
     1
175
     1
179
     1
273
     0
  0
XRECORD
  5
377
102
{ACAD_REACTORS
330
376
102
}
330
376
100
AcDbXrecord
280
     1
102
MATERIAL
148
0.0
149
0.0
149
0.0
 93
        0
 94
       63
282
     0
 72
     1
 77
     1
171
     1
175
     1
179
     1
273
     0
  0
XRECORD
  5
379
102
{ACAD_REACTORS
330
378
102
}
330
378
100
AcDbXrecord
280
     1
102
ACAD_ROUNDTRIP_PRE2007_TABLESTYLE
 90
      512
 91
        0
  1

 92
      512
 93
        0
  2

 94
      512
 95
        0
  3

  0
ENDSEC
  0
EOF
