  0
SECTION
  2
HEADER
  9
$ACADVER
  1
AC1015
  9
$ACADMAINTVER
 70
    20
  9
$DWGCODEPAGE
  3
ANSI_932
  9
$INSBASE
 10
0.0
 20
0.0
 30
0.0
  9
$EXTMIN
 10
92.933
 20
108.4
 30
0.0
  9
$EXTMAX
 10
644.2163333333325
 20
423.3333333333336
 30
0.0
  9
$LIMMIN
 10
0.0
 20
0.0
  9
$LIMMAX
 10
841.0
 20
594.0
  9
$ORTHOMODE
 70
     0
  9
$REGENMODE
 70
     1
  9
$FILLMODE
 70
     1
  9
$QTEXTMODE
 70
     0
  9
$MIRRTEXT
 70
     1
  9
$LTSCALE
 40
1.0
  9
$ATTMODE
 70
     1
  9
$TEXTSIZE
 40
2.5
  9
$TRACEWID
 40
1.0
  9
$TEXTSTYLE
  7
Standard
  9
$CLAYER
  8
0
  9
$CELTYPE
  6
ByLayer
  9
$CECOLOR
 62
   256
  9
$CELTSCALE
 40
1.0
  9
$DISPSILH
 70
     0
  9
$DIMSCALE
 40
1.0
  9
$DIMASZ
 40
2.5
  9
$DIMEXO
 40
0.625
  9
$DIMDLI
 40
3.75
  9
$DIMRND
 40
0.0
  9
$DIMDLE
 40
0.0
  9
$DIMEXE
 40
1.25
  9
$DIMTP
 40
0.0
  9
$DIMTM
 40
0.0
  9
$DIMTXT
 40
2.5
  9
$DIMCEN
 40
2.5
  9
$DIMTSZ
 40
0.0
  9
$DIMTOL
 70
     0
  9
$DIMLIM
 70
     0
  9
$DIMTIH
 70
     0
  9
$DIMTOH
 70
     0
  9
$DIMSE1
 70
     0
  9
$DIMSE2
 70
     0
  9
$DIMTAD
 70
     1
  9
$DIMZIN
 70
     8
  9
$DIMBLK
  1

  9
$DIMASO
 70
     1
  9
$DIMSHO
 70
     1
  9
$DIMPOST
  1

  9
$DIMAPOST
  1

  9
$DIMALT
 70
     0
  9
$DIMALTD
 70
     3
  9
$DIMALTF
 40
0.03937007874016
  9
$DIMLFAC
 40
1.0
  9
$DIMTOFL
 70
     1
  9
$DIMTVP
 40
0.0
  9
$DIMTIX
 70
     0
  9
$DIMSOXD
 70
     0
  9
$DIMSAH
 70
     0
  9
$DIMBLK1
  1

  9
$DIMBLK2
  1

  9
$DIMSTYLE
  2
ISO-25
  9
$DIMCLRD
 70
     0
  9
$DIMCLRE
 70
     0
  9
$DIMCLRT
 70
     0
  9
$DIMTFAC
 40
1.0
  9
$DIMGAP
 40
0.625
  9
$DIMJUST
 70
     0
  9
$DIMSD1
 70
     0
  9
$DIMSD2
 70
     0
  9
$DIMTOLJ
 70
     0
  9
$DIMTZIN
 70
     8
  9
$DIMALTZ
 70
     0
  9
$DIMALTTZ
 70
     0
  9
$DIMUPT
 70
     0
  9
$DIMDEC
 70
     2
  9
$DIMTDEC
 70
     2
  9
$DIMALTU
 70
     2
  9
$DIMALTTD
 70
     3
  9
$DIMTXSTY
  7
Standard
  9
$DIMAUNIT
 70
     0
  9
$DIMADEC
 70
     0
  9
$DIMALTRND
 40
0.0
  9
$DIMAZIN
 70
     0
  9
$DIMDSEP
 70
    46
  9
$DIMATFIT
 70
     3
  9
$DIMFRAC
 70
     0
  9
$DIMLDRBLK
  1

  9
$DIMLUNIT
 70
     2
  9
$DIMLWD
 70
    -2
  9
$DIMLWE
 70
    -2
  9
$DIMTMOVE
 70
     0
  9
$LUNITS
 70
     2
  9
$LUPREC
 70
     4
  9
$SKETCHINC
 40
1.0
  9
$FILLETRAD
 40
10.0
  9
$AUNITS
 70
     0
  9
$AUPREC
 70
     0
  9
$MENU
  1
.
  9
$ELEVATION
 40
0.0
  9
$PELEVATION
 40
0.0
  9
$THICKNESS
 40
0.0
  9
$LIMCHECK
 70
     0
  9
$CHAMFERA
 40
10.0
  9
$CHAMFERB
 40
10.0
  9
$CHAMFERC
 40
20.0
  9
$CHAMFERD
 40
0.0
  9
$SKPOLY
 70
     0
  9
$TDCREATE
 40
2457476.588343970
  9
$TDUCREATE
 40
2457476.213343970
  9
$TDUPDATE
 40
2457476.588995000
  9
$TDUUPDATE
 40
2457476.213995000
  9
$TDINDWG
 40
0.0006518519
  9
$TDUSRTIMER
 40
0.0006516782
  9
$USRTIMER
 70
     1
  9
$ANGBASE
 50
0.0
  9
$ANGDIR
 70
     0
  9
$PDMODE
 70
     0
  9
$PDSIZE
 40
0.0
  9
$PLINEWID
 40
0.0
  9
$SPLFRAME
 70
     0
  9
$SPLINETYPE
 70
     6
  9
$SPLINESEGS
 70
     8
  9
$HANDSEED
  5
393
  9
$SURFTAB1
 70
     6
  9
$SURFTAB2
 70
     6
  9
$SURFTYPE
 70
     6
  9
$SURFU
 70
     6
  9
$SURFV
 70
     6
  9
$UCSBASE
  2

  9
$UCSNAME
  2

  9
$UCSORG
 10
0.0
 20
0.0
 30
0.0
  9
$UCSXDIR
 10
1.0
 20
0.0
 30
0.0
  9
$UCSYDIR
 10
0.0
 20
1.0
 30
0.0
  9
$UCSORTHOREF
  2

  9
$UCSORTHOVIEW
 70
     0
  9
$UCSORGTOP
 10
0.0
 20
0.0
 30
0.0
  9
$UCSORGBOTTOM
 10
0.0
 20
0.0
 30
0.0
  9
$UCSORGLEFT
 10
0.0
 20
0.0
 30
0.0
  9
$UCSORGRIGHT
 10
0.0
 20
0.0
 30
0.0
  9
$UCSORGFRONT
 10
0.0
 20
0.0
 30
0.0
  9
$UCSORGBACK
 10
0.0
 20
0.0
 30
0.0
  9
$PUCSBASE
  2

  9
$PUCSNAME
  2

  9
$PUCSORG
 10
0.0
 20
0.0
 30
0.0
  9
$PUCSXDIR
 10
1.0
 20
0.0
 30
0.0
  9
$PUCSYDIR
 10
0.0
 20
1.0
 30
0.0
  9
$PUCSORTHOREF
  2

  9
$PUCSORTHOVIEW
 70
     0
  9
$PUCSORGTOP
 10
0.0
 20
0.0
 30
0.0
  9
$PUCSORGBOTTOM
 10
0.0
 20
0.0
 30
0.0
  9
$PUCSORGLEFT
 10
0.0
 20
0.0
 30
0.0
  9
$PUCSORGRIGHT
 10
0.0
 20
0.0
 30
0.0
  9
$PUCSORGFRONT
 10
0.0
 20
0.0
 30
0.0
  9
$PUCSORGBACK
 10
0.0
 20
0.0
 30
0.0
  9
$USERI1
 70
     0
  9
$USERI2
 70
     0
  9
$USERI3
 70
     0
  9
$USERI4
 70
     0
  9
$USERI5
 70
     0
  9
$USERR1
 40
0.0
  9
$USERR2
 40
0.0
  9
$USERR3
 40
0.0
  9
$USERR4
 40
0.0
  9
$USERR5
 40
0.0
  9
$WORLDVIEW
 70
     1
  9
$SHADEDGE
 70
     3
  9
$SHADEDIF
 70
    70
  9
$TILEMODE
 70
     1
  9
$MAXACTVP
 70
    64
  9
$PINSBASE
 10
0.0
 20
0.0
 30
0.0
  9
$PLIMCHECK
 70
     0
  9
$PEXTMIN
 10
1.000000000000000E+20
 20
1.000000000000000E+20
 30
1.000000000000000E+20
  9
$PEXTMAX
 10
-1.000000000000000E+20
 20
-1.000000000000000E+20
 30
-1.000000000000000E+20
  9
$PLIMMIN
 10
0.0
 20
0.0
  9
$PLIMMAX
 10
0.0
 20
0.0
  9
$UNITMODE
 70
     0
  9
$VISRETAIN
 70
     0
  9
$PLINEGEN
 70
     0
  9
$PSLTSCALE
 70
     1
  9
$TREEDEPTH
 70
  3020
  9
$CMLSTYLE
  2
Standard
  9
$CMLJUST
 70
     0
  9
$CMLSCALE
 40
20.0
  9
$PROXYGRAPHICS
 70
     1
  9
$MEASUREMENT
 70
     1
  9
$CELWEIGHT
370
    -1
  9
$ENDCAPS
280
     0
  9
$JOINSTYLE
280
     0
  9
$LWDISPLAY
290
     0
  9
$INSUNITS
 70
     4
  9
$HYPERLINKBASE
  1

  9
$STYLESHEET
  1

  9
$XEDIT
290
     1
  9
$CEPSNTYPE
380
     0
  9
$PSTYLEMODE
290
     1
  9
$FINGERPRINTGUID
  2
{C3B9050E-DAAD-C150-F012-D680535315FA}
  9
$VERSIONGUID
  2
{71C0A106-A3B7-49BE-8EAE-86F71536D8E0}
  9
$EXTNAMES
290
     1
  9
$PSVPSCALE
 40
0.0
  9
$OLESTARTUP
290
     0
  0
ENDSEC
  0
SECTION
  2
CLASSES
  0
CLASS
  1
ACDBDICTIONARYWDFLT
  2
AcDbDictionaryWithDefault
  3
ObjectDBX Classes
 90
        0
280
     0
281
     0
  0
CLASS
  1
MATERIAL
  2
AcDbMaterial
  3
ObjectDBX Classes
 90
     1024
280
     0
281
     0
  0
CLASS
  1
VISUALSTYLE
  2
AcDbVisualStyle
  3
ObjectDBX Classes
 90
     4095
280
     0
281
     0
  0
CLASS
  1
TABLESTYLE
  2
AcDbTableStyle
  3
ObjectDBX Classes
 90
     4095
280
     0
281
     0
  0
CLASS
  1
DICTIONARYVAR
  2
AcDbDictionaryVar
  3
ObjectDBX Classes
 90
        0
280
     0
281
     0
  0
CLASS
  1
ACDBPLACEHOLDER
  2
AcDbPlaceHolder
  3
ObjectDBX Classes
 90
        0
280
     0
281
     0
  0
CLASS
  1
LAYOUT
  2
AcDbLayout
  3
ObjectDBX Classes
 90
        0
280
     0
281
     0
  0
ENDSEC
  0
SECTION
  2
TABLES
  0
TABLE
  2
VPORT
  5
8
330
0
100
AcDbSymbolTable
 70
     1
  0
VPORT
  5
29
330
8
100
AcDbSymbolTableRecord
100
AcDbViewportTableRecord
  2
*Active
 70
     0
 10
0.0
 20
0.0
 11
1.0
 21
1.0
 12
459.204803993512
 22
297.0
 13
0.0
 23
0.0
 14
10.0
 24
10.0
 15
0.0
 25
0.0
 16
0.0
 26
0.0
 36
1.0
 17
0.0
 27
0.0
 37
0.0
 40
594.0
 41
1.54614412136536
 42
50.0
 43
0.0
 44
0.0
 50
0.0
 51
0.0
 71
     0
 72
  1000
 73
     1
 74
     3
 75
     0
 76
     0
 77
     0
 78
     0
281
     0
 65
     0
110
0.0
120
0.0
130
0.0
111
1.0
121
0.0
131
0.0
112
0.0
122
1.0
132
0.0
 79
     0
146
0.0
  0
ENDTAB
  0
TABLE
  2
LTYPE
  5
5
330
0
100
AcDbSymbolTable
 70
     2
  0
LTYPE
  5
14
330
5
100
AcDbSymbolTableRecord
100
AcDbLinetypeTableRecord
  2
ByBlock
 70
     0
  3

 72
    65
 73
     0
 40
0.0
  0
LTYPE
  5
15
330
5
100
AcDbSymbolTableRecord
100
AcDbLinetypeTableRecord
  2
ByLayer
 70
     0
  3

 72
    65
 73
     0
 40
0.0
  0
LTYPE
  5
16
330
5
100
AcDbSymbolTableRecord
100
AcDbLinetypeTableRecord
  2
Continuous
 70
     0
  3
Solid line
 72
    65
 73
     0
 40
0.0
  0
LTYPE
  5
30E
330
5
100
AcDbSymbolTableRecord
100
AcDbLinetypeTableRecord
  2
LTYPE1
 70
     0
  3
CENTER
 72
    65
 73
     4
 40
5.0
 49
3.5
 74
     0
 49
-0.5
 74
     0
 49
0.5
 74
     0
 49
-0.5
 74
     0
  0
ENDTAB
  0
TABLE
  2
LAYER
  5
2
102
{ACAD_XDICTIONARY
360
37A
102
}
330
0
100
AcDbSymbolTable
 70
   128
  0
LAYER
  5
10
330
2
100
AcDbSymbolTableRecord
100
AcDbLayerTableRecord
  2
0
 70
     0
 62
     7
  6
Continuous
370
    -3
390
F
  0
ENDTAB
  0
TABLE
  2
STYLE
  5
3
330
0
100
AcDbSymbolTable
 70
     2
  0
STYLE
  5
11
330
3
100
AcDbSymbolTableRecord
100
AcDbTextStyleTableRecord
  2
Standard
 70
     0
 40
0.0
 41
1.0
 50
0.0
 71
     0
 42
2.5
  3
txt.shx
  4
extfont.shx
  0
STYLE
  5
16E
330
3
100
AcDbSymbolTableRecord
100
AcDbTextStyleTableRecord
  2
KANJI0
 70
     0
 40
10.0
 41
0.8
 50
0.0
 71
     0
 42
10.0
  3
txt.shx
  4
extfont.shx
  0
ENDTAB
  0
TABLE
  2
VIEW
  5
6
330
0
100
AcDbSymbolTable
 70
     0
  0
ENDTAB
  0
TABLE
  2
UCS
  5
7
330
0
100
AcDbSymbolTable
 70
     0
  0
ENDTAB
  0
TABLE
  2
APPID
  5
9
330
0
100
AcDbSymbolTable
 70
     1
  0
APPID
  5
12
330
9
100
AcDbSymbolTableRecord
100
AcDbRegAppTableRecord
  2
ACAD
 70
     0
  0
ENDTAB
  0
TABLE
  2
DIMSTYLE
  5
A
330
0
100
AcDbSymbolTable
 70
     1
100
AcDbDimStyleTable
 71
     0
  0
DIMSTYLE
105
27
330
A
100
AcDbSymbolTableRecord
100
AcDbDimStyleTableRecord
  2
ISO-25
 70
     0
 41
2.5
 42
0.625
 43
3.75
 44
1.25
 73
     0
 74
     0
 77
     1
 78
     8
140
2.5
141
2.5
143
0.039370079
147
0.625
171
     3
172
     1
271
     2
272
     2
274
     3
284
     8
340
11
  0
ENDTAB
  0
TABLE
  2
BLOCK_RECORD
  5
1
330
0
100
AcDbSymbolTable
 70
     1
  0
BLOCK_RECORD
  5
1F
330
1
100
AcDbSymbolTableRecord
100
AcDbBlockTableRecord
  2
*Model_Space
340
22
  0
BLOCK_RECORD
  5
1B
330
1
100
AcDbSymbolTableRecord
100
AcDbBlockTableRecord
  2
*Paper_Space
340
1E
  0
BLOCK_RECORD
  5
23
330
1
100
AcDbSymbolTableRecord
100
AcDbBlockTableRecord
  2
*Paper_Space0
340
26
  0
ENDTAB
  0
ENDSEC
  0
SECTION
  2
BLOCKS
  0
BLOCK
  5
20
330
1F
100
AcDbEntity
  8
0
100
AcDbBlockBegin
  2
*Model_Space
 70
     0
 10
0.0
 20
0.0
 30
0.0
  3
*Model_Space
  1

  0
ENDBLK
  5
21
330
1F
100
AcDbEntity
  8
0
100
AcDbBlockEnd
  0
BLOCK
  5
1C
330
1B
100
AcDbEntity
 67
     1
  8
0
100
AcDbBlockBegin
  2
*Paper_Space
 70
     0
 10
0.0
 20
0.0
 30
0.0
  3
*Paper_Space
  1

  0
ENDBLK
  5
1D
330
1B
100
AcDbEntity
 67
     1
  8
0
100
AcDbBlockEnd
  0
BLOCK
  5
24
330
23
100
AcDbEntity
 67
     1
  8
0
100
AcDbBlockBegin
  2
*Paper_Space0
 70
     0
 10
0.0
 20
0.0
 30
0.0
  3
*Paper_Space0
  1

  0
ENDBLK
  5
25
330
23
100
AcDbEntity
 67
     1
  8
0
100
AcDbBlockEnd
  0
ENDSEC
  0
SECTION
  2
ENTITIES
  0
LINE
  5
A9
330
1F
100
AcDbEntity
  8
0
  6
Continuous
 62
     7
100
AcDbLine
 10
610.983
 20
335.4
 30
0.0
 11
610.983
 21
331.4
 31
0.0
  0
LINE
  5
AA
330
1F
100
AcDbEntity
  8
0
  6
Continuous
 62
     7
100
AcDbLine
 10
610.983
 20
331.4
 30
0.0
 11
586.983
 21
331.4
 31
0.0
  0
LINE
  5
AB
330
1F
100
AcDbEntity
  8
0
  6
Continuous
 62
     7
100
AcDbLine
 10
600.4830000000001
 20
149.4
 30
0.0
 11
609.483
 21
331.4
 31
0.0
  0
LINE
  5
AC
330
1F
100
AcDbEntity
  8
0
  6
Continuous
 62
     7
100
AcDbLine
 10
615.983
 20
335.4
 30
0.0
 11
616.9830000000001
 21
334.4
 31
0.0
  0
LINE
  5
AD
330
1F
100
AcDbEntity
  8
0
  6
Continuous
 62
     7
100
AcDbLine
 10
616.9830000000001
 20
334.4
 30
0.0
 11
616.9830000000001
 21
321.4
 31
0.0
  0
LINE
  5
AE
330
1F
100
AcDbEntity
  8
0
  6
Continuous
 62
     7
100
AcDbLine
 10
615.983
 20
320.4
 30
0.0
 11
616.9830000000001
 21
321.4
 31
0.0
  0
LINE
  5
AF
330
1F
100
AcDbEntity
  8
0
  6
Continuous
 62
     7
100
AcDbLine
 10
615.983
 20
320.4
 30
0.0
 11
615.436942066
 21
320.4
 31
0.0
  0
LINE
  5
B0
330
1F
100
AcDbEntity
  8
0
  6
Continuous
 62
     7
100
AcDbLine
 10
615.436942066
 20
320.4
 30
0.0
 11
614.438052709
 21
319.447117423
 31
0.0
  0
LINE
  5
B1
330
1F
100
AcDbEntity
  8
0
  6
Continuous
 62
     7
100
AcDbLine
 10
562.9830000000001
 20
335.4
 30
0.0
 11
562.9830000000001
 21
331.4
 31
0.0
  0
LINE
  5
B2
330
1F
100
AcDbEntity
  8
0
  6
Continuous
 62
     7
100
AcDbLine
 10
562.9830000000001
 20
331.4
 30
0.0
 11
586.983
 21
331.4
 31
0.0
  0
LINE
  5
B3
330
1F
100
AcDbEntity
  8
0
  6
Continuous
 62
     7
100
AcDbLine
 10
573.483
 20
149.4
 30
0.0
 11
564.483
 21
331.4
 31
0.0
  0
LINE
  5
B4
330
1F
100
AcDbEntity
  8
0
  6
Continuous
 62
     7
100
AcDbLine
 10
557.983
 20
335.4
 30
0.0
 11
556.983
 21
334.4
 31
0.0
  0
LINE
  5
B5
330
1F
100
AcDbEntity
  8
0
  6
Continuous
 62
     7
100
AcDbLine
 10
556.983
 20
334.4
 30
0.0
 11
556.983
 21
321.4
 31
0.0
  0
LINE
  5
B6
330
1F
100
AcDbEntity
  8
0
  6
Continuous
 62
     7
100
AcDbLine
 10
557.983
 20
320.4
 30
0.0
 11
556.983
 21
321.4
 31
0.0
  0
LINE
  5
B7
330
1F
100
AcDbEntity
  8
0
  6
Continuous
 62
     7
100
AcDbLine
 10
557.983
 20
320.4
 30
0.0
 11
558.5290579339999
 21
320.4
 31
0.0
  0
LINE
  5
B8
330
1F
100
AcDbEntity
  8
0
  6
Continuous
 62
     7
100
AcDbLine
 10
558.5290579339999
 20
320.4
 30
0.0
 11
559.527947291
 21
319.447117423
 31
0.0
  0
LINE
  5
B9
330
1F
100
AcDbEntity
  8
0
  6
Continuous
 62
     7
100
AcDbLine
 10
607.034614851
 20
162.494234845
 30
0.0
 11
614.438052709
 21
319.447117423
 31
0.0
  0
LINE
  5
BA
330
1F
100
AcDbEntity
  8
0
  6
Continuous
 62
     7
100
AcDbLine
 10
566.931385149
 20
162.494234845
 30
0.0
 11
559.527947291
 21
319.447117423
 31
0.0
  0
LINE
  5
BB
330
1F
100
AcDbEntity
  8
0
  6
Continuous
 62
     7
100
AcDbLine
 10
606.983
 20
145.4
 30
0.0
 11
606.983
 21
149.4
 31
0.0
  0
LINE
  5
BC
330
1F
100
AcDbEntity
  8
0
  6
Continuous
 62
     7
100
AcDbLine
 10
606.983
 20
149.4
 30
0.0
 11
586.983
 21
149.4
 31
0.0
  0
LINE
  5
BD
330
1F
100
AcDbEntity
  8
0
  6
Continuous
 62
     7
100
AcDbLine
 10
611.983
 20
145.4
 30
0.0
 11
612.9830000000001
 21
146.4
 31
0.0
  0
LINE
  5
BE
330
1F
100
AcDbEntity
  8
0
  6
Continuous
 62
     7
100
AcDbLine
 10
566.9830000000001
 20
145.4
 30
0.0
 11
566.9830000000001
 21
149.4
 31
0.0
  0
LINE
  5
BF
330
1F
100
AcDbEntity
  8
0
  6
Continuous
 62
     7
100
AcDbLine
 10
566.9830000000001
 20
149.4
 30
0.0
 11
586.983
 21
149.4
 31
0.0
  0
LINE
  5
C0
330
1F
100
AcDbEntity
  8
0
  6
Continuous
 62
     7
100
AcDbLine
 10
561.983
 20
145.4
 30
0.0
 11
560.983
 21
146.4
 31
0.0
  0
LINE
  5
C1
330
1F
100
AcDbEntity
  8
0
  6
Continuous
 62
     7
100
AcDbLine
 10
560.983
 20
159.4
 30
0.0
 11
561.983
 21
160.4
 31
0.0
  0
LINE
  5
C2
330
1F
100
AcDbEntity
  8
0
  6
Continuous
 62
     7
100
AcDbLine
 10
560.983
 20
146.4
 30
0.0
 11
560.983
 21
159.4
 31
0.0
  0
LINE
  5
C3
330
1F
100
AcDbEntity
  8
0
  6
Continuous
 62
     7
100
AcDbLine
 10
612.9830000000001
 20
159.4
 30
0.0
 11
611.983
 21
160.4
 31
0.0
  0
LINE
  5
C4
330
1F
100
AcDbEntity
  8
0
  6
Continuous
 62
     7
100
AcDbLine
 10
612.9830000000001
 20
146.4
 30
0.0
 11
612.9830000000001
 21
159.4
 31
0.0
  0
LINE
  5
C5
330
1F
100
AcDbEntity
  8
0
  6
Continuous
 62
     7
100
AcDbLine
 10
611.983
 20
160.4
 30
0.0
 11
609.0323935659999
 21
160.4
 31
0.0
  0
ARC
  5
C6
330
1F
100
AcDbEntity
  8
0
  6
Continuous
 62
     7
100
AcDbCircle
 10
609.0323935659999
 20
162.4
 30
0.0
 40
2.0
100
AcDbArc
 50
177.299370663
 51
270.0
  0
LINE
  5
C7
330
1F
100
AcDbEntity
  8
0
  6
Continuous
 62
     7
100
AcDbLine
 10
561.983
 20
160.4
 30
0.0
 11
564.9336064339999
 21
160.4
 31
0.0
  0
ARC
  5
C8
330
1F
100
AcDbEntity
  8
0
  6
Continuous
 62
     7
100
AcDbCircle
 10
564.9336064339999
 20
162.4
 30
0.0
 40
2.0
100
AcDbArc
 50
270.0
 51
2.700629337
  0
LINE
  5
C9
330
1F
100
AcDbEntity
  8
0
  6
Continuous
 62
     7
100
AcDbLine
 10
606.883
 20
146.9
 30
0.0
 11
606.883
 21
149.4
 31
0.0
  0
LINE
  5
CA
330
1F
100
AcDbEntity
  8
0
  6
Continuous
 62
     7
100
AcDbLine
 10
606.883
 20
149.4
 30
0.0
 11
567.0830000000001
 21
149.4
 31
0.0
  0
LINE
  5
CB
330
1F
100
AcDbEntity
  8
0
  6
Continuous
 62
     7
100
AcDbLine
 10
567.0830000000001
 20
149.4
 30
0.0
 11
567.0830000000001
 21
146.9
 31
0.0
  0
LINE
  5
CC
330
1F
100
AcDbEntity
  8
0
  6
Continuous
 62
     7
100
AcDbLine
 10
567.0830000000001
 20
146.9
 30
0.0
 11
606.883
 21
146.9
 31
0.0
  0
LINE
  5
CD
330
1F
100
AcDbEntity
  8
0
  6
Continuous
 62
     7
100
AcDbLine
 10
590.983
 20
146.9
 30
0.0
 11
590.983
 21
149.4
 31
0.0
  0
LINE
  5
CE
330
1F
100
AcDbEntity
  8
0
  6
Continuous
 62
     7
100
AcDbLine
 10
582.983
 20
146.9
 30
0.0
 11
582.983
 21
149.4
 31
0.0
  0
LINE
  5
CF
330
1F
100
AcDbEntity
  8
0
  6
Continuous
 62
     7
100
AcDbLine
 10
570.9830000000001
 20
146.9
 30
0.0
 11
570.9830000000001
 21
149.4
 31
0.0
  0
LINE
  5
D0
330
1F
100
AcDbEntity
  8
0
  6
Continuous
 62
     7
100
AcDbLine
 10
602.983
 20
146.9
 30
0.0
 11
602.983
 21
149.4
 31
0.0
  0
LINE
  5
D1
330
1F
100
AcDbEntity
  8
0
  6
Continuous
 62
     7
100
AcDbLine
 10
563.0830000000001
 20
333.9
 30
0.0
 11
563.0830000000001
 21
331.4
 31
0.0
  0
LINE
  5
D2
330
1F
100
AcDbEntity
  8
0
  6
Continuous
 62
     7
100
AcDbLine
 10
565.983
 20
331.4
 30
0.0
 11
565.983
 21
333.9
 31
0.0
  0
LINE
  5
D3
330
1F
100
AcDbEntity
  8
0
  6
Continuous
 62
     7
100
AcDbLine
 10
582.983
 20
331.4
 30
0.0
 11
582.983
 21
333.9
 31
0.0
  0
LINE
  5
D4
330
1F
100
AcDbEntity
  8
0
  6
Continuous
 62
     7
100
AcDbLine
 10
585.7330000000001
 20
333.9
 30
0.0
 11
585.7330000000001
 21
331.4
 31
0.0
  0
LINE
  5
D5
330
1F
100
AcDbEntity
  8
0
  6
Continuous
 62
     7
100
AcDbLine
 10
610.883
 20
331.4
 30
0.0
 11
610.883
 21
333.9
 31
0.0
  0
LINE
  5
D6
330
1F
100
AcDbEntity
  8
0
  6
Continuous
 62
     7
100
AcDbLine
 10
607.9830000000001
 20
333.9
 30
0.0
 11
607.9830000000001
 21
331.4
 31
0.0
  0
LINE
  5
D7
330
1F
100
AcDbEntity
  8
0
  6
Continuous
 62
     7
100
AcDbLine
 10
590.983
 20
333.9
 30
0.0
 11
590.983
 21
331.4
 31
0.0
  0
LINE
  5
D8
330
1F
100
AcDbEntity
  8
0
  6
Continuous
 62
     7
100
AcDbLine
 10
588.233
 20
331.4
 30
0.0
 11
588.233
 21
333.9
 31
0.0
  0
LINE
  5
D9
330
1F
100
AcDbEntity
  8
0
  6
Continuous
 62
     7
100
AcDbLine
 10
610.883
 20
333.9
 30
0.0
 11
563.0830000000001
 21
333.9
 31
0.0
  0
LINE
  5
DA
330
1F
100
AcDbEntity
  8
0
  6
Continuous
 62
     7
100
AcDbLine
 10
563.0830000000001
 20
331.4
 30
0.0
 11
610.883
 21
331.4
 31
0.0
  0
LINE
  5
DB
330
1F
100
AcDbEntity
  8
0
  6
Continuous
 62
     7
100
AcDbLine
 10
588.233
 20
142.95
 30
0.0
 11
588.233
 21
339.5
 31
0.0
  0
LINE
  5
DC
330
1F
100
AcDbEntity
  8
0
  6
Continuous
 62
     7
100
AcDbLine
 10
585.7330000000001
 20
339.5
 30
0.0
 11
585.7330000000001
 21
142.95
 31
0.0
  0
LINE
  5
DD
330
1F
100
AcDbEntity
  8
0
  6
Continuous
 62
     7
100
AcDbLine
 10
585.7330000000001
 20
142.95
 30
0.0
 11
588.233
 21
142.95
 31
0.0
  0
LINE
  5
DE
330
1F
100
AcDbEntity
  8
0
  6
Continuous
 62
     7
100
AcDbLine
 10
588.233
 20
339.5
 30
0.0
 11
585.7330000000001
 21
339.5
 31
0.0
  0
LINE
  5
DF
330
1F
100
AcDbEntity
  8
0
  6
Continuous
 62
     7
100
AcDbLine
 10
621.983
 20
319.4
 30
0.0
 11
621.983
 21
348.4
 31
0.0
  0
LINE
  5
E0
330
1F
100
AcDbEntity
  8
0
  6
Continuous
 62
     7
100
AcDbLine
 10
615.983
 20
339.4
 30
0.0
 11
615.983
 21
319.4
 31
0.0
  0
LINE
  5
E1
330
1F
100
AcDbEntity
  8
0
  6
Continuous
 62
     7
100
AcDbLine
 10
616.9830000000001
 20
342.4
 30
0.0
 11
616.9830000000001
 21
339.4
 31
0.0
  0
LINE
  5
E2
330
1F
100
AcDbEntity
  8
0
  6
Continuous
 62
     7
100
AcDbLine
 10
607.733
 20
360.4
 30
0.0
 11
607.733
 21
342.4
 31
0.0
  0
LINE
  5
E3
330
1F
100
AcDbEntity
  8
0
  6
Continuous
 62
     7
100
AcDbLine
 10
621.983
 20
348.4
 30
0.0
 11
617.483
 21
348.4
 31
0.0
  0
LINE
  5
E4
330
1F
100
AcDbEntity
  8
0
  6
Continuous
 62
     7
100
AcDbLine
 10
613.483
 20
352.4
 30
0.0
 11
613.483
 21
360.4
 31
0.0
  0
ARC
  5
E5
330
1F
100
AcDbEntity
  8
0
  6
Continuous
 62
     7
100
AcDbCircle
 10
617.483
 20
352.4
 30
0.0
 40
4.0
100
AcDbArc
 50
180.0
 51
270.0
  0
LINE
  5
E6
330
1F
100
AcDbEntity
  8
0
  6
Continuous
 62
     7
100
AcDbLine
 10
551.983
 20
319.4
 30
0.0
 11
551.983
 21
348.4
 31
0.0
  0
LINE
  5
E7
330
1F
100
AcDbEntity
  8
0
  6
Continuous
 62
     7
100
AcDbLine
 10
557.983
 20
339.4
 30
0.0
 11
557.983
 21
319.4
 31
0.0
  0
LINE
  5
E8
330
1F
100
AcDbEntity
  8
0
  6
Continuous
 62
     7
100
AcDbLine
 10
556.983
 20
342.4
 30
0.0
 11
556.983
 21
339.4
 31
0.0
  0
LINE
  5
E9
330
1F
100
AcDbEntity
  8
0
  6
Continuous
 62
     7
100
AcDbLine
 10
566.233
 20
360.4
 30
0.0
 11
566.233
 21
342.4
 31
0.0
  0
LINE
  5
EA
330
1F
100
AcDbEntity
  8
0
  6
Continuous
 62
     7
100
AcDbLine
 10
551.983
 20
348.4
 30
0.0
 11
556.483
 21
348.4
 31
0.0
  0
LINE
  5
EB
330
1F
100
AcDbEntity
  8
0
  6
Continuous
 62
     7
100
AcDbLine
 10
560.483
 20
352.4
 30
0.0
 11
560.483
 21
360.4
 31
0.0
  0
ARC
  5
EC
330
1F
100
AcDbEntity
  8
0
  6
Continuous
 62
     7
100
AcDbCircle
 10
556.483
 20
352.4
 30
0.0
 40
4.0
100
AcDbArc
 50
270.0
 51
0.0
  0
LINE
  5
ED
330
1F
100
AcDbEntity
  8
0
  6
Continuous
 62
     7
100
AcDbLine
 10
558.133
 20
335.4
 30
0.0
 11
558.133
 21
342.4
 31
0.0
  0
LINE
  5
EE
330
1F
100
AcDbEntity
  8
0
  6
Continuous
 62
     7
100
AcDbLine
 10
566.4830000000001
 20
372.4
 30
0.0
 11
566.4830000000001
 21
342.4
 31
0.0
  0
LINE
  5
EF
330
1F
100
AcDbEntity
  8
0
  6
Continuous
 62
     7
100
AcDbLine
 10
566.4830000000001
 20
342.4
 30
0.0
 11
558.133
 21
342.4
 31
0.0
  0
LINE
  5
F0
330
1F
100
AcDbEntity
  8
0
  6
Continuous
 62
     7
100
AcDbLine
 10
571.1829999999999
 20
342.4
 30
0.0
 11
570.8330000000001
 21
372.4
 31
0.0
  0
LINE
  5
F1
330
1F
100
AcDbEntity
  8
0
  6
Continuous
 62
     7
100
AcDbLine
 10
571.1829999999999
 20
342.4
 30
0.0
 11
586.983
 21
342.4
 31
0.0
  0
LINE
  5
F2
330
1F
100
AcDbEntity
  8
0
  6
Continuous
 62
     7
100
AcDbLine
 10
574.483
 20
335.4
 30
0.0
 11
574.483
 21
342.4
 31
0.0
  0
LINE
  5
F3
330
1F
100
AcDbEntity
  8
0
  6
Continuous
 62
     7
100
AcDbLine
 10
566.4830000000001
 20
372.4
 30
0.0
 11
586.983
 21
372.4
 31
0.0
  0
LINE
  5
F4
330
1F
100
AcDbEntity
  8
0
  6
Continuous
 62
     7
100
AcDbLine
 10
615.8330000000001
 20
335.4
 30
0.0
 11
615.8330000000001
 21
342.4
 31
0.0
  0
LINE
  5
F5
330
1F
100
AcDbEntity
  8
0
  6
Continuous
 62
     7
100
AcDbLine
 10
607.483
 20
372.4
 30
0.0
 11
607.483
 21
342.4
 31
0.0
  0
LINE
  5
F6
330
1F
100
AcDbEntity
  8
0
  6
Continuous
 62
     7
100
AcDbLine
 10
607.483
 20
342.4
 30
0.0
 11
615.8330000000001
 21
342.4
 31
0.0
  0
LINE
  5
F7
330
1F
100
AcDbEntity
  8
0
  6
Continuous
 62
     7
100
AcDbLine
 10
602.783
 20
342.4
 30
0.0
 11
603.133
 21
372.4
 31
0.0
  0
LINE
  5
F8
330
1F
100
AcDbEntity
  8
0
  6
Continuous
 62
     7
100
AcDbLine
 10
602.783
 20
342.4
 30
0.0
 11
586.983
 21
342.4
 31
0.0
  0
LINE
  5
F9
330
1F
100
AcDbEntity
  8
0
  6
Continuous
 62
     7
100
AcDbLine
 10
599.483
 20
335.4
 30
0.0
 11
599.483
 21
342.4
 31
0.0
  0
LINE
  5
FA
330
1F
100
AcDbEntity
  8
0
  6
Continuous
 62
     7
100
AcDbLine
 10
607.483
 20
372.4
 30
0.0
 11
586.983
 21
372.4
 31
0.0
  0
LINE
  5
FB
330
1F
100
AcDbEntity
  8
0
  6
Continuous
 62
     7
100
AcDbLine
 10
560.033
 20
335.4
 30
0.0
 11
560.033
 21
337.2
 31
0.0
  0
LINE
  5
FC
330
1F
100
AcDbEntity
  8
0
  6
Continuous
 62
     7
100
AcDbLine
 10
560.033
 20
337.2
 30
0.0
 11
563.233
 21
337.2
 31
0.0
  0
LINE
  5
FD
330
1F
100
AcDbEntity
  8
0
  6
Continuous
 62
     7
100
AcDbLine
 10
563.233
 20
337.2
 30
0.0
 11
563.233
 21
335.4
 31
0.0
  0
LINE
  5
FE
330
1F
100
AcDbEntity
  8
0
  6
Continuous
 62
     7
100
AcDbLine
 10
613.933
 20
335.4
 30
0.0
 11
613.933
 21
337.2
 31
0.0
  0
LINE
  5
FF
330
1F
100
AcDbEntity
  8
0
  6
Continuous
 62
     7
100
AcDbLine
 10
613.933
 20
337.2
 30
0.0
 11
610.7330000000001
 21
337.2
 31
0.0
  0
LINE
  5
100
330
1F
100
AcDbEntity
  8
0
  6
Continuous
 62
     7
100
AcDbLine
 10
610.7330000000001
 20
337.2
 30
0.0
 11
610.7330000000001
 21
335.4
 31
0.0
  0
ARC
  5
101
330
1F
100
AcDbEntity
  8
0
  6
Continuous
 62
     7
100
AcDbCircle
 10
561.2280000000001
 20
336.29
 30
0.0
 40
1.31
100
AcDbArc
 50
136.0001498929999
 51
222.795940218
  0
ARC
  5
102
330
1F
100
AcDbEntity
  8
0
  6
Continuous
 62
     7
100
AcDbCircle
 10
561.2280000000001
 20
336.29
 30
0.0
 40
1.31
100
AcDbArc
 50
317.204059782
 51
43.999850105
  0
ARC
  5
103
330
1F
100
AcDbEntity
  8
0
  6
Continuous
 62
     7
100
AcDbCircle
 10
612.738
 20
336.29
 30
0.0
 40
1.31
100
AcDbArc
 50
136.0001498929999
 51
222.795940216
  0
ARC
  5
104
330
1F
100
AcDbEntity
  8
0
  6
Continuous
 62
     7
100
AcDbCircle
 10
612.738
 20
336.29
 30
0.0
 40
1.31
100
AcDbArc
 50
317.2040597840001
 51
43.999850107
  0
LINE
  5
105
330
1F
100
AcDbEntity
  8
0
  6
Continuous
 62
     7
100
AcDbLine
 10
555.983
 20
161.4
 30
0.0
 11
555.983
 21
133.4
 31
0.0
  0
LINE
  5
106
330
1F
100
AcDbEntity
  8
0
  6
Continuous
 62
     7
100
AcDbLine
 10
560.983
 20
138.4
 30
0.0
 11
560.983
 21
141.4
 31
0.0
  0
LINE
  5
107
330
1F
100
AcDbEntity
  8
0
  6
Continuous
 62
     7
100
AcDbLine
 10
560.983
 20
161.4
 30
0.0
 11
561.983
 21
160.6
 31
0.0
  0
LINE
  5
108
330
1F
100
AcDbEntity
  8
0
  6
Continuous
 62
     7
100
AcDbLine
 10
561.983
 20
141.4
 30
0.0
 11
561.983
 21
160.6
 31
0.0
  0
LINE
  5
109
330
1F
100
AcDbEntity
  8
0
  6
Continuous
 62
     7
100
AcDbLine
 10
612.9830000000001
 20
161.4
 30
0.0
 11
611.983
 21
160.6
 31
0.0
  0
LINE
  5
10A
330
1F
100
AcDbEntity
  8
0
  6
Continuous
 62
     7
100
AcDbLine
 10
566.233
 20
121.4
 30
0.0
 11
566.233
 21
138.4
 31
0.0
  0
LINE
  5
10B
330
1F
100
AcDbEntity
  8
0
  6
Continuous
 62
     7
100
AcDbLine
 10
560.483
 20
121.4
 30
0.0
 11
560.483
 21
129.4
 31
0.0
  0
LINE
  5
10C
330
1F
100
AcDbEntity
  8
0
  6
Continuous
 62
     7
100
AcDbLine
 10
556.483
 20
133.4
 30
0.0
 11
555.983
 21
133.4
 31
0.0
  0
ARC
  5
10D
330
1F
100
AcDbEntity
  8
0
  6
Continuous
 62
     7
100
AcDbCircle
 10
556.483
 20
129.4
 30
0.0
 40
4.0
100
AcDbArc
 50
0.0
 51
90.0
  0
LINE
  5
10E
330
1F
100
AcDbEntity
  8
0
  6
Continuous
 62
     7
100
AcDbLine
 10
617.983
 20
161.4
 30
0.0
 11
617.983
 21
133.4
 31
0.0
  0
LINE
  5
10F
330
1F
100
AcDbEntity
  8
0
  6
Continuous
 62
     7
100
AcDbLine
 10
612.9830000000001
 20
138.4
 30
0.0
 11
612.9830000000001
 21
141.4
 31
0.0
  0
LINE
  5
110
330
1F
100
AcDbEntity
  8
0
  6
Continuous
 62
     7
100
AcDbLine
 10
611.983
 20
141.4
 30
0.0
 11
611.983
 21
160.6
 31
0.0
  0
LINE
  5
111
330
1F
100
AcDbEntity
  8
0
  6
Continuous
 62
     7
100
AcDbLine
 10
607.733
 20
121.4
 30
0.0
 11
607.733
 21
138.4
 31
0.0
  0
LINE
  5
112
330
1F
100
AcDbEntity
  8
0
  6
Continuous
 62
     7
100
AcDbLine
 10
613.483
 20
121.4
 30
0.0
 11
613.483
 21
129.4
 31
0.0
  0
LINE
  5
113
330
1F
100
AcDbEntity
  8
0
  6
Continuous
 62
     7
100
AcDbLine
 10
617.483
 20
133.4
 30
0.0
 11
617.983
 21
133.4
 31
0.0
  0
ARC
  5
114
330
1F
100
AcDbEntity
  8
0
  6
Continuous
 62
     7
100
AcDbCircle
 10
617.483
 20
129.4
 30
0.0
 40
4.0
100
AcDbArc
 50
90.0
 51
180.0
  0
LINE
  5
115
330
1F
100
AcDbEntity
  8
0
  6
Continuous
 62
     7
100
AcDbLine
 10
560.483
 20
121.4
 30
0.0
 11
566.4830000000001
 21
121.4
 31
0.0
  0
LINE
  5
116
330
1F
100
AcDbEntity
  8
0
  6
Continuous
 62
     7
100
AcDbLine
 10
613.483
 20
121.4
 30
0.0
 11
607.483
 21
121.4
 31
0.0
  0
LINE
  5
117
330
1F
100
AcDbEntity
  8
0
  6
Continuous
 62
     7
100
AcDbLine
 10
566.6656572409999
 20
161.4
 30
0.0
 11
555.983
 21
161.4
 31
0.0
  0
LINE
  5
118
330
1F
100
AcDbEntity
  8
0
  6
Continuous
 62
     7
100
AcDbLine
 10
561.983
 20
160.6
 30
0.0
 11
565.805386223
 21
160.6
 31
0.0
  0
LINE
  5
119
330
1F
100
AcDbEntity
  8
0
  6
Continuous
 62
     7
100
AcDbLine
 10
607.300342759
 20
161.4
 30
0.0
 11
617.983
 21
161.4
 31
0.0
  0
LINE
  5
11A
330
1F
100
AcDbEntity
  8
0
  6
Continuous
 62
     7
100
AcDbLine
 10
611.983
 20
160.6
 30
0.0
 11
608.1606137769999
 21
160.6
 31
0.0
  0
LINE
  5
11B
330
1F
100
AcDbEntity
  8
0
  6
Continuous
 62
     7
100
AcDbLine
 10
560.983
 20
141.4
 30
0.0
 11
561.983
 21
141.4
 31
0.0
  0
LINE
  5
11C
330
1F
100
AcDbEntity
  8
0
  6
Continuous
 62
     7
100
AcDbLine
 10
612.9830000000001
 20
141.4
 30
0.0
 11
611.8330000000001
 21
141.4
 31
0.0
  0
LINE
  5
11D
330
1F
100
AcDbEntity
  8
0
  6
Continuous
 62
     7
100
AcDbLine
 10
611.8330000000001
 20
145.4
 30
0.0
 11
611.8330000000001
 21
138.4
 31
0.0
  0
LINE
  5
11E
330
1F
100
AcDbEntity
  8
0
  6
Continuous
 62
     7
100
AcDbLine
 10
607.483
 20
138.4
 30
0.0
 11
611.8330000000001
 21
138.4
 31
0.0
  0
LINE
  5
11F
330
1F
100
AcDbEntity
  8
0
  6
Continuous
 62
     7
100
AcDbLine
 10
609.983
 20
145.4
 30
0.0
 11
609.983
 21
143.6
 31
0.0
  0
LINE
  5
120
330
1F
100
AcDbEntity
  8
0
  6
Continuous
 62
     7
100
AcDbLine
 10
609.983
 20
143.6
 30
0.0
 11
606.783
 21
143.6
 31
0.0
  0
LINE
  5
121
330
1F
100
AcDbEntity
  8
0
  6
Continuous
 62
     7
100
AcDbLine
 10
606.783
 20
143.6
 30
0.0
 11
606.783
 21
145.4
 31
0.0
  0
LINE
  5
122
330
1F
100
AcDbEntity
  8
0
  6
Continuous
 62
     7
100
AcDbLine
 10
562.133
 20
145.4
 30
0.0
 11
562.133
 21
138.4
 31
0.0
  0
LINE
  5
123
330
1F
100
AcDbEntity
  8
0
  6
Continuous
 62
     7
100
AcDbLine
 10
566.4830000000001
 20
138.4
 30
0.0
 11
562.133
 21
138.4
 31
0.0
  0
LINE
  5
124
330
1F
100
AcDbEntity
  8
0
  6
Continuous
 62
     7
100
AcDbLine
 10
563.983
 20
145.4
 30
0.0
 11
563.983
 21
143.6
 31
0.0
  0
LINE
  5
125
330
1F
100
AcDbEntity
  8
0
  6
Continuous
 62
     7
100
AcDbLine
 10
563.983
 20
143.6
 30
0.0
 11
567.1829999999999
 21
143.6
 31
0.0
  0
LINE
  5
126
330
1F
100
AcDbEntity
  8
0
  6
Continuous
 62
     7
100
AcDbLine
 10
567.1829999999999
 20
143.6
 30
0.0
 11
567.1829999999999
 21
145.4
 31
0.0
  0
LINE
  5
127
330
1F
100
AcDbEntity
  8
0
  6
Continuous
 62
     7
100
AcDbLine
 10
586.983
 20
108.4
 30
0.0
 11
607.483
 21
108.4
 31
0.0
  0
LINE
  5
128
330
1F
100
AcDbEntity
  8
0
  6
Continuous
 62
     7
100
AcDbLine
 10
607.483
 20
108.4
 30
0.0
 11
607.483
 21
138.4
 31
0.0
  0
LINE
  5
129
330
1F
100
AcDbEntity
  8
0
  6
Continuous
 62
     7
100
AcDbLine
 10
586.983
 20
108.4
 30
0.0
 11
566.4830000000001
 21
108.4
 31
0.0
  0
LINE
  5
12A
330
1F
100
AcDbEntity
  8
0
  6
Continuous
 62
     7
100
AcDbLine
 10
566.4830000000001
 20
108.4
 30
0.0
 11
566.4830000000001
 21
138.4
 31
0.0
  0
LINE
  5
12B
330
1F
100
AcDbEntity
  8
0
  6
Continuous
 62
     7
100
AcDbLine
 10
602.783
 20
138.4
 30
0.0
 11
603.133
 21
108.4
 31
0.0
  0
LINE
  5
12C
330
1F
100
AcDbEntity
  8
0
  6
Continuous
 62
     7
100
AcDbLine
 10
602.783
 20
138.4
 30
0.0
 11
586.983
 21
138.4
 31
0.0
  0
LINE
  5
12D
330
1F
100
AcDbEntity
  8
0
  6
Continuous
 62
     7
100
AcDbLine
 10
571.1829999999999
 20
138.4
 30
0.0
 11
570.8330000000001
 21
108.4
 31
0.0
  0
LINE
  5
12E
330
1F
100
AcDbEntity
  8
0
  6
Continuous
 62
     7
100
AcDbLine
 10
571.1829999999999
 20
138.4
 30
0.0
 11
586.983
 21
138.4
 31
0.0
  0
LINE
  5
12F
330
1F
100
AcDbEntity
  8
0
  6
Continuous
 62
     7
100
AcDbLine
 10
599.483
 20
145.4
 30
0.0
 11
599.483
 21
138.4
 31
0.0
  0
LINE
  5
130
330
1F
100
AcDbEntity
  8
0
  6
Continuous
 62
     7
100
AcDbLine
 10
574.483
 20
145.4
 30
0.0
 11
574.483
 21
138.4
 31
0.0
  0
ARC
  5
131
330
1F
100
AcDbEntity
  8
0
  6
Continuous
 62
     7
100
AcDbCircle
 10
608.763
 20
144.61
 30
0.0
 40
1.31
100
AcDbArc
 50
142.911101734
 51
230.44308631
  0
ARC
  5
132
330
1F
100
AcDbEntity
  8
0
  6
Continuous
 62
     7
100
AcDbCircle
 10
608.763
 20
144.61
 30
0.0
 40
1.31
100
AcDbArc
 50
309.55691369
 51
37.088898266
  0
ARC
  5
133
330
1F
100
AcDbEntity
  8
0
  6
Continuous
 62
     7
100
AcDbCircle
 10
565.2029999999999
 20
144.61
 30
0.0
 40
1.31
100
AcDbArc
 50
309.55691369
 51
37.088898266
  0
ARC
  5
134
330
1F
100
AcDbEntity
  8
0
  6
Continuous
 62
     7
100
AcDbCircle
 10
565.2029999999999
 20
144.61
 30
0.0
 40
1.31
100
AcDbArc
 50
147.075288583
 51
230.44308631
  0
LINE
  5
135
330
1F
100
AcDbEntity
  8
0
  6
Continuous
 62
     7
100
AcDbLine
 10
566.4830000000001
 20
360.4
 30
0.0
 11
560.483
 21
360.4
 31
0.0
  0
LINE
  5
136
330
1F
100
AcDbEntity
  8
0
  6
Continuous
 62
     7
100
AcDbLine
 10
607.483
 20
360.4
 30
0.0
 11
613.483
 21
360.4
 31
0.0
  0
LINE
  5
137
330
1F
100
AcDbEntity
  8
0
  6
Continuous
 62
     7
100
AcDbLine
 10
559.527947291
 20
319.4
 30
0.0
 11
551.983
 21
319.4
 31
0.0
  0
LINE
  5
138
330
1F
100
AcDbEntity
  8
0
  6
Continuous
 62
     7
100
AcDbLine
 10
614.438052709
 20
319.4
 30
0.0
 11
621.983
 21
319.4
 31
0.0
  0
LINE
  5
139
330
1F
100
AcDbEntity
  8
0
  6
Continuous
 62
     7
100
AcDbLine
 10
556.983
 20
339.4
 30
0.0
 11
558.133
 21
339.4
 31
0.0
  0
LINE
  5
13A
330
1F
100
AcDbEntity
  8
0
  6
Continuous
 62
     7
100
AcDbLine
 10
616.9830000000001
 20
339.4
 30
0.0
 11
615.8330000000001
 21
339.4
 31
0.0
  0
LINE
  5
13B
330
1F
100
AcDbEntity
  8
0
  6
Continuous
 62
     7
100
AcDbLine
 10
588.233
 20
335.4
 30
0.0
 11
615.983
 21
335.4
 31
0.0
  0
LINE
  5
13C
330
1F
100
AcDbEntity
  8
0
  6
Continuous
 62
     7
100
AcDbLine
 10
588.233
 20
335.4
 30
0.0
 11
615.8330000000001
 21
335.4
 31
0.0
  0
LINE
  5
13D
330
1F
100
AcDbEntity
  8
0
  6
Continuous
 62
     7
100
AcDbLine
 10
585.7330000000001
 20
335.4
 30
0.0
 11
558.133
 21
335.4
 31
0.0
  0
LINE
  5
13E
330
1F
100
AcDbEntity
  8
0
  6
Continuous
 62
     7
100
AcDbLine
 10
585.7330000000001
 20
335.4
 30
0.0
 11
557.983
 21
335.4
 31
0.0
  0
LINE
  5
13F
330
1F
100
AcDbEntity
  8
0
  6
Continuous
 62
     7
100
AcDbLine
 10
588.233
 20
145.4
 30
0.0
 11
606.983
 21
145.4
 31
0.0
  0
LINE
  5
140
330
1F
100
AcDbEntity
  8
0
  6
Continuous
 62
     7
100
AcDbLine
 10
588.233
 20
145.4
 30
0.0
 11
611.983
 21
145.4
 31
0.0
  0
LINE
  5
141
330
1F
100
AcDbEntity
  8
0
  6
Continuous
 62
     7
100
AcDbLine
 10
585.7330000000001
 20
145.4
 30
0.0
 11
566.9830000000001
 21
145.4
 31
0.0
  0
LINE
  5
142
330
1F
100
AcDbEntity
  8
0
  6
Continuous
 62
     7
100
AcDbLine
 10
585.7330000000001
 20
145.4
 30
0.0
 11
561.983
 21
145.4
 31
0.0
  0
LINE
  5
143
330
1F
100
AcDbEntity
  8
0
  6
Continuous
 62
     7
100
AcDbLine
 10
588.233
 20
145.4
 30
0.0
 11
611.8330000000001
 21
145.4
 31
0.0
  0
LINE
  5
144
330
1F
100
AcDbEntity
  8
0
  6
Continuous
 62
     7
100
AcDbLine
 10
585.7330000000001
 20
145.4
 30
0.0
 11
562.133
 21
145.4
 31
0.0
  0
LINE
  5
145
330
1F
100
AcDbEntity
  8
0
  6
Continuous
 62
     7
100
AcDbLine
 10
566.4830000000001
 20
138.4
 30
0.0
 11
560.983
 21
138.4
 31
0.0
  0
LINE
  5
146
330
1F
100
AcDbEntity
  8
0
  6
Continuous
 62
     7
100
AcDbLine
 10
607.483
 20
138.4
 30
0.0
 11
612.9830000000001
 21
138.4
 31
0.0
  0
LINE
  5
147
330
1F
100
AcDbEntity
  8
0
  6
Continuous
 62
     7
100
AcDbLine
 10
566.4830000000001
 20
342.4
 30
0.0
 11
556.983
 21
342.4
 31
0.0
  0
LINE
  5
148
330
1F
100
AcDbEntity
  8
0
  6
Continuous
 62
     7
100
AcDbLine
 10
607.483
 20
342.4
 30
0.0
 11
616.9830000000001
 21
342.4
 31
0.0
  0
LINE
  5
149
330
1F
100
AcDbEntity
  8
0
  6
Continuous
 62
     7
100
AcDbLine
 10
588.233
 20
179.4
 30
0.0
 11
600.733
 21
179.4
 31
0.0
  0
LINE
  5
14A
330
1F
100
AcDbEntity
  8
0
  6
Continuous
 62
     7
100
AcDbLine
 10
600.733
 20
179.4
 30
0.0
 11
600.733
 21
171.4
 31
0.0
  0
LINE
  5
14B
330
1F
100
AcDbEntity
  8
0
  6
Continuous
 62
     7
100
AcDbLine
 10
600.733
 20
171.4
 30
0.0
 11
597.7330000000001
 21
171.4
 31
0.0
  0
LINE
  5
14C
330
1F
100
AcDbEntity
  8
0
  6
Continuous
 62
     7
100
AcDbLine
 10
597.7330000000001
 20
171.4
 30
0.0
 11
597.7330000000001
 21
156.2
 31
0.0
  0
LINE
  5
14D
330
1F
100
AcDbEntity
  8
0
  6
Continuous
 62
     7
100
AcDbLine
 10
597.7330000000001
 20
156.2
 30
0.0
 11
590.983
 21
149.4
 31
0.0
  0
LINE
  5
14E
330
1F
100
AcDbEntity
  8
0
  6
Continuous
 62
     7
100
AcDbLine
 10
585.7330000000001
 20
179.4
 30
0.0
 11
573.2330000000001
 21
179.4
 31
0.0
  0
LINE
  5
14F
330
1F
100
AcDbEntity
  8
0
  6
Continuous
 62
     7
100
AcDbLine
 10
573.2330000000001
 20
179.4
 30
0.0
 11
573.2330000000001
 21
171.4
 31
0.0
  0
LINE
  5
150
330
1F
100
AcDbEntity
  8
0
  6
Continuous
 62
     7
100
AcDbLine
 10
573.2330000000001
 20
171.4
 30
0.0
 11
576.233
 21
171.4
 31
0.0
  0
LINE
  5
151
330
1F
100
AcDbEntity
  8
0
  6
Continuous
 62
     7
100
AcDbLine
 10
576.233
 20
171.4
 30
0.0
 11
576.233
 21
156.2
 31
0.0
  0
LINE
  5
152
330
1F
100
AcDbEntity
  8
0
  6
Continuous
 62
     7
100
AcDbLine
 10
576.233
 20
156.2
 30
0.0
 11
582.983
 21
149.4
 31
0.0
  0
LINE
  5
153
330
1F
100
AcDbEntity
  8
0
  6
Continuous
 62
     7
100
AcDbLine
 10
584.6829999999999
 20
333.9
 30
0.0
 11
584.6829999999999
 21
336.15
 31
0.0
  0
LINE
  5
154
330
1F
100
AcDbEntity
  8
0
  6
Continuous
 62
     7
100
AcDbLine
 10
585.8330000000001
 20
333.9
 30
0.0
 11
585.8330000000001
 21
336.1
 31
0.0
  0
LINE
  5
155
330
1F
100
AcDbEntity
  8
0
  6
Continuous
 62
     7
100
AcDbLine
 10
588.133
 20
333.9
 30
0.0
 11
588.133
 21
336.1
 31
0.0
  0
LINE
  5
156
330
1F
100
AcDbEntity
  8
0
  6
Continuous
 62
     7
100
AcDbLine
 10
589.283
 20
333.9
 30
0.0
 11
589.283
 21
336.15
 31
0.0
  0
LINE
  5
157
330
1F
100
AcDbEntity
  8
0
  6
Continuous
 62
     7
100
AcDbLine
 10
584.6829999999999
 20
333.9
 30
0.0
 11
589.283
 21
333.9
 31
0.0
  0
ARC
  5
158
330
1F
100
AcDbEntity
  8
0
  6
Continuous
 62
     7
100
AcDbCircle
 10
586.983
 20
332.9
 30
0.0
 40
3.399999999999999
100
AcDbArc
 50
70.3
 51
109.7
  0
LINE
  5
159
330
1F
100
AcDbEntity
  8
0
  6
Continuous
 62
     7
100
AcDbLine
 10
585.2829999999999
 20
336.3
 30
0.0
 11
588.6829999999999
 21
336.3
 31
0.0
  0
ARC
  5
15A
330
1F
100
AcDbEntity
  8
0
  6
Continuous
 62
     7
100
AcDbCircle
 10
585.2330000000001
 20
335.1
 30
0.0
 40
1.199999999999999
100
AcDbArc
 50
60.7
 51
117.6
  0
ARC
  5
15B
330
1F
100
AcDbEntity
  8
0
  6
Continuous
 62
     7
100
AcDbCircle
 10
588.733
 20
335.1
 30
0.0
 40
1.199999999999999
100
AcDbArc
 50
62.4
 51
119.3
  0
LINE
  5
15C
330
1F
100
AcDbEntity
  8
0
  6
Continuous
 62
     7
100
AcDbLine
 10
589.283
 20
146.9
 30
0.0
 11
589.283
 21
144.65
 31
0.0
  0
LINE
  5
15D
330
1F
100
AcDbEntity
  8
0
  6
Continuous
 62
     7
100
AcDbLine
 10
588.133
 20
146.9
 30
0.0
 11
588.133
 21
144.7
 31
0.0
  0
LINE
  5
15E
330
1F
100
AcDbEntity
  8
0
  6
Continuous
 62
     7
100
AcDbLine
 10
585.8330000000001
 20
146.9
 30
0.0
 11
585.8330000000001
 21
144.7
 31
0.0
  0
LINE
  5
15F
330
1F
100
AcDbEntity
  8
0
  6
Continuous
 62
     7
100
AcDbLine
 10
584.6829999999999
 20
146.9
 30
0.0
 11
584.6829999999999
 21
144.65
 31
0.0
  0
LINE
  5
160
330
1F
100
AcDbEntity
  8
0
  6
Continuous
 62
     7
100
AcDbLine
 10
589.283
 20
146.9
 30
0.0
 11
584.6829999999999
 21
146.9
 31
0.0
  0
ARC
  5
161
330
1F
100
AcDbEntity
  8
0
  6
Continuous
 62
     7
100
AcDbCircle
 10
586.983
 20
147.9
 30
0.0
 40
3.399999999999999
100
AcDbArc
 50
250.3
 51
289.7
  0
LINE
  5
162
330
1F
100
AcDbEntity
  8
0
  6
Continuous
 62
     7
100
AcDbLine
 10
588.6829999999999
 20
144.5
 30
0.0
 11
585.2829999999999
 21
144.5
 31
0.0
  0
ARC
  5
163
330
1F
100
AcDbEntity
  8
0
  6
Continuous
 62
     7
100
AcDbCircle
 10
588.733
 20
145.7
 30
0.0
 40
1.199999999999999
100
AcDbArc
 50
240.7
 51
297.6
  0
ARC
  5
164
330
1F
100
AcDbEntity
  8
0
  6
Continuous
 62
     7
100
AcDbCircle
 10
585.2330000000001
 20
145.7
 30
0.0
 40
1.199999999999999
100
AcDbArc
 50
242.4
 51
299.3
  0
LINE
  5
165
330
1F
100
AcDbEntity
  8
0
  6
Continuous
 62
     7
100
AcDbLine
 10
615.983
 20
320.4
 30
0.0
 11
615.983
 21
335.4
 31
0.0
  0
LINE
  5
166
330
1F
100
AcDbEntity
  8
0
  6
Continuous
 62
     7
100
AcDbLine
 10
557.983
 20
320.4
 30
0.0
 11
557.983
 21
335.4
 31
0.0
  0
LINE
  5
167
330
1F
100
AcDbEntity
  8
0
  6
Continuous
 62
     7
100
AcDbLine
 10
561.983
 20
145.4
 30
0.0
 11
561.983
 21
160.4
 31
0.0
  0
LINE
  5
168
330
1F
100
AcDbEntity
  8
0
  6
Continuous
 62
     7
100
AcDbLine
 10
611.983
 20
145.4
 30
0.0
 11
611.983
 21
160.4
 31
0.0
  0
LINE
  5
169
330
1F
100
AcDbEntity
  8
0
  6
Continuous
 62
     7
100
AcDbLine
 10
616.9830000000001
 20
339.4
 30
0.0
 11
616.9830000000001
 21
319.4
 31
0.0
  0
LINE
  5
16A
330
1F
100
AcDbEntity
  8
0
  6
Continuous
 62
     7
100
AcDbLine
 10
556.983
 20
339.4
 30
0.0
 11
556.983
 21
319.4
 31
0.0
  0
LINE
  5
16B
330
1F
100
AcDbEntity
  8
0
  6
Continuous
 62
     7
100
AcDbLine
 10
560.983
 20
161.4
 30
0.0
 11
560.983
 21
141.4
 31
0.0
  0
LINE
  5
16C
330
1F
100
AcDbEntity
  8
0
  6
Continuous
 62
     7
100
AcDbLine
 10
612.9830000000001
 20
161.4
 30
0.0
 11
612.9830000000001
 21
141.4
 31
0.0
  0
MTEXT
  5
16D
330
1F
100
AcDbEntity
  8
0
  6
Continuous
 62
     7
100
AcDbMText
 10
523.683
 20
414.0
 30
0.0
 40
10.0
 41
208.0
 71
     7
 72
     1
  1
\W0.800;ＡＶＰ１０１ＦＪＨＯＡＡＡ
  7
KANJI0
 73
     1
 44
1.0
1001
ACAD
1000
MTEXTBEGIN
1070
    73
1070
     1
1070
    44
1040
1.0
1070
    74
1070
     0
1000
MTEXTEND
  0
LINE
  5
16F
330
1F
100
AcDbEntity
  8
0
  6
Continuous
 62
     7
100
AcDbLine
 10
385.0630000000001
 20
140.4
 30
0.0
 11
405.063
 21
140.4
 31
0.0
  0
LINE
  5
170
330
1F
100
AcDbEntity
  8
0
  6
Continuous
 62
     7
100
AcDbLine
 10
405.063
 20
140.4
 30
0.0
 11
405.063
 21
144.4
 31
0.0
  0
LINE
  5
171
330
1F
100
AcDbEntity
  8
0
  6
Continuous
 62
     7
100
AcDbLine
 10
405.063
 20
144.4
 30
0.0
 11
385.0630000000001
 21
144.4
 31
0.0
  0
LINE
  5
172
330
1F
100
AcDbEntity
  8
0
  6
Continuous
 62
     7
100
AcDbLine
 10
385.0630000000001
 20
140.4
 30
0.0
 11
410.063
 21
140.4
 31
0.0
  0
LINE
  5
173
330
1F
100
AcDbEntity
  8
0
  6
Continuous
 62
     7
100
AcDbLine
 10
410.063
 20
140.4
 30
0.0
 11
411.063
 21
141.4
 31
0.0
  0
LINE
  5
174
330
1F
100
AcDbEntity
  8
0
  6
Continuous
 62
     7
100
AcDbLine
 10
411.063
 20
154.4
 30
0.0
 11
410.063
 21
155.4
 31
0.0
  0
LINE
  5
175
330
1F
100
AcDbEntity
  8
0
  6
Continuous
 62
     7
100
AcDbLine
 10
411.063
 20
141.4
 30
0.0
 11
411.063
 21
154.4
 31
0.0
  0
LINE
  5
176
330
1F
100
AcDbEntity
  8
0
  6
Continuous
 62
     7
100
AcDbLine
 10
410.063
 20
155.4
 30
0.0
 11
407.112393566
 21
155.4
 31
0.0
  0
ARC
  5
177
330
1F
100
AcDbEntity
  8
0
  6
Continuous
 62
     7
100
AcDbCircle
 10
407.112393566
 20
157.4
 30
0.0
 40
2.0
100
AcDbArc
 50
177.299370663
 51
270.0
  0
LINE
  5
178
330
1F
100
AcDbEntity
  8
0
  6
Continuous
 62
     7
100
AcDbLine
 10
385.0630000000001
 20
330.4
 30
0.0
 11
405.063
 21
330.4
 31
0.0
  0
LINE
  5
179
330
1F
100
AcDbEntity
  8
0
  6
Continuous
 62
     7
100
AcDbLine
 10
405.063
 20
330.4
 30
0.0
 11
405.063
 21
326.4
 31
0.0
  0
LINE
  5
17A
330
1F
100
AcDbEntity
  8
0
  6
Continuous
 62
     7
100
AcDbLine
 10
405.063
 20
326.4
 30
0.0
 11
385.0630000000001
 21
326.4
 31
0.0
  0
LINE
  5
17B
330
1F
100
AcDbEntity
  8
0
  6
Continuous
 62
     7
100
AcDbLine
 10
385.0630000000001
 20
330.4
 30
0.0
 11
410.063
 21
330.4
 31
0.0
  0
LINE
  5
17C
330
1F
100
AcDbEntity
  8
0
  6
Continuous
 62
     7
100
AcDbLine
 10
410.063
 20
330.4
 30
0.0
 11
411.063
 21
329.4
 31
0.0
  0
LINE
  5
17D
330
1F
100
AcDbEntity
  8
0
  6
Continuous
 62
     7
100
AcDbLine
 10
411.063
 20
316.4
 30
0.0
 11
410.063
 21
315.4
 31
0.0
  0
LINE
  5
17E
330
1F
100
AcDbEntity
  8
0
  6
Continuous
 62
     7
100
AcDbLine
 10
411.063
 20
329.4
 30
0.0
 11
411.063
 21
316.4
 31
0.0
  0
LINE
  5
17F
330
1F
100
AcDbEntity
  8
0
  6
Continuous
 62
     7
100
AcDbLine
 10
397.063
 20
144.4
 30
0.0
 11
403.563
 21
326.4
 31
0.0
  0
LINE
  5
180
330
1F
100
AcDbEntity
  8
0
  6
Continuous
 62
     7
100
AcDbLine
 10
410.063
 20
315.4
 30
0.0
 11
407.557328915
 21
315.4
 31
0.0
  0
LINE
  5
181
330
1F
100
AcDbEntity
  8
0
  6
Continuous
 62
     7
100
AcDbLine
 10
405.1146148509999
 20
157.494234845
 30
0.0
 11
405.557336978
 21
313.405679126
 31
0.0
  0
ARC
  5
182
330
1F
100
AcDbEntity
  8
0
  6
Continuous
 62
     7
100
AcDbCircle
 10
407.557328915
 20
313.4
 30
0.0
 40
2.0
100
AcDbArc
 50
90.0
 51
179.837304816
  0
LINE
  5
183
330
1F
100
AcDbEntity
  8
0
  6
Continuous
 62
     7
100
AcDbLine
 10
385.0630000000001
 20
140.4
 30
0.0
 11
365.063
 21
140.4
 31
0.0
  0
LINE
  5
184
330
1F
100
AcDbEntity
  8
0
  6
Continuous
 62
     7
100
AcDbLine
 10
365.063
 20
140.4
 30
0.0
 11
365.063
 21
144.4
 31
0.0
  0
LINE
  5
185
330
1F
100
AcDbEntity
  8
0
  6
Continuous
 62
     7
100
AcDbLine
 10
365.063
 20
144.4
 30
0.0
 11
385.0630000000001
 21
144.4
 31
0.0
  0
LINE
  5
186
330
1F
100
AcDbEntity
  8
0
  6
Continuous
 62
     7
100
AcDbLine
 10
385.0630000000001
 20
140.4
 30
0.0
 11
360.0630000000001
 21
140.4
 31
0.0
  0
LINE
  5
187
330
1F
100
AcDbEntity
  8
0
  6
Continuous
 62
     7
100
AcDbLine
 10
360.0630000000001
 20
140.4
 30
0.0
 11
359.063
 21
141.4
 31
0.0
  0
LINE
  5
188
330
1F
100
AcDbEntity
  8
0
  6
Continuous
 62
     7
100
AcDbLine
 10
359.063
 20
154.4
 30
0.0
 11
360.0630000000001
 21
155.4
 31
0.0
  0
LINE
  5
189
330
1F
100
AcDbEntity
  8
0
  6
Continuous
 62
     7
100
AcDbLine
 10
359.063
 20
141.4
 30
0.0
 11
359.063
 21
154.4
 31
0.0
  0
LINE
  5
18A
330
1F
100
AcDbEntity
  8
0
  6
Continuous
 62
     7
100
AcDbLine
 10
360.0630000000001
 20
155.4
 30
0.0
 11
363.013606434
 21
155.4
 31
0.0
  0
ARC
  5
18B
330
1F
100
AcDbEntity
  8
0
  6
Continuous
 62
     7
100
AcDbCircle
 10
363.013606434
 20
157.4
 30
0.0
 40
2.0
100
AcDbArc
 50
270.0
 51
2.700629337
  0
LINE
  5
18C
330
1F
100
AcDbEntity
  8
0
  6
Continuous
 62
     7
100
AcDbLine
 10
385.0630000000001
 20
330.4
 30
0.0
 11
365.063
 21
330.4
 31
0.0
  0
LINE
  5
18D
330
1F
100
AcDbEntity
  8
0
  6
Continuous
 62
     7
100
AcDbLine
 10
365.063
 20
330.4
 30
0.0
 11
365.063
 21
326.4
 31
0.0
  0
LINE
  5
18E
330
1F
100
AcDbEntity
  8
0
  6
Continuous
 62
     7
100
AcDbLine
 10
365.063
 20
326.4
 30
0.0
 11
385.0630000000001
 21
326.4
 31
0.0
  0
LINE
  5
18F
330
1F
100
AcDbEntity
  8
0
  6
Continuous
 62
     7
100
AcDbLine
 10
385.0630000000001
 20
330.4
 30
0.0
 11
360.0630000000001
 21
330.4
 31
0.0
  0
LINE
  5
190
330
1F
100
AcDbEntity
  8
0
  6
Continuous
 62
     7
100
AcDbLine
 10
360.0630000000001
 20
330.4
 30
0.0
 11
359.063
 21
329.4
 31
0.0
  0
LINE
  5
191
330
1F
100
AcDbEntity
  8
0
  6
Continuous
 62
     7
100
AcDbLine
 10
359.063
 20
316.4
 30
0.0
 11
360.0630000000001
 21
315.4
 31
0.0
  0
LINE
  5
192
330
1F
100
AcDbEntity
  8
0
  6
Continuous
 62
     7
100
AcDbLine
 10
359.063
 20
329.4
 30
0.0
 11
359.063
 21
316.4
 31
0.0
  0
LINE
  5
193
330
1F
100
AcDbEntity
  8
0
  6
Continuous
 62
     7
100
AcDbLine
 10
373.0630000000001
 20
144.4
 30
0.0
 11
366.5630000000001
 21
326.4
 31
0.0
  0
LINE
  5
194
330
1F
100
AcDbEntity
  8
0
  6
Continuous
 62
     7
100
AcDbLine
 10
360.0630000000001
 20
315.4
 30
0.0
 11
362.568671085
 21
315.4
 31
0.0
  0
LINE
  5
195
330
1F
100
AcDbEntity
  8
0
  6
Continuous
 62
     7
100
AcDbLine
 10
365.011385149
 20
157.494234845
 30
0.0
 11
364.568663022
 21
313.405679126
 31
0.0
  0
ARC
  5
196
330
1F
100
AcDbEntity
  8
0
  6
Continuous
 62
     7
100
AcDbCircle
 10
362.568671085
 20
313.4
 30
0.0
 40
2.0
100
AcDbArc
 50
0.162695184
 51
90.0
  0
LINE
  5
197
330
1F
100
AcDbEntity
  8
0
  6
Continuous
 62
     7
100
AcDbLine
 10
387.3130000000001
 20
141.9
 30
0.0
 11
387.3130000000001
 21
140.45
 31
0.0
  0
LINE
  5
198
330
1F
100
AcDbEntity
  8
0
  6
Continuous
 62
     7
100
AcDbLine
 10
386.313
 20
141.9
 30
0.0
 11
386.313
 21
140.45
 31
0.0
  0
ARC
  5
199
330
1F
100
AcDbEntity
  8
0
  6
Continuous
 62
     7
100
AcDbCircle
 10
386.8130000000001
 20
141.2
 30
0.0
 40
0.9
100
AcDbArc
 50
236.6
 51
303.4
  0
LINE
  5
19A
330
1F
100
AcDbEntity
  8
0
  6
Continuous
 62
     7
100
AcDbLine
 10
386.313
 20
326.45
 30
0.0
 11
386.313
 21
327.9
 31
0.0
  0
LINE
  5
19B
330
1F
100
AcDbEntity
  8
0
  6
Continuous
 62
     7
100
AcDbLine
 10
386.313
 20
135.9
 30
0.0
 11
386.313
 21
332.45
 31
0.0
  0
LINE
  5
19C
330
1F
100
AcDbEntity
  8
0
  6
Continuous
 62
     7
100
AcDbLine
 10
383.8130000000001
 20
141.9
 30
0.0
 11
383.8130000000001
 21
140.45
 31
0.0
  0
LINE
  5
19D
330
1F
100
AcDbEntity
  8
0
  6
Continuous
 62
     7
100
AcDbLine
 10
382.8130000000001
 20
141.9
 30
0.0
 11
382.8130000000001
 21
140.45
 31
0.0
  0
ARC
  5
19E
330
1F
100
AcDbEntity
  8
0
  6
Continuous
 62
     7
100
AcDbCircle
 10
383.313
 20
141.2
 30
0.0
 40
0.9
100
AcDbArc
 50
236.6
 51
303.4
  0
LINE
  5
19F
330
1F
100
AcDbEntity
  8
0
  6
Continuous
 62
     7
100
AcDbLine
 10
383.8130000000001
 20
326.45
 30
0.0
 11
383.8130000000001
 21
327.9
 31
0.0
  0
LINE
  5
1A0
330
1F
100
AcDbEntity
  8
0
  6
Continuous
 62
     7
100
AcDbLine
 10
383.8130000000001
 20
332.45
 30
0.0
 11
383.8130000000001
 21
135.9
 31
0.0
  0
LINE
  5
1A1
330
1F
100
AcDbEntity
  8
0
  6
Continuous
 62
     7
100
AcDbLine
 10
383.8130000000001
 20
135.9
 30
0.0
 11
386.313
 21
135.9
 31
0.0
  0
LINE
  5
1A2
330
1F
100
AcDbEntity
  8
0
  6
Continuous
 62
     7
100
AcDbLine
 10
383.8130000000001
 20
141.9
 30
0.0
 11
386.313
 21
141.9
 31
0.0
  0
LINE
  5
1A3
330
1F
100
AcDbEntity
  8
0
  6
Continuous
 62
     7
100
AcDbLine
 10
383.313
 20
140.3
 30
0.0
 11
386.8130000000001
 21
140.3
 31
0.0
  0
LINE
  5
1A4
330
1F
100
AcDbEntity
  8
0
  6
Continuous
 62
     7
100
AcDbLine
 10
387.3130000000001
 20
141.9
 30
0.0
 11
382.8130000000001
 21
141.9
 31
0.0
  0
ARC
  5
1A5
330
1F
100
AcDbEntity
  8
0
  6
Continuous
 62
     7
100
AcDbCircle
 10
385.0630000000001
 20
143.7
 30
0.0
 40
3.399999999999999
100
AcDbArc
 50
252.9
 51
287.1
  0
LINE
  5
1A6
330
1F
100
AcDbEntity
  8
0
  6
Continuous
 62
     7
100
AcDbLine
 10
386.313
 20
326.45
 30
0.0
 11
383.8130000000001
 21
326.45
 31
0.0
  0
LINE
  5
1A7
330
1F
100
AcDbEntity
  8
0
  6
Continuous
 62
     7
100
AcDbLine
 10
386.313
 20
332.45
 30
0.0
 11
383.8130000000001
 21
332.45
 31
0.0
  0
LINE
  5
1A8
330
1F
100
AcDbEntity
  8
0
  6
Continuous
 62
     7
100
AcDbLine
 10
416.063
 20
314.4
 30
0.0
 11
416.063
 21
342.4
 31
0.0
  0
LINE
  5
1A9
330
1F
100
AcDbEntity
  8
0
  6
Continuous
 62
     7
100
AcDbLine
 10
411.063
 20
337.4
 30
0.0
 11
411.063
 21
334.4
 31
0.0
  0
LINE
  5
1AA
330
1F
100
AcDbEntity
  8
0
  6
Continuous
 62
     7
100
AcDbLine
 10
411.063
 20
314.4
 30
0.0
 11
410.063
 21
315.2
 31
0.0
  0
LINE
  5
1AB
330
1F
100
AcDbEntity
  8
0
  6
Continuous
 62
     7
100
AcDbLine
 10
410.063
 20
334.4
 30
0.0
 11
410.063
 21
315.2
 31
0.0
  0
LINE
  5
1AC
330
1F
100
AcDbEntity
  8
0
  6
Continuous
 62
     7
100
AcDbLine
 10
359.063
 20
314.4
 30
0.0
 11
360.0630000000001
 21
315.2
 31
0.0
  0
LINE
  5
1AD
330
1F
100
AcDbEntity
  8
0
  6
Continuous
 62
     7
100
AcDbLine
 10
405.813
 20
354.4
 30
0.0
 11
405.813
 21
337.4
 31
0.0
  0
LINE
  5
1AE
330
1F
100
AcDbEntity
  8
0
  6
Continuous
 62
     7
100
AcDbLine
 10
411.563
 20
354.4
 30
0.0
 11
411.563
 21
346.4
 31
0.0
  0
LINE
  5
1AF
330
1F
100
AcDbEntity
  8
0
  6
Continuous
 62
     7
100
AcDbLine
 10
415.563
 20
342.4
 30
0.0
 11
416.063
 21
342.4
 31
0.0
  0
ARC
  5
1B0
330
1F
100
AcDbEntity
  8
0
  6
Continuous
 62
     7
100
AcDbCircle
 10
415.563
 20
346.4
 30
0.0
 40
4.0
100
AcDbArc
 50
180.0
 51
270.0
  0
LINE
  5
1B1
330
1F
100
AcDbEntity
  8
0
  6
Continuous
 62
     7
100
AcDbLine
 10
354.0630000000001
 20
314.4
 30
0.0
 11
354.0630000000001
 21
342.4
 31
0.0
  0
LINE
  5
1B2
330
1F
100
AcDbEntity
  8
0
  6
Continuous
 62
     7
100
AcDbLine
 10
359.063
 20
337.4
 30
0.0
 11
359.063
 21
334.4
 31
0.0
  0
LINE
  5
1B3
330
1F
100
AcDbEntity
  8
0
  6
Continuous
 62
     7
100
AcDbLine
 10
360.0630000000001
 20
334.4
 30
0.0
 11
360.0630000000001
 21
315.2
 31
0.0
  0
LINE
  5
1B4
330
1F
100
AcDbEntity
  8
0
  6
Continuous
 62
     7
100
AcDbLine
 10
364.3130000000001
 20
354.4
 30
0.0
 11
364.3130000000001
 21
337.4
 31
0.0
  0
LINE
  5
1B5
330
1F
100
AcDbEntity
  8
0
  6
Continuous
 62
     7
100
AcDbLine
 10
358.563
 20
354.4
 30
0.0
 11
358.563
 21
346.4
 31
0.0
  0
LINE
  5
1B6
330
1F
100
AcDbEntity
  8
0
  6
Continuous
 62
     7
100
AcDbLine
 10
354.563
 20
342.4
 30
0.0
 11
354.0630000000001
 21
342.4
 31
0.0
  0
ARC
  5
1B7
330
1F
100
AcDbEntity
  8
0
  6
Continuous
 62
     7
100
AcDbCircle
 10
354.563
 20
346.4
 30
0.0
 40
4.0
100
AcDbArc
 50
270.0
 51
0.0
  0
LINE
  5
1B8
330
1F
100
AcDbEntity
  8
0
  6
Continuous
 62
     7
100
AcDbLine
 10
385.0630000000001
 20
330.4
 30
0.0
 11
360.213
 21
330.4
 31
0.0
  0
LINE
  5
1B9
330
1F
100
AcDbEntity
  8
0
  6
Continuous
 62
     7
100
AcDbLine
 10
360.213
 20
330.4
 30
0.0
 11
360.213
 21
337.4
 31
0.0
  0
LINE
  5
1BA
330
1F
100
AcDbEntity
  8
0
  6
Continuous
 62
     7
100
AcDbLine
 10
385.0630000000001
 20
362.4
 30
0.0
 11
364.5630000000001
 21
362.4
 31
0.0
  0
LINE
  5
1BB
330
1F
100
AcDbEntity
  8
0
  6
Continuous
 62
     7
100
AcDbLine
 10
364.5630000000001
 20
362.4
 30
0.0
 11
364.5630000000001
 21
337.4
 31
0.0
  0
LINE
  5
1BC
330
1F
100
AcDbEntity
  8
0
  6
Continuous
 62
     7
100
AcDbLine
 10
364.5630000000001
 20
337.4
 30
0.0
 11
360.213
 21
337.4
 31
0.0
  0
LINE
  5
1BD
330
1F
100
AcDbEntity
  8
0
  6
Continuous
 62
     7
100
AcDbLine
 10
372.213
 20
337.4
 30
0.0
 11
371.913
 21
362.4
 31
0.0
  0
LINE
  5
1BE
330
1F
100
AcDbEntity
  8
0
  6
Continuous
 62
     7
100
AcDbLine
 10
372.213
 20
337.4
 30
0.0
 11
385.0630000000001
 21
337.4
 31
0.0
  0
LINE
  5
1BF
330
1F
100
AcDbEntity
  8
0
  6
Continuous
 62
     7
100
AcDbLine
 10
375.0630000000001
 20
330.4
 30
0.0
 11
375.0630000000001
 21
337.4
 31
0.0
  0
LINE
  5
1C0
330
1F
100
AcDbEntity
  8
0
  6
Continuous
 62
     7
100
AcDbLine
 10
362.0630000000001
 20
330.4
 30
0.0
 11
362.0630000000001
 21
332.2
 31
0.0
  0
LINE
  5
1C1
330
1F
100
AcDbEntity
  8
0
  6
Continuous
 62
     7
100
AcDbLine
 10
362.0630000000001
 20
332.2
 30
0.0
 11
365.263
 21
332.2
 31
0.0
  0
LINE
  5
1C2
330
1F
100
AcDbEntity
  8
0
  6
Continuous
 62
     7
100
AcDbLine
 10
365.263
 20
332.2
 30
0.0
 11
365.263
 21
330.4
 31
0.0
  0
LINE
  5
1C3
330
1F
100
AcDbEntity
  8
0
  6
Continuous
 62
     7
100
AcDbLine
 10
385.0630000000001
 20
330.4
 30
0.0
 11
409.913
 21
330.4
 31
0.0
  0
LINE
  5
1C4
330
1F
100
AcDbEntity
  8
0
  6
Continuous
 62
     7
100
AcDbLine
 10
409.913
 20
330.4
 30
0.0
 11
409.913
 21
337.4
 31
0.0
  0
LINE
  5
1C5
330
1F
100
AcDbEntity
  8
0
  6
Continuous
 62
     7
100
AcDbLine
 10
385.0630000000001
 20
362.4
 30
0.0
 11
405.563
 21
362.4
 31
0.0
  0
LINE
  5
1C6
330
1F
100
AcDbEntity
  8
0
  6
Continuous
 62
     7
100
AcDbLine
 10
405.563
 20
362.4
 30
0.0
 11
405.563
 21
337.4
 31
0.0
  0
LINE
  5
1C7
330
1F
100
AcDbEntity
  8
0
  6
Continuous
 62
     7
100
AcDbLine
 10
405.563
 20
337.4
 30
0.0
 11
409.913
 21
337.4
 31
0.0
  0
LINE
  5
1C8
330
1F
100
AcDbEntity
  8
0
  6
Continuous
 62
     7
100
AcDbLine
 10
397.913
 20
337.4
 30
0.0
 11
398.213
 21
362.4
 31
0.0
  0
LINE
  5
1C9
330
1F
100
AcDbEntity
  8
0
  6
Continuous
 62
     7
100
AcDbLine
 10
397.913
 20
337.4
 30
0.0
 11
385.0630000000001
 21
337.4
 31
0.0
  0
LINE
  5
1CA
330
1F
100
AcDbEntity
  8
0
  6
Continuous
 62
     7
100
AcDbLine
 10
395.0630000000001
 20
330.4
 30
0.0
 11
395.0630000000001
 21
337.4
 31
0.0
  0
LINE
  5
1CB
330
1F
100
AcDbEntity
  8
0
  6
Continuous
 62
     7
100
AcDbLine
 10
408.063
 20
330.4
 30
0.0
 11
408.063
 21
332.2
 31
0.0
  0
LINE
  5
1CC
330
1F
100
AcDbEntity
  8
0
  6
Continuous
 62
     7
100
AcDbLine
 10
408.063
 20
332.2
 30
0.0
 11
404.8630000000001
 21
332.2
 31
0.0
  0
LINE
  5
1CD
330
1F
100
AcDbEntity
  8
0
  6
Continuous
 62
     7
100
AcDbLine
 10
404.8630000000001
 20
332.2
 30
0.0
 11
404.8630000000001
 21
330.4
 31
0.0
  0
ARC
  5
1CE
330
1F
100
AcDbEntity
  8
0
  6
Continuous
 62
     7
100
AcDbCircle
 10
363.283
 20
331.4
 30
0.0
 40
1.31
100
AcDbArc
 50
310.238798125
 51
37.639195788
  0
ARC
  5
1CF
330
1F
100
AcDbEntity
  8
0
  6
Continuous
 62
     7
100
AcDbCircle
 10
363.283
 20
331.4
 30
0.0
 40
1.31
100
AcDbArc
 50
142.360804214
 51
229.761201873
  0
ARC
  5
1D0
330
1F
100
AcDbEntity
  8
0
  6
Continuous
 62
     7
100
AcDbCircle
 10
406.843
 20
331.4
 30
0.0
 40
1.31
100
AcDbArc
 50
310.238798127
 51
37.639195787
  0
ARC
  5
1D1
330
1F
100
AcDbEntity
  8
0
  6
Continuous
 62
     7
100
AcDbCircle
 10
406.843
 20
331.4
 30
0.0
 40
1.31
100
AcDbArc
 50
142.360804213
 51
229.761201873
  0
LINE
  5
1D2
330
1F
100
AcDbEntity
  8
0
  6
Continuous
 62
     7
100
AcDbLine
 10
411.563
 20
354.4
 30
0.0
 11
405.563
 21
354.4
 31
0.0
  0
LINE
  5
1D3
330
1F
100
AcDbEntity
  8
0
  6
Continuous
 62
     7
100
AcDbLine
 10
358.563
 20
354.4
 30
0.0
 11
364.5630000000001
 21
354.4
 31
0.0
  0
LINE
  5
1D4
330
1F
100
AcDbEntity
  8
0
  6
Continuous
 62
     7
100
AcDbLine
 10
364.300721893
 20
314.4
 30
0.0
 11
354.0630000000001
 21
314.4
 31
0.0
  0
LINE
  5
1D5
330
1F
100
AcDbEntity
  8
0
  6
Continuous
 62
     7
100
AcDbLine
 10
360.0630000000001
 20
315.2
 30
0.0
 11
363.440450874
 21
315.2
 31
0.0
  0
LINE
  5
1D6
330
1F
100
AcDbEntity
  8
0
  6
Continuous
 62
     7
100
AcDbLine
 10
405.825278107
 20
314.4
 30
0.0
 11
416.063
 21
314.4
 31
0.0
  0
LINE
  5
1D7
330
1F
100
AcDbEntity
  8
0
  6
Continuous
 62
     7
100
AcDbLine
 10
410.063
 20
315.2
 30
0.0
 11
406.685549126
 21
315.2
 31
0.0
  0
LINE
  5
1D8
330
1F
100
AcDbEntity
  8
0
  6
Continuous
 62
     7
100
AcDbLine
 10
354.0630000000001
 20
156.4
 30
0.0
 11
354.0630000000001
 21
128.4
 31
0.0
  0
LINE
  5
1D9
330
1F
100
AcDbEntity
  8
0
  6
Continuous
 62
     7
100
AcDbLine
 10
359.063
 20
133.4
 30
0.0
 11
359.063
 21
136.4
 31
0.0
  0
LINE
  5
1DA
330
1F
100
AcDbEntity
  8
0
  6
Continuous
 62
     7
100
AcDbLine
 10
359.063
 20
156.4
 30
0.0
 11
360.0630000000001
 21
155.6
 31
0.0
  0
LINE
  5
1DB
330
1F
100
AcDbEntity
  8
0
  6
Continuous
 62
     7
100
AcDbLine
 10
360.0630000000001
 20
136.4
 30
0.0
 11
360.0630000000001
 21
155.6
 31
0.0
  0
LINE
  5
1DC
330
1F
100
AcDbEntity
  8
0
  6
Continuous
 62
     7
100
AcDbLine
 10
411.063
 20
156.4
 30
0.0
 11
410.063
 21
155.6
 31
0.0
  0
LINE
  5
1DD
330
1F
100
AcDbEntity
  8
0
  6
Continuous
 62
     7
100
AcDbLine
 10
364.3130000000001
 20
116.4
 30
0.0
 11
364.3130000000001
 21
133.4
 31
0.0
  0
LINE
  5
1DE
330
1F
100
AcDbEntity
  8
0
  6
Continuous
 62
     7
100
AcDbLine
 10
358.563
 20
116.4
 30
0.0
 11
358.563
 21
124.4
 31
0.0
  0
LINE
  5
1DF
330
1F
100
AcDbEntity
  8
0
  6
Continuous
 62
     7
100
AcDbLine
 10
354.563
 20
128.4
 30
0.0
 11
354.0630000000001
 21
128.4
 31
0.0
  0
ARC
  5
1E0
330
1F
100
AcDbEntity
  8
0
  6
Continuous
 62
     7
100
AcDbCircle
 10
354.563
 20
124.4
 30
0.0
 40
4.0
100
AcDbArc
 50
0.0
 51
90.0
  0
LINE
  5
1E1
330
1F
100
AcDbEntity
  8
0
  6
Continuous
 62
     7
100
AcDbLine
 10
416.063
 20
156.4
 30
0.0
 11
416.063
 21
128.4
 31
0.0
  0
LINE
  5
1E2
330
1F
100
AcDbEntity
  8
0
  6
Continuous
 62
     7
100
AcDbLine
 10
411.063
 20
133.4
 30
0.0
 11
411.063
 21
136.4
 31
0.0
  0
LINE
  5
1E3
330
1F
100
AcDbEntity
  8
0
  6
Continuous
 62
     7
100
AcDbLine
 10
410.063
 20
136.4
 30
0.0
 11
410.063
 21
155.6
 31
0.0
  0
LINE
  5
1E4
330
1F
100
AcDbEntity
  8
0
  6
Continuous
 62
     7
100
AcDbLine
 10
405.813
 20
116.4
 30
0.0
 11
405.813
 21
133.4
 31
0.0
  0
LINE
  5
1E5
330
1F
100
AcDbEntity
  8
0
  6
Continuous
 62
     7
100
AcDbLine
 10
411.563
 20
116.4
 30
0.0
 11
411.563
 21
124.4
 31
0.0
  0
LINE
  5
1E6
330
1F
100
AcDbEntity
  8
0
  6
Continuous
 62
     7
100
AcDbLine
 10
415.563
 20
128.4
 30
0.0
 11
416.063
 21
128.4
 31
0.0
  0
ARC
  5
1E7
330
1F
100
AcDbEntity
  8
0
  6
Continuous
 62
     7
100
AcDbCircle
 10
415.563
 20
124.4
 30
0.0
 40
4.0
100
AcDbArc
 50
90.0
 51
180.0
  0
LINE
  5
1E8
330
1F
100
AcDbEntity
  8
0
  6
Continuous
 62
     7
100
AcDbLine
 10
385.0630000000001
 20
140.4
 30
0.0
 11
409.913
 21
140.4
 31
0.0
  0
LINE
  5
1E9
330
1F
100
AcDbEntity
  8
0
  6
Continuous
 62
     7
100
AcDbLine
 10
409.913
 20
140.4
 30
0.0
 11
409.913
 21
133.4
 31
0.0
  0
LINE
  5
1EA
330
1F
100
AcDbEntity
  8
0
  6
Continuous
 62
     7
100
AcDbLine
 10
385.0630000000001
 20
108.4
 30
0.0
 11
405.563
 21
108.4
 31
0.0
  0
LINE
  5
1EB
330
1F
100
AcDbEntity
  8
0
  6
Continuous
 62
     7
100
AcDbLine
 10
405.563
 20
108.4
 30
0.0
 11
405.563
 21
133.4
 31
0.0
  0
LINE
  5
1EC
330
1F
100
AcDbEntity
  8
0
  6
Continuous
 62
     7
100
AcDbLine
 10
405.563
 20
133.4
 30
0.0
 11
409.913
 21
133.4
 31
0.0
  0
LINE
  5
1ED
330
1F
100
AcDbEntity
  8
0
  6
Continuous
 62
     7
100
AcDbLine
 10
397.913
 20
133.4
 30
0.0
 11
398.213
 21
108.4
 31
0.0
  0
LINE
  5
1EE
330
1F
100
AcDbEntity
  8
0
  6
Continuous
 62
     7
100
AcDbLine
 10
397.913
 20
133.4
 30
0.0
 11
385.0630000000001
 21
133.4
 31
0.0
  0
LINE
  5
1EF
330
1F
100
AcDbEntity
  8
0
  6
Continuous
 62
     7
100
AcDbLine
 10
395.0630000000001
 20
140.4
 30
0.0
 11
395.0630000000001
 21
133.4
 31
0.0
  0
LINE
  5
1F0
330
1F
100
AcDbEntity
  8
0
  6
Continuous
 62
     7
100
AcDbLine
 10
408.063
 20
140.4
 30
0.0
 11
408.063
 21
138.6
 31
0.0
  0
LINE
  5
1F1
330
1F
100
AcDbEntity
  8
0
  6
Continuous
 62
     7
100
AcDbLine
 10
408.063
 20
138.6
 30
0.0
 11
404.8630000000001
 21
138.6
 31
0.0
  0
LINE
  5
1F2
330
1F
100
AcDbEntity
  8
0
  6
Continuous
 62
     7
100
AcDbLine
 10
404.8630000000001
 20
138.6
 30
0.0
 11
404.8630000000001
 21
140.4
 31
0.0
  0
LINE
  5
1F3
330
1F
100
AcDbEntity
  8
0
  6
Continuous
 62
     7
100
AcDbLine
 10
385.0630000000001
 20
140.4
 30
0.0
 11
360.213
 21
140.4
 31
0.0
  0
LINE
  5
1F4
330
1F
100
AcDbEntity
  8
0
  6
Continuous
 62
     7
100
AcDbLine
 10
360.213
 20
140.4
 30
0.0
 11
360.213
 21
133.4
 31
0.0
  0
LINE
  5
1F5
330
1F
100
AcDbEntity
  8
0
  6
Continuous
 62
     7
100
AcDbLine
 10
385.0630000000001
 20
108.4
 30
0.0
 11
364.5630000000001
 21
108.4
 31
0.0
  0
LINE
  5
1F6
330
1F
100
AcDbEntity
  8
0
  6
Continuous
 62
     7
100
AcDbLine
 10
364.5630000000001
 20
108.4
 30
0.0
 11
364.5630000000001
 21
133.4
 31
0.0
  0
LINE
  5
1F7
330
1F
100
AcDbEntity
  8
0
  6
Continuous
 62
     7
100
AcDbLine
 10
364.5630000000001
 20
133.4
 30
0.0
 11
360.213
 21
133.4
 31
0.0
  0
LINE
  5
1F8
330
1F
100
AcDbEntity
  8
0
  6
Continuous
 62
     7
100
AcDbLine
 10
372.213
 20
133.4
 30
0.0
 11
371.913
 21
108.4
 31
0.0
  0
LINE
  5
1F9
330
1F
100
AcDbEntity
  8
0
  6
Continuous
 62
     7
100
AcDbLine
 10
372.213
 20
133.4
 30
0.0
 11
385.0630000000001
 21
133.4
 31
0.0
  0
LINE
  5
1FA
330
1F
100
AcDbEntity
  8
0
  6
Continuous
 62
     7
100
AcDbLine
 10
375.0630000000001
 20
140.4
 30
0.0
 11
375.0630000000001
 21
133.4
 31
0.0
  0
LINE
  5
1FB
330
1F
100
AcDbEntity
  8
0
  6
Continuous
 62
     7
100
AcDbLine
 10
362.0630000000001
 20
140.4
 30
0.0
 11
362.0630000000001
 21
138.6
 31
0.0
  0
LINE
  5
1FC
330
1F
100
AcDbEntity
  8
0
  6
Continuous
 62
     7
100
AcDbLine
 10
362.0630000000001
 20
138.6
 30
0.0
 11
365.263
 21
138.6
 31
0.0
  0
LINE
  5
1FD
330
1F
100
AcDbEntity
  8
0
  6
Continuous
 62
     7
100
AcDbLine
 10
365.263
 20
138.6
 30
0.0
 11
365.263
 21
140.4
 31
0.0
  0
ARC
  5
1FE
330
1F
100
AcDbEntity
  8
0
  6
Continuous
 62
     7
100
AcDbCircle
 10
406.843
 20
139.4
 30
0.0
 40
1.31
100
AcDbArc
 50
130.238798125
 51
217.639195788
  0
ARC
  5
1FF
330
1F
100
AcDbEntity
  8
0
  6
Continuous
 62
     7
100
AcDbCircle
 10
406.843
 20
139.4
 30
0.0
 40
1.31
100
AcDbArc
 50
322.360804214
 51
49.76120187300001
  0
ARC
  5
200
330
1F
100
AcDbEntity
  8
0
  6
Continuous
 62
     7
100
AcDbCircle
 10
363.283
 20
139.4
 30
0.0
 40
1.31
100
AcDbArc
 50
130.238798127
 51
217.639195787
  0
ARC
  5
201
330
1F
100
AcDbEntity
  8
0
  6
Continuous
 62
     7
100
AcDbCircle
 10
363.283
 20
139.4
 30
0.0
 40
1.31
100
AcDbArc
 50
322.360804213
 51
49.76120187300001
  0
LINE
  5
202
330
1F
100
AcDbEntity
  8
0
  6
Continuous
 62
     7
100
AcDbLine
 10
358.563
 20
116.4
 30
0.0
 11
364.5630000000001
 21
116.4
 31
0.0
  0
LINE
  5
203
330
1F
100
AcDbEntity
  8
0
  6
Continuous
 62
     7
100
AcDbLine
 10
411.563
 20
116.4
 30
0.0
 11
405.563
 21
116.4
 31
0.0
  0
LINE
  5
204
330
1F
100
AcDbEntity
  8
0
  6
Continuous
 62
     7
100
AcDbLine
 10
364.745657241
 20
156.4
 30
0.0
 11
354.0630000000001
 21
156.4
 31
0.0
  0
LINE
  5
205
330
1F
100
AcDbEntity
  8
0
  6
Continuous
 62
     7
100
AcDbLine
 10
360.0630000000001
 20
155.6
 30
0.0
 11
363.885386223
 21
155.6
 31
0.0
  0
LINE
  5
206
330
1F
100
AcDbEntity
  8
0
  6
Continuous
 62
     7
100
AcDbLine
 10
405.380342759
 20
156.4
 30
0.0
 11
416.063
 21
156.4
 31
0.0
  0
LINE
  5
207
330
1F
100
AcDbEntity
  8
0
  6
Continuous
 62
     7
100
AcDbLine
 10
410.063
 20
155.6
 30
0.0
 11
406.240613777
 21
155.6
 31
0.0
  0
LINE
  5
208
330
1F
100
AcDbEntity
  8
0
  6
Continuous
 62
     7
100
AcDbLine
 10
359.063
 20
136.4
 30
0.0
 11
360.0630000000001
 21
136.4
 31
0.0
  0
LINE
  5
209
330
1F
100
AcDbEntity
  8
0
  6
Continuous
 62
     7
100
AcDbLine
 10
411.063
 20
136.4
 30
0.0
 11
409.913
 21
136.4
 31
0.0
  0
LINE
  5
20A
330
1F
100
AcDbEntity
  8
0
  6
Continuous
 62
     7
100
AcDbLine
 10
404.963
 20
141.9
 30
0.0
 11
404.963
 21
144.4
 31
0.0
  0
LINE
  5
20B
330
1F
100
AcDbEntity
  8
0
  6
Continuous
 62
     7
100
AcDbLine
 10
404.963
 20
144.4
 30
0.0
 11
365.163
 21
144.4
 31
0.0
  0
LINE
  5
20C
330
1F
100
AcDbEntity
  8
0
  6
Continuous
 62
     7
100
AcDbLine
 10
365.163
 20
144.4
 30
0.0
 11
365.163
 21
141.9
 31
0.0
  0
LINE
  5
20D
330
1F
100
AcDbEntity
  8
0
  6
Continuous
 62
     7
100
AcDbLine
 10
365.163
 20
141.9
 30
0.0
 11
404.963
 21
141.9
 31
0.0
  0
LINE
  5
20E
330
1F
100
AcDbEntity
  8
0
  6
Continuous
 62
     7
100
AcDbLine
 10
389.0630000000001
 20
141.9
 30
0.0
 11
389.0630000000001
 21
144.4
 31
0.0
  0
LINE
  5
20F
330
1F
100
AcDbEntity
  8
0
  6
Continuous
 62
     7
100
AcDbLine
 10
381.0630000000001
 20
141.9
 30
0.0
 11
381.0630000000001
 21
144.4
 31
0.0
  0
LINE
  5
210
330
1F
100
AcDbEntity
  8
0
  6
Continuous
 62
     7
100
AcDbLine
 10
386.363
 20
141.9
 30
0.0
 11
386.363
 21
144.4
 31
0.0
  0
LINE
  5
211
330
1F
100
AcDbEntity
  8
0
  6
Continuous
 62
     7
100
AcDbLine
 10
383.763
 20
144.4
 30
0.0
 11
383.763
 21
141.9
 31
0.0
  0
LINE
  5
212
330
1F
100
AcDbEntity
  8
0
  6
Continuous
 62
     7
100
AcDbLine
 10
369.063
 20
141.9
 30
0.0
 11
369.063
 21
144.4
 31
0.0
  0
LINE
  5
213
330
1F
100
AcDbEntity
  8
0
  6
Continuous
 62
     7
100
AcDbLine
 10
401.063
 20
141.9
 30
0.0
 11
401.063
 21
144.4
 31
0.0
  0
LINE
  5
214
330
1F
100
AcDbEntity
  8
0
  6
Continuous
 62
     7
100
AcDbLine
 10
404.963
 20
326.4
 30
0.0
 11
404.963
 21
328.9
 31
0.0
  0
LINE
  5
215
330
1F
100
AcDbEntity
  8
0
  6
Continuous
 62
     7
100
AcDbLine
 10
404.963
 20
328.9
 30
0.0
 11
365.163
 21
328.9
 31
0.0
  0
LINE
  5
216
330
1F
100
AcDbEntity
  8
0
  6
Continuous
 62
     7
100
AcDbLine
 10
365.163
 20
328.9
 30
0.0
 11
365.163
 21
326.4
 31
0.0
  0
LINE
  5
217
330
1F
100
AcDbEntity
  8
0
  6
Continuous
 62
     7
100
AcDbLine
 10
365.163
 20
326.4
 30
0.0
 11
404.963
 21
326.4
 31
0.0
  0
LINE
  5
218
330
1F
100
AcDbEntity
  8
0
  6
Continuous
 62
     7
100
AcDbLine
 10
389.0630000000001
 20
326.4
 30
0.0
 11
389.0630000000001
 21
328.9
 31
0.0
  0
LINE
  5
219
330
1F
100
AcDbEntity
  8
0
  6
Continuous
 62
     7
100
AcDbLine
 10
381.0630000000001
 20
326.4
 30
0.0
 11
381.0630000000001
 21
328.9
 31
0.0
  0
LINE
  5
21A
330
1F
100
AcDbEntity
  8
0
  6
Continuous
 62
     7
100
AcDbLine
 10
386.363
 20
326.4
 30
0.0
 11
386.363
 21
328.9
 31
0.0
  0
LINE
  5
21B
330
1F
100
AcDbEntity
  8
0
  6
Continuous
 62
     7
100
AcDbLine
 10
383.763
 20
328.9
 30
0.0
 11
383.763
 21
326.4
 31
0.0
  0
LINE
  5
21C
330
1F
100
AcDbEntity
  8
0
  6
Continuous
 62
     7
100
AcDbLine
 10
369.063
 20
326.4
 30
0.0
 11
369.063
 21
328.9
 31
0.0
  0
LINE
  5
21D
330
1F
100
AcDbEntity
  8
0
  6
Continuous
 62
     7
100
AcDbLine
 10
401.063
 20
326.4
 30
0.0
 11
401.063
 21
328.9
 31
0.0
  0
LINE
  5
21E
330
1F
100
AcDbEntity
  8
0
  6
Continuous
 62
     7
100
AcDbLine
 10
386.313
 20
328.9
 30
0.0
 11
386.313
 21
330.35
 31
0.0
  0
LINE
  5
21F
330
1F
100
AcDbEntity
  8
0
  6
Continuous
 62
     7
100
AcDbLine
 10
387.3130000000001
 20
328.9
 30
0.0
 11
387.3130000000001
 21
330.35
 31
0.0
  0
ARC
  5
220
330
1F
100
AcDbEntity
  8
0
  6
Continuous
 62
     7
100
AcDbCircle
 10
386.8130000000001
 20
329.6
 30
0.0
 40
0.9
100
AcDbArc
 50
56.6
 51
123.4
  0
LINE
  5
221
330
1F
100
AcDbEntity
  8
0
  6
Continuous
 62
     7
100
AcDbLine
 10
382.8130000000001
 20
328.9
 30
0.0
 11
382.8130000000001
 21
330.35
 31
0.0
  0
LINE
  5
222
330
1F
100
AcDbEntity
  8
0
  6
Continuous
 62
     7
100
AcDbLine
 10
383.8130000000001
 20
328.9
 30
0.0
 11
383.8130000000001
 21
330.35
 31
0.0
  0
ARC
  5
223
330
1F
100
AcDbEntity
  8
0
  6
Continuous
 62
     7
100
AcDbCircle
 10
383.313
 20
329.6
 30
0.0
 40
0.9
100
AcDbArc
 50
56.6
 51
123.4
  0
LINE
  5
224
330
1F
100
AcDbEntity
  8
0
  6
Continuous
 62
     7
100
AcDbLine
 10
386.313
 20
328.9
 30
0.0
 11
383.8130000000001
 21
328.9
 31
0.0
  0
LINE
  5
225
330
1F
100
AcDbEntity
  8
0
  6
Continuous
 62
     7
100
AcDbLine
 10
386.8130000000001
 20
330.5
 30
0.0
 11
383.313
 21
330.5
 31
0.0
  0
LINE
  5
226
330
1F
100
AcDbEntity
  8
0
  6
Continuous
 62
     7
100
AcDbLine
 10
382.8130000000001
 20
328.9
 30
0.0
 11
387.3130000000001
 21
328.9
 31
0.0
  0
ARC
  5
227
330
1F
100
AcDbEntity
  8
0
  6
Continuous
 62
     7
100
AcDbCircle
 10
385.0630000000001
 20
327.1
 30
0.0
 40
3.399999999999999
100
AcDbArc
 50
72.9
 51
107.1
  0
LINE
  5
228
330
1F
100
AcDbEntity
  8
0
  6
Continuous
 62
     7
100
AcDbLine
 10
364.5630000000001
 20
337.4
 30
0.0
 11
359.063
 21
337.4
 31
0.0
  0
LINE
  5
229
330
1F
100
AcDbEntity
  8
0
  6
Continuous
 62
     7
100
AcDbLine
 10
405.563
 20
337.4
 30
0.0
 11
411.063
 21
337.4
 31
0.0
  0
LINE
  5
22A
330
1F
100
AcDbEntity
  8
0
  6
Continuous
 62
     7
100
AcDbLine
 10
364.5630000000001
 20
133.4
 30
0.0
 11
359.063
 21
133.4
 31
0.0
  0
LINE
  5
22B
330
1F
100
AcDbEntity
  8
0
  6
Continuous
 62
     7
100
AcDbLine
 10
405.563
 20
133.4
 30
0.0
 11
411.063
 21
133.4
 31
0.0
  0
LINE
  5
22C
330
1F
100
AcDbEntity
  8
0
  6
Continuous
 62
     7
100
AcDbLine
 10
386.313
 20
174.4
 30
0.0
 11
397.6130000000001
 21
174.4
 31
0.0
  0
LINE
  5
22D
330
1F
100
AcDbEntity
  8
0
  6
Continuous
 62
     7
100
AcDbLine
 10
397.6130000000001
 20
174.4
 30
0.0
 11
397.6130000000001
 21
169.4
 31
0.0
  0
LINE
  5
22E
330
1F
100
AcDbEntity
  8
0
  6
Continuous
 62
     7
100
AcDbLine
 10
397.6130000000001
 20
169.4
 30
0.0
 11
394.6130000000001
 21
169.4
 31
0.0
  0
LINE
  5
22F
330
1F
100
AcDbEntity
  8
0
  6
Continuous
 62
     7
100
AcDbLine
 10
394.6130000000001
 20
169.4
 30
0.0
 11
394.6130000000001
 21
154.3
 31
0.0
  0
LINE
  5
230
330
1F
100
AcDbEntity
  8
0
  6
Continuous
 62
     7
100
AcDbLine
 10
394.6130000000001
 20
154.3
 30
0.0
 11
389.0630000000001
 21
144.4
 31
0.0
  0
LINE
  5
231
330
1F
100
AcDbEntity
  8
0
  6
Continuous
 62
     7
100
AcDbLine
 10
383.8130000000001
 20
174.4
 30
0.0
 11
372.513
 21
174.4
 31
0.0
  0
LINE
  5
232
330
1F
100
AcDbEntity
  8
0
  6
Continuous
 62
     7
100
AcDbLine
 10
372.513
 20
174.4
 30
0.0
 11
372.513
 21
169.4
 31
0.0
  0
LINE
  5
233
330
1F
100
AcDbEntity
  8
0
  6
Continuous
 62
     7
100
AcDbLine
 10
372.513
 20
169.4
 30
0.0
 11
375.513
 21
169.4
 31
0.0
  0
LINE
  5
234
330
1F
100
AcDbEntity
  8
0
  6
Continuous
 62
     7
100
AcDbLine
 10
375.513
 20
169.4
 30
0.0
 11
375.513
 21
154.3
 31
0.0
  0
LINE
  5
235
330
1F
100
AcDbEntity
  8
0
  6
Continuous
 62
     7
100
AcDbLine
 10
375.513
 20
154.3
 30
0.0
 11
381.0630000000001
 21
144.4
 31
0.0
  0
LINE
  5
236
330
1F
100
AcDbEntity
  8
0
  6
Continuous
 62
     7
100
AcDbLine
 10
410.063
 20
140.4
 30
0.0
 11
410.063
 21
155.4
 31
0.0
  0
LINE
  5
237
330
1F
100
AcDbEntity
  8
0
  6
Continuous
 62
     7
100
AcDbLine
 10
410.063
 20
330.4
 30
0.0
 11
410.063
 21
315.4
 31
0.0
  0
LINE
  5
238
330
1F
100
AcDbEntity
  8
0
  6
Continuous
 62
     7
100
AcDbLine
 10
360.0630000000001
 20
140.4
 30
0.0
 11
360.0630000000001
 21
155.4
 31
0.0
  0
LINE
  5
239
330
1F
100
AcDbEntity
  8
0
  6
Continuous
 62
     7
100
AcDbLine
 10
360.0630000000001
 20
330.4
 30
0.0
 11
360.0630000000001
 21
315.4
 31
0.0
  0
LINE
  5
23A
330
1F
100
AcDbEntity
  8
0
  6
Continuous
 62
     7
100
AcDbLine
 10
411.063
 20
314.4
 30
0.0
 11
411.063
 21
334.4
 31
0.0
  0
LINE
  5
23B
330
1F
100
AcDbEntity
  8
0
  6
Continuous
 62
     7
100
AcDbLine
 10
359.063
 20
314.4
 30
0.0
 11
359.063
 21
334.4
 31
0.0
  0
LINE
  5
23C
330
1F
100
AcDbEntity
  8
0
  6
Continuous
 62
     7
100
AcDbLine
 10
359.063
 20
156.4
 30
0.0
 11
359.063
 21
136.4
 31
0.0
  0
LINE
  5
23D
330
1F
100
AcDbEntity
  8
0
  6
Continuous
 62
     7
100
AcDbLine
 10
411.063
 20
156.4
 30
0.0
 11
411.063
 21
136.4
 31
0.0
  0
MTEXT
  5
23E
330
1F
100
AcDbEntity
  8
0
  6
Continuous
 62
     7
100
AcDbMText
 10
323.363
 20
410.0999999999999
 30
0.0
 40
10.0
 41
208.0
 71
     7
 72
     1
  1
\W0.800;ＡＶＰ１０１ＥＪＨＯＡＡＡ
  7
KANJI0
 73
     1
 44
1.0
1001
ACAD
1000
MTEXTBEGIN
1070
    73
1070
     1
1070
    44
1040
1.0
1070
    74
1070
     0
1000
MTEXTEND
  0
LINE
  5
23F
330
1F
100
AcDbEntity
  8
0
  6
Continuous
 62
     7
100
AcDbLine
 10
175.133
 20
139.9
 30
0.0
 11
161.133
 21
139.9
 31
0.0
  0
LINE
  5
240
330
1F
100
AcDbEntity
  8
0
  6
Continuous
 62
     7
100
AcDbLine
 10
147.133
 20
139.9
 30
0.0
 11
161.133
 21
139.9
 31
0.0
  0
LINE
  5
241
330
1F
100
AcDbEntity
  8
0
  6
Continuous
 62
     7
100
AcDbLine
 10
147.133
 20
301.9
 30
0.0
 11
161.133
 21
301.9
 31
0.0
  0
LINE
  5
242
330
1F
100
AcDbEntity
  8
0
  6
Continuous
 62
     7
100
AcDbLine
 10
143.1329999999999
 20
295.8999999999999
 30
0.0
 11
142.133
 21
296.9
 31
0.0
  0
LINE
  5
243
330
1F
100
AcDbEntity
  8
0
  6
Continuous
 62
     7
100
AcDbLine
 10
175.133
 20
301.9
 30
0.0
 11
161.133
 21
301.9
 31
0.0
  0
LINE
  5
244
330
1F
100
AcDbEntity
  8
0
  6
Continuous
 62
     7
100
AcDbLine
 10
179.133
 20
295.8999999999999
 30
0.0
 11
180.133
 21
296.9
 31
0.0
  0
LINE
  5
245
330
1F
100
AcDbEntity
  8
0
  6
Continuous
 62
     7
100
AcDbLine
 10
179.133
 20
145.9
 30
0.0
 11
178.133
 21
145.9
 31
0.0
  0
ARC
  5
246
330
1F
100
AcDbEntity
  8
0
  6
Continuous
 62
     7
100
AcDbCircle
 10
178.133
 20
147.9
 30
0.0
 40
2.0
100
AcDbArc
 50
180.0
 51
270.0
  0
LINE
  5
247
330
1F
100
AcDbEntity
  8
0
  6
Continuous
 62
     7
100
AcDbLine
 10
179.133
 20
295.8999999999999
 30
0.0
 11
178.133
 21
295.8999999999999
 31
0.0
  0
LINE
  5
248
330
1F
100
AcDbEntity
  8
0
  6
Continuous
 62
     7
100
AcDbLine
 10
176.133
 20
147.9
 30
0.0
 11
176.133
 21
293.9
 31
0.0
  0
ARC
  5
249
330
1F
100
AcDbEntity
  8
0
  6
Continuous
 62
     7
100
AcDbCircle
 10
178.133
 20
293.9
 30
0.0
 40
2.0
100
AcDbArc
 50
90.0
 51
180.0
  0
ARC
  5
24A
330
1F
100
AcDbEntity
  8
0
  6
Continuous
 62
     7
100
AcDbCircle
 10
144.1329999999999
 20
147.9
 30
0.0
 40
2.0
100
AcDbArc
 50
270.0
 51
0.0
  0
LINE
  5
24B
330
1F
100
AcDbEntity
  8
0
  6
Continuous
 62
     7
100
AcDbLine
 10
146.133
 20
147.9
 30
0.0
 11
146.133
 21
293.9
 31
0.0
  0
ARC
  5
24C
330
1F
100
AcDbEntity
  8
0
  6
Continuous
 62
     7
100
AcDbCircle
 10
144.1329999999999
 20
293.9
 30
0.0
 40
2.0
100
AcDbArc
 50
0.0
 51
90.0
  0
LINE
  5
24D
330
1F
100
AcDbEntity
  8
0
  6
Continuous
 62
     7
100
AcDbLine
 10
143.1329999999999
 20
145.9
 30
0.0
 11
144.133002697
 21
145.9
 31
0.0
  0
LINE
  5
24E
330
1F
100
AcDbEntity
  8
0
  6
Continuous
 62
     7
100
AcDbLine
 10
143.1329999999999
 20
295.8999999999999
 30
0.0
 11
144.1329999999999
 21
295.8999999999999
 31
0.0
  0
LINE
  5
24F
330
1F
100
AcDbEntity
  8
0
  6
Continuous
 62
     7
100
AcDbLine
 10
171.633
 20
301.9
 30
0.0
 11
168.633
 21
139.9
 31
0.0
  0
LINE
  5
250
330
1F
100
AcDbEntity
  8
0
  6
Continuous
 62
     7
100
AcDbLine
 10
150.633
 20
301.9
 30
0.0
 11
153.6329999999999
 21
139.9
 31
0.0
  0
LINE
  5
251
330
1F
100
AcDbEntity
  8
0
  6
Continuous
 62
     7
100
AcDbLine
 10
160.133
 20
131.9
 30
0.0
 11
162.133
 21
131.9
 31
0.0
  0
LINE
  5
252
330
1F
100
AcDbEntity
  8
0
  6
Continuous
 62
     7
100
AcDbLine
 10
162.133
 20
159.9
 30
0.0
 11
168.833
 21
159.9
 31
0.0
  0
LINE
  5
253
330
1F
100
AcDbEntity
  8
0
  6
Continuous
 62
     7
100
AcDbLine
 10
168.833
 20
159.9
 30
0.0
 11
168.833
 21
154.9
 31
0.0
  0
LINE
  5
254
330
1F
100
AcDbEntity
  8
0
  6
Continuous
 62
     7
100
AcDbLine
 10
168.833
 20
154.9
 30
0.0
 11
167.333
 21
154.9
 31
0.0
  0
LINE
  5
255
330
1F
100
AcDbEntity
  8
0
  6
Continuous
 62
     7
100
AcDbLine
 10
167.333
 20
154.9
 30
0.0
 11
167.333
 21
144.9
 31
0.0
  0
LINE
  5
256
330
1F
100
AcDbEntity
  8
0
  6
Continuous
 62
     7
100
AcDbLine
 10
160.133
 20
159.9
 30
0.0
 11
153.433
 21
159.9
 31
0.0
  0
LINE
  5
257
330
1F
100
AcDbEntity
  8
0
  6
Continuous
 62
     7
100
AcDbLine
 10
153.433
 20
159.9
 30
0.0
 11
153.433
 21
154.9
 31
0.0
  0
LINE
  5
258
330
1F
100
AcDbEntity
  8
0
  6
Continuous
 62
     7
100
AcDbLine
 10
153.433
 20
154.9
 30
0.0
 11
154.933
 21
154.9
 31
0.0
  0
LINE
  5
259
330
1F
100
AcDbEntity
  8
0
  6
Continuous
 62
     7
100
AcDbLine
 10
154.933
 20
154.9
 30
0.0
 11
154.933
 21
144.9
 31
0.0
  0
LINE
  5
25A
330
1F
100
AcDbEntity
  8
0
  6
Continuous
 62
     7
100
AcDbLine
 10
175.033
 20
137.9
 30
0.0
 11
175.033
 21
139.9
 31
0.0
  0
LINE
  5
25B
330
1F
100
AcDbEntity
  8
0
  6
Continuous
 62
     7
100
AcDbLine
 10
175.033
 20
139.9
 30
0.0
 11
147.233
 21
139.9
 31
0.0
  0
LINE
  5
25C
330
1F
100
AcDbEntity
  8
0
  6
Continuous
 62
     7
100
AcDbLine
 10
147.233
 20
139.9
 30
0.0
 11
147.233
 21
137.9
 31
0.0
  0
LINE
  5
25D
330
1F
100
AcDbEntity
  8
0
  6
Continuous
 62
     7
100
AcDbLine
 10
147.233
 20
137.9
 30
0.0
 11
175.033
 21
137.9
 31
0.0
  0
LINE
  5
25E
330
1F
100
AcDbEntity
  8
0
  6
Continuous
 62
     7
100
AcDbLine
 10
149.533
 20
137.9
 30
0.0
 11
149.533
 21
139.9
 31
0.0
  0
LINE
  5
25F
330
1F
100
AcDbEntity
  8
0
  6
Continuous
 62
     7
100
AcDbLine
 10
172.733
 20
137.9
 30
0.0
 11
172.733
 21
139.9
 31
0.0
  0
LINE
  5
260
330
1F
100
AcDbEntity
  8
0
  6
Continuous
 62
     7
100
AcDbLine
 10
162.733
 20
137.9
 30
0.0
 11
162.733
 21
139.9
 31
0.0
  0
LINE
  5
261
330
1F
100
AcDbEntity
  8
0
  6
Continuous
 62
     7
100
AcDbLine
 10
159.533
 20
137.9
 30
0.0
 11
159.533
 21
139.9
 31
0.0
  0
LINE
  5
262
330
1F
100
AcDbEntity
  8
0
  6
Continuous
 62
     7
100
AcDbLine
 10
164.883
 20
137.9
 30
0.0
 11
164.883
 21
139.9
 31
0.0
  0
LINE
  5
263
330
1F
100
AcDbEntity
  8
0
  6
Continuous
 62
     7
100
AcDbLine
 10
157.383
 20
137.9
 30
0.0
 11
157.383
 21
139.9
 31
0.0
  0
LINE
  5
264
330
1F
100
AcDbEntity
  8
0
  6
Continuous
 62
     7
100
AcDbLine
 10
160.133
 20
137.9
 30
0.0
 11
162.133
 21
137.9
 31
0.0
  0
LINE
  5
265
330
1F
100
AcDbEntity
  8
0
  6
Continuous
 62
     7
100
AcDbLine
 10
163.133
 20
137.9
 30
0.0
 11
163.133
 21
136.45
 31
0.0
  0
LINE
  5
266
330
1F
100
AcDbEntity
  8
0
  6
Continuous
 62
     7
100
AcDbLine
 10
162.133
 20
137.9
 30
0.0
 11
162.133
 21
136.45
 31
0.0
  0
LINE
  5
267
330
1F
100
AcDbEntity
  8
0
  6
Continuous
 62
     7
100
AcDbLine
 10
160.133
 20
137.9
 30
0.0
 11
160.133
 21
136.45
 31
0.0
  0
LINE
  5
268
330
1F
100
AcDbEntity
  8
0
  6
Continuous
 62
     7
100
AcDbLine
 10
159.133
 20
137.9
 30
0.0
 11
159.133
 21
136.45
 31
0.0
  0
LINE
  5
269
330
1F
100
AcDbEntity
  8
0
  6
Continuous
 62
     7
100
AcDbLine
 10
159.633
 20
136.3
 30
0.0
 11
162.633
 21
136.3
 31
0.0
  0
LINE
  5
26A
330
1F
100
AcDbEntity
  8
0
  6
Continuous
 62
     7
100
AcDbLine
 10
163.133
 20
137.9
 30
0.0
 11
159.133
 21
137.9
 31
0.0
  0
ARC
  5
26B
330
1F
100
AcDbEntity
  8
0
  6
Continuous
 62
     7
100
AcDbCircle
 10
162.633
 20
137.2
 30
0.0
 40
0.9
100
AcDbArc
 50
236.6
 51
303.4
  0
ARC
  5
26C
330
1F
100
AcDbEntity
  8
0
  6
Continuous
 62
     7
100
AcDbCircle
 10
161.133
 20
139.7
 30
0.0
 40
3.399999999999999
100
AcDbArc
 50
252.9
 51
287.1
  0
ARC
  5
26D
330
1F
100
AcDbEntity
  8
0
  6
Continuous
 62
     7
100
AcDbCircle
 10
159.633
 20
137.2
 30
0.0
 40
0.9
100
AcDbArc
 50
236.6
 51
303.4
  0
LINE
  5
26E
330
1F
100
AcDbEntity
  8
0
  6
Continuous
 62
     7
100
AcDbLine
 10
167.333
 20
144.9
 30
0.0
 11
164.883
 21
139.9
 31
0.0
  0
LINE
  5
26F
330
1F
100
AcDbEntity
  8
0
  6
Continuous
 62
     7
100
AcDbLine
 10
154.933
 20
144.9
 30
0.0
 11
157.383
 21
139.9
 31
0.0
  0
LINE
  5
270
330
1F
100
AcDbEntity
  8
0
  6
Continuous
 62
     7
100
AcDbLine
 10
175.033
 20
301.9
 30
0.0
 11
175.033
 21
303.9
 31
0.0
  0
LINE
  5
271
330
1F
100
AcDbEntity
  8
0
  6
Continuous
 62
     7
100
AcDbLine
 10
175.033
 20
303.9
 30
0.0
 11
147.233
 21
303.9
 31
0.0
  0
LINE
  5
272
330
1F
100
AcDbEntity
  8
0
  6
Continuous
 62
     7
100
AcDbLine
 10
147.233
 20
303.9
 30
0.0
 11
147.233
 21
301.9
 31
0.0
  0
LINE
  5
273
330
1F
100
AcDbEntity
  8
0
  6
Continuous
 62
     7
100
AcDbLine
 10
147.233
 20
301.9
 30
0.0
 11
175.033
 21
301.9
 31
0.0
  0
LINE
  5
274
330
1F
100
AcDbEntity
  8
0
  6
Continuous
 62
     7
100
AcDbLine
 10
149.533
 20
301.9
 30
0.0
 11
149.533
 21
303.9
 31
0.0
  0
LINE
  5
275
330
1F
100
AcDbEntity
  8
0
  6
Continuous
 62
     7
100
AcDbLine
 10
172.733
 20
301.9
 30
0.0
 11
172.733
 21
303.9
 31
0.0
  0
LINE
  5
276
330
1F
100
AcDbEntity
  8
0
  6
Continuous
 62
     7
100
AcDbLine
 10
162.733
 20
301.9
 30
0.0
 11
162.733
 21
303.9
 31
0.0
  0
LINE
  5
277
330
1F
100
AcDbEntity
  8
0
  6
Continuous
 62
     7
100
AcDbLine
 10
159.533
 20
301.9
 30
0.0
 11
159.533
 21
303.9
 31
0.0
  0
LINE
  5
278
330
1F
100
AcDbEntity
  8
0
  6
Continuous
 62
     7
100
AcDbLine
 10
164.883
 20
301.9
 30
0.0
 11
164.883
 21
303.9
 31
0.0
  0
LINE
  5
279
330
1F
100
AcDbEntity
  8
0
  6
Continuous
 62
     7
100
AcDbLine
 10
157.383
 20
301.9
 30
0.0
 11
157.383
 21
303.9
 31
0.0
  0
LINE
  5
27A
330
1F
100
AcDbEntity
  8
0
  6
Continuous
 62
     7
100
AcDbLine
 10
162.133
 20
303.9
 30
0.0
 11
160.133
 21
303.9
 31
0.0
  0
LINE
  5
27B
330
1F
100
AcDbEntity
  8
0
  6
Continuous
 62
     7
100
AcDbLine
 10
159.133
 20
303.9
 30
0.0
 11
159.133
 21
305.35
 31
0.0
  0
LINE
  5
27C
330
1F
100
AcDbEntity
  8
0
  6
Continuous
 62
     7
100
AcDbLine
 10
160.133
 20
303.9
 30
0.0
 11
160.133
 21
305.35
 31
0.0
  0
LINE
  5
27D
330
1F
100
AcDbEntity
  8
0
  6
Continuous
 62
     7
100
AcDbLine
 10
162.133
 20
303.9
 30
0.0
 11
162.133
 21
305.35
 31
0.0
  0
LINE
  5
27E
330
1F
100
AcDbEntity
  8
0
  6
Continuous
 62
     7
100
AcDbLine
 10
163.133
 20
303.9
 30
0.0
 11
163.133
 21
305.35
 31
0.0
  0
LINE
  5
27F
330
1F
100
AcDbEntity
  8
0
  6
Continuous
 62
     7
100
AcDbLine
 10
162.633
 20
305.5
 30
0.0
 11
159.633
 21
305.5
 31
0.0
  0
LINE
  5
280
330
1F
100
AcDbEntity
  8
0
  6
Continuous
 62
     7
100
AcDbLine
 10
159.133
 20
303.9
 30
0.0
 11
163.133
 21
303.9
 31
0.0
  0
ARC
  5
281
330
1F
100
AcDbEntity
  8
0
  6
Continuous
 62
     7
100
AcDbCircle
 10
159.633
 20
304.6
 30
0.0
 40
0.9
100
AcDbArc
 50
56.6
 51
123.4
  0
ARC
  5
282
330
1F
100
AcDbEntity
  8
0
  6
Continuous
 62
     7
100
AcDbCircle
 10
161.133
 20
302.1
 30
0.0
 40
3.399999999999999
100
AcDbArc
 50
72.9
 51
107.1
  0
ARC
  5
283
330
1F
100
AcDbEntity
  8
0
  6
Continuous
 62
     7
100
AcDbCircle
 10
162.633
 20
304.6
 30
0.0
 40
0.9
100
AcDbArc
 50
56.6
 51
123.4
  0
LINE
  5
284
330
1F
100
AcDbEntity
  8
0
  6
Continuous
 62
     7
100
AcDbLine
 10
162.133
 20
309.9
 30
0.0
 11
160.133
 21
309.9
 31
0.0
  0
LINE
  5
285
330
1F
100
AcDbEntity
  8
0
  6
Continuous
 62
     7
100
AcDbLine
 10
162.133
 20
131.9
 30
0.0
 11
162.133
 21
309.9
 31
0.0
  0
LINE
  5
286
330
1F
100
AcDbEntity
  8
0
  6
Continuous
 62
     7
100
AcDbLine
 10
160.133
 20
309.9
 30
0.0
 11
160.133
 21
131.9
 31
0.0
  0
LINE
  5
287
330
1F
100
AcDbEntity
  8
0
  6
Continuous
 62
     7
100
AcDbLine
 10
161.133
 20
305.4
 30
0.0
 11
147.133
 21
305.4
 31
0.0
  0
LINE
  5
288
330
1F
100
AcDbEntity
  8
0
  6
Continuous
 62
     7
100
AcDbLine
 10
147.133
 20
305.4
 30
0.0
 11
147.133
 21
301.9
 31
0.0
  0
LINE
  5
289
330
1F
100
AcDbEntity
  8
0
  6
Continuous
 62
     7
100
AcDbLine
 10
161.133
 20
305.4
 30
0.0
 11
143.1329999999999
 21
305.4
 31
0.0
  0
LINE
  5
28A
330
1F
100
AcDbEntity
  8
0
  6
Continuous
 62
     7
100
AcDbLine
 10
143.1329999999999
 20
305.4
 30
0.0
 11
142.133
 21
304.4
 31
0.0
  0
LINE
  5
28B
330
1F
100
AcDbEntity
  8
0
  6
Continuous
 62
     7
100
AcDbLine
 10
142.133
 20
304.4
 30
0.0
 11
142.133
 21
296.9
 31
0.0
  0
LINE
  5
28C
330
1F
100
AcDbEntity
  8
0
  6
Continuous
 62
     7
100
AcDbLine
 10
161.133
 20
305.4
 30
0.0
 11
175.133
 21
305.4
 31
0.0
  0
LINE
  5
28D
330
1F
100
AcDbEntity
  8
0
  6
Continuous
 62
     7
100
AcDbLine
 10
175.133
 20
305.4
 30
0.0
 11
175.133
 21
301.9
 31
0.0
  0
LINE
  5
28E
330
1F
100
AcDbEntity
  8
0
  6
Continuous
 62
     7
100
AcDbLine
 10
161.133
 20
305.4
 30
0.0
 11
179.133
 21
305.4
 31
0.0
  0
LINE
  5
28F
330
1F
100
AcDbEntity
  8
0
  6
Continuous
 62
     7
100
AcDbLine
 10
179.133
 20
305.4
 30
0.0
 11
180.133
 21
304.4
 31
0.0
  0
LINE
  5
290
330
1F
100
AcDbEntity
  8
0
  6
Continuous
 62
     7
100
AcDbLine
 10
180.133
 20
304.4
 30
0.0
 11
180.133
 21
296.9
 31
0.0
  0
LINE
  5
291
330
1F
100
AcDbEntity
  8
0
  6
Continuous
 62
     7
100
AcDbLine
 10
161.133
 20
136.4
 30
0.0
 11
175.133
 21
136.4
 31
0.0
  0
LINE
  5
292
330
1F
100
AcDbEntity
  8
0
  6
Continuous
 62
     7
100
AcDbLine
 10
175.133
 20
136.4
 30
0.0
 11
175.133
 21
139.9
 31
0.0
  0
LINE
  5
293
330
1F
100
AcDbEntity
  8
0
  6
Continuous
 62
     7
100
AcDbLine
 10
161.133
 20
136.4
 30
0.0
 11
179.133
 21
136.4
 31
0.0
  0
LINE
  5
294
330
1F
100
AcDbEntity
  8
0
  6
Continuous
 62
     7
100
AcDbLine
 10
179.133
 20
136.4
 30
0.0
 11
180.133
 21
137.4
 31
0.0
  0
LINE
  5
295
330
1F
100
AcDbEntity
  8
0
  6
Continuous
 62
     7
100
AcDbLine
 10
180.133
 20
137.4
 30
0.0
 11
180.133
 21
144.9
 31
0.0
  0
LINE
  5
296
330
1F
100
AcDbEntity
  8
0
  6
Continuous
 62
     7
100
AcDbLine
 10
161.133
 20
136.4
 30
0.0
 11
147.133
 21
136.4
 31
0.0
  0
LINE
  5
297
330
1F
100
AcDbEntity
  8
0
  6
Continuous
 62
     7
100
AcDbLine
 10
147.133
 20
136.4
 30
0.0
 11
147.133
 21
139.9
 31
0.0
  0
LINE
  5
298
330
1F
100
AcDbEntity
  8
0
  6
Continuous
 62
     7
100
AcDbLine
 10
161.133
 20
136.4
 30
0.0
 11
143.1329999999999
 21
136.4
 31
0.0
  0
LINE
  5
299
330
1F
100
AcDbEntity
  8
0
  6
Continuous
 62
     7
100
AcDbLine
 10
143.1329999999999
 20
136.4
 30
0.0
 11
142.133
 21
137.4
 31
0.0
  0
LINE
  5
29A
330
1F
100
AcDbEntity
  8
0
  6
Continuous
 62
     7
100
AcDbLine
 10
142.133
 20
137.4
 30
0.0
 11
142.133
 21
144.9
 31
0.0
  0
LINE
  5
29B
330
1F
100
AcDbEntity
  8
0
  6
Continuous
 62
     7
100
AcDbLine
 10
169.1329999999999
 20
136.4
 30
0.0
 11
169.1329999999999
 21
130.4
 31
0.0
  0
LINE
  5
29C
330
1F
100
AcDbEntity
  8
0
  6
Continuous
 62
     7
100
AcDbLine
 10
169.1329999999999
 20
132.4
 30
0.0
 11
169.1329999999999
 21
136.4
 31
0.0
  0
LINE
  5
29D
330
1F
100
AcDbEntity
  8
0
  6
Continuous
 62
     7
100
AcDbLine
 10
178.983
 20
136.4
 30
0.0
 11
178.983
 21
132.4
 31
0.0
  0
LINE
  5
29E
330
1F
100
AcDbEntity
  8
0
  6
Continuous
 62
     7
100
AcDbLine
 10
178.983
 20
132.4
 30
0.0
 11
178.983
 21
130.4
 31
0.0
  0
LINE
  5
29F
330
1F
100
AcDbEntity
  8
0
  6
Continuous
 62
     7
100
AcDbLine
 10
161.133
 20
136.4
 30
0.0
 11
178.983
 21
136.4
 31
0.0
  0
LINE
  5
2A0
330
1F
100
AcDbEntity
  8
0
  6
Continuous
 62
     7
100
AcDbLine
 10
174.983
 20
130.4
 30
0.0
 11
174.983
 21
108.4
 31
0.0
  0
LINE
  5
2A1
330
1F
100
AcDbEntity
  8
0
  6
Continuous
 62
     7
100
AcDbLine
 10
178.983
 20
130.4
 30
0.0
 11
174.983
 21
130.4
 31
0.0
  0
LINE
  5
2A2
330
1F
100
AcDbEntity
  8
0
  6
Continuous
 62
     7
100
AcDbLine
 10
172.283
 20
108.4
 30
0.0
 11
171.983
 21
130.4
 31
0.0
  0
LINE
  5
2A3
330
1F
100
AcDbEntity
  8
0
  6
Continuous
 62
     7
100
AcDbLine
 10
174.983
 20
108.4
 30
0.0
 11
161.133
 21
108.4
 31
0.0
  0
LINE
  5
2A4
330
1F
100
AcDbEntity
  8
0
  6
Continuous
 62
     7
100
AcDbLine
 10
161.133
 20
130.4
 30
0.0
 11
171.983
 21
130.4
 31
0.0
  0
LINE
  5
2A5
330
1F
100
AcDbEntity
  8
0
  6
Continuous
 62
     7
100
AcDbLine
 10
153.133
 20
136.4
 30
0.0
 11
153.133
 21
130.4
 31
0.0
  0
LINE
  5
2A6
330
1F
100
AcDbEntity
  8
0
  6
Continuous
 62
     7
100
AcDbLine
 10
153.133
 20
132.4
 30
0.0
 11
153.133
 21
136.4
 31
0.0
  0
LINE
  5
2A7
330
1F
100
AcDbEntity
  8
0
  6
Continuous
 62
     7
100
AcDbLine
 10
143.283
 20
136.4
 30
0.0
 11
143.283
 21
132.4
 31
0.0
  0
LINE
  5
2A8
330
1F
100
AcDbEntity
  8
0
  6
Continuous
 62
     7
100
AcDbLine
 10
143.283
 20
132.4
 30
0.0
 11
143.283
 21
130.4
 31
0.0
  0
LINE
  5
2A9
330
1F
100
AcDbEntity
  8
0
  6
Continuous
 62
     7
100
AcDbLine
 10
161.133
 20
136.4
 30
0.0
 11
143.283
 21
136.4
 31
0.0
  0
LINE
  5
2AA
330
1F
100
AcDbEntity
  8
0
  6
Continuous
 62
     7
100
AcDbLine
 10
147.283
 20
130.4
 30
0.0
 11
147.283
 21
108.4
 31
0.0
  0
LINE
  5
2AB
330
1F
100
AcDbEntity
  8
0
  6
Continuous
 62
     7
100
AcDbLine
 10
143.283
 20
130.4
 30
0.0
 11
147.283
 21
130.4
 31
0.0
  0
LINE
  5
2AC
330
1F
100
AcDbEntity
  8
0
  6
Continuous
 62
     7
100
AcDbLine
 10
149.983
 20
108.4
 30
0.0
 11
150.283
 21
130.4
 31
0.0
  0
LINE
  5
2AD
330
1F
100
AcDbEntity
  8
0
  6
Continuous
 62
     7
100
AcDbLine
 10
147.283
 20
108.4
 30
0.0
 11
161.133
 21
108.4
 31
0.0
  0
LINE
  5
2AE
330
1F
100
AcDbEntity
  8
0
  6
Continuous
 62
     7
100
AcDbLine
 10
161.133
 20
130.4
 30
0.0
 11
150.283
 21
130.4
 31
0.0
  0
LINE
  5
2AF
330
1F
100
AcDbEntity
  8
0
  6
Continuous
 62
     7
100
AcDbLine
 10
177.283
 20
136.4
 30
0.0
 11
177.283
 21
135.0
 31
0.0
  0
LINE
  5
2B0
330
1F
100
AcDbEntity
  8
0
  6
Continuous
 62
     7
100
AcDbLine
 10
177.283
 20
135.0
 30
0.0
 11
174.883
 21
135.0
 31
0.0
  0
LINE
  5
2B1
330
1F
100
AcDbEntity
  8
0
  6
Continuous
 62
     7
100
AcDbLine
 10
174.883
 20
135.0
 30
0.0
 11
174.883
 21
136.4
 31
0.0
  0
LINE
  5
2B2
330
1F
100
AcDbEntity
  8
0
  6
Continuous
 62
     7
100
AcDbLine
 10
144.983
 20
136.4
 30
0.0
 11
144.983
 21
135.0
 31
0.0
  0
LINE
  5
2B3
330
1F
100
AcDbEntity
  8
0
  6
Continuous
 62
     7
100
AcDbLine
 10
144.983
 20
135.0
 30
0.0
 11
147.3829999999999
 21
135.0
 31
0.0
  0
LINE
  5
2B4
330
1F
100
AcDbEntity
  8
0
  6
Continuous
 62
     7
100
AcDbLine
 10
147.3829999999999
 20
135.0
 30
0.0
 11
147.3829999999999
 21
136.4
 31
0.0
  0
ARC
  5
2B5
330
1F
100
AcDbEntity
  8
0
  6
Continuous
 62
     7
100
AcDbCircle
 10
145.883
 20
135.6
 30
0.0
 40
1.0
100
AcDbArc
 50
323.130102354
 51
53.13010235300001
  0
ARC
  5
2B6
330
1F
100
AcDbEntity
  8
0
  6
Continuous
 62
     7
100
AcDbCircle
 10
145.883
 20
135.6
 30
0.0
 40
1.0
100
AcDbArc
 50
126.869897645
 51
198.434948823
  0
ARC
  5
2B7
330
1F
100
AcDbEntity
  8
0
  6
Continuous
 62
     7
100
AcDbCircle
 10
176.383
 20
135.6
 30
0.0
 40
1.0
100
AcDbArc
 50
326.309932475
 51
53.130102357
  0
ARC
  5
2B8
330
1F
100
AcDbEntity
  8
0
  6
Continuous
 62
     7
100
AcDbCircle
 10
176.383
 20
135.6
 30
0.0
 40
1.0
100
AcDbArc
 50
126.869897645
 51
216.869897646
  0
LINE
  5
2B9
330
1F
100
AcDbEntity
  8
0
  6
Continuous
 62
     7
100
AcDbLine
 10
184.133
 20
127.1
 30
0.0
 11
177.6329999999999
 21
127.1
 31
0.0
  0
LINE
  5
2BA
330
1F
100
AcDbEntity
  8
0
  6
Continuous
 62
     7
100
AcDbLine
 10
185.133
 20
128.1
 30
0.0
 11
185.133
 21
146.1
 31
0.0
  0
LINE
  5
2BB
330
1F
100
AcDbEntity
  8
0
  6
Continuous
 62
     7
100
AcDbLine
 10
184.133
 20
127.1
 30
0.0
 11
185.133
 21
128.1
 31
0.0
  0
LINE
  5
2BC
330
1F
100
AcDbEntity
  8
0
  6
Continuous
 62
     7
100
AcDbLine
 10
144.633
 20
127.1
 30
0.0
 11
138.133
 21
127.1
 31
0.0
  0
LINE
  5
2BD
330
1F
100
AcDbEntity
  8
0
  6
Continuous
 62
     7
100
AcDbLine
 10
137.133
 20
128.1
 30
0.0
 11
137.133
 21
146.1
 31
0.0
  0
LINE
  5
2BE
330
1F
100
AcDbEntity
  8
0
  6
Continuous
 62
     7
100
AcDbLine
 10
138.133
 20
127.1
 30
0.0
 11
137.133
 21
128.1
 31
0.0
  0
LINE
  5
2BF
330
1F
100
AcDbEntity
  8
0
  6
Continuous
 62
     7
100
AcDbLine
 10
179.133
 20
133.4
 30
0.0
 11
179.133
 21
143.294
 31
0.0
  0
LINE
  5
2C0
330
1F
100
AcDbEntity
  8
0
  6
Continuous
 62
     7
100
AcDbLine
 10
143.1329999999999
 20
133.4
 30
0.0
 11
143.1329999999999
 21
146.1
 31
0.0
  0
LINE
  5
2C1
330
1F
100
AcDbEntity
  8
0
  6
Continuous
 62
     7
100
AcDbLine
 10
142.133
 20
130.4
 30
0.0
 11
142.133
 21
133.4
 31
0.0
  0
LINE
  5
2C2
330
1F
100
AcDbEntity
  8
0
  6
Continuous
 62
     7
100
AcDbLine
 10
180.133
 20
130.4
 30
0.0
 11
180.133
 21
133.4
 31
0.0
  0
LINE
  5
2C3
330
1F
100
AcDbEntity
  8
0
  6
Continuous
 62
     7
100
AcDbLine
 10
179.133
 20
143.294
 30
0.0
 11
179.133
 21
146.1
 31
0.0
  0
LINE
  5
2C4
330
1F
100
AcDbEntity
  8
0
  6
Continuous
 62
     7
100
AcDbLine
 10
177.6329999999999
 20
127.1
 30
0.0
 11
177.6329999999999
 21
114.1
 31
0.0
  0
LINE
  5
2C5
330
1F
100
AcDbEntity
  8
0
  6
Continuous
 62
     7
100
AcDbLine
 10
177.6329999999999
 20
114.1
 30
0.0
 11
176.633
 21
113.1
 31
0.0
  0
LINE
  5
2C6
330
1F
100
AcDbEntity
  8
0
  6
Continuous
 62
     7
100
AcDbLine
 10
144.633
 20
114.1
 30
0.0
 11
144.633
 21
127.1
 31
0.0
  0
LINE
  5
2C7
330
1F
100
AcDbEntity
  8
0
  6
Continuous
 62
     7
100
AcDbLine
 10
144.633
 20
114.1
 30
0.0
 11
145.633
 21
113.1
 31
0.0
  0
LINE
  5
2C8
330
1F
100
AcDbEntity
  8
0
  6
Continuous
 62
     7
100
AcDbLine
 10
175.133
 20
130.2939999999999
 30
0.0
 11
175.133
 21
113.1
 31
0.0
  0
LINE
  5
2C9
330
1F
100
AcDbEntity
  8
0
  6
Continuous
 62
     7
100
AcDbLine
 10
147.133
 20
130.2939999999999
 30
0.0
 11
147.133
 21
113.1
 31
0.0
  0
LINE
  5
2CA
330
1F
100
AcDbEntity
  8
0
  6
Continuous
 62
     7
100
AcDbLine
 10
147.283
 20
113.1
 30
0.0
 11
145.633
 21
113.1
 31
0.0
  0
LINE
  5
2CB
330
1F
100
AcDbEntity
  8
0
  6
Continuous
 62
     7
100
AcDbLine
 10
176.633
 20
113.1
 30
0.0
 11
174.983
 21
113.1
 31
0.0
  0
LINE
  5
2CC
330
1F
100
AcDbEntity
  8
0
  6
Continuous
 62
     7
100
AcDbLine
 10
174.983
 20
130.4
 30
0.0
 11
180.133
 21
130.4
 31
0.0
  0
LINE
  5
2CD
330
1F
100
AcDbEntity
  8
0
  6
Continuous
 62
     7
100
AcDbLine
 10
142.133
 20
130.4
 30
0.0
 11
147.283
 21
130.4
 31
0.0
  0
LINE
  5
2CE
330
1F
100
AcDbEntity
  8
0
  6
Continuous
 62
     7
100
AcDbLine
 10
143.283
 20
133.4
 30
0.0
 11
142.133
 21
133.4
 31
0.0
  0
LINE
  5
2CF
330
1F
100
AcDbEntity
  8
0
  6
Continuous
 62
     7
100
AcDbLine
 10
180.133
 20
133.4
 30
0.0
 11
178.983
 21
133.4
 31
0.0
  0
LINE
  5
2D0
330
1F
100
AcDbEntity
  8
0
  6
Continuous
 62
     7
100
AcDbLine
 10
153.133
 20
305.4
 30
0.0
 11
153.133
 21
311.4
 31
0.0
  0
LINE
  5
2D1
330
1F
100
AcDbEntity
  8
0
  6
Continuous
 62
     7
100
AcDbLine
 10
153.133
 20
309.4
 30
0.0
 11
153.133
 21
305.4
 31
0.0
  0
LINE
  5
2D2
330
1F
100
AcDbEntity
  8
0
  6
Continuous
 62
     7
100
AcDbLine
 10
143.283
 20
305.4
 30
0.0
 11
143.283
 21
309.4
 31
0.0
  0
LINE
  5
2D3
330
1F
100
AcDbEntity
  8
0
  6
Continuous
 62
     7
100
AcDbLine
 10
143.283
 20
309.4
 30
0.0
 11
143.283
 21
311.4
 31
0.0
  0
LINE
  5
2D4
330
1F
100
AcDbEntity
  8
0
  6
Continuous
 62
     7
100
AcDbLine
 10
161.133
 20
305.4
 30
0.0
 11
143.283
 21
305.4
 31
0.0
  0
LINE
  5
2D5
330
1F
100
AcDbEntity
  8
0
  6
Continuous
 62
     7
100
AcDbLine
 10
147.283
 20
311.4
 30
0.0
 11
147.283
 21
333.4
 31
0.0
  0
LINE
  5
2D6
330
1F
100
AcDbEntity
  8
0
  6
Continuous
 62
     7
100
AcDbLine
 10
143.283
 20
311.4
 30
0.0
 11
147.283
 21
311.4
 31
0.0
  0
LINE
  5
2D7
330
1F
100
AcDbEntity
  8
0
  6
Continuous
 62
     7
100
AcDbLine
 10
149.983
 20
333.4
 30
0.0
 11
150.283
 21
311.4
 31
0.0
  0
LINE
  5
2D8
330
1F
100
AcDbEntity
  8
0
  6
Continuous
 62
     7
100
AcDbLine
 10
147.283
 20
333.4
 30
0.0
 11
161.133
 21
333.4
 31
0.0
  0
LINE
  5
2D9
330
1F
100
AcDbEntity
  8
0
  6
Continuous
 62
     7
100
AcDbLine
 10
161.133
 20
311.4
 30
0.0
 11
150.283
 21
311.4
 31
0.0
  0
LINE
  5
2DA
330
1F
100
AcDbEntity
  8
0
  6
Continuous
 62
     7
100
AcDbLine
 10
169.1329999999999
 20
305.4
 30
0.0
 11
169.1329999999999
 21
311.4
 31
0.0
  0
LINE
  5
2DB
330
1F
100
AcDbEntity
  8
0
  6
Continuous
 62
     7
100
AcDbLine
 10
169.1329999999999
 20
309.4
 30
0.0
 11
169.1329999999999
 21
305.4
 31
0.0
  0
LINE
  5
2DC
330
1F
100
AcDbEntity
  8
0
  6
Continuous
 62
     7
100
AcDbLine
 10
178.983
 20
305.4
 30
0.0
 11
178.983
 21
309.4
 31
0.0
  0
LINE
  5
2DD
330
1F
100
AcDbEntity
  8
0
  6
Continuous
 62
     7
100
AcDbLine
 10
178.983
 20
309.4
 30
0.0
 11
178.983
 21
311.4
 31
0.0
  0
LINE
  5
2DE
330
1F
100
AcDbEntity
  8
0
  6
Continuous
 62
     7
100
AcDbLine
 10
161.133
 20
305.4
 30
0.0
 11
178.983
 21
305.4
 31
0.0
  0
LINE
  5
2DF
330
1F
100
AcDbEntity
  8
0
  6
Continuous
 62
     7
100
AcDbLine
 10
174.983
 20
311.4
 30
0.0
 11
174.983
 21
333.4
 31
0.0
  0
LINE
  5
2E0
330
1F
100
AcDbEntity
  8
0
  6
Continuous
 62
     7
100
AcDbLine
 10
178.983
 20
311.4
 30
0.0
 11
174.983
 21
311.4
 31
0.0
  0
LINE
  5
2E1
330
1F
100
AcDbEntity
  8
0
  6
Continuous
 62
     7
100
AcDbLine
 10
172.283
 20
333.4
 30
0.0
 11
171.983
 21
311.4
 31
0.0
  0
LINE
  5
2E2
330
1F
100
AcDbEntity
  8
0
  6
Continuous
 62
     7
100
AcDbLine
 10
174.983
 20
333.4
 30
0.0
 11
161.133
 21
333.4
 31
0.0
  0
LINE
  5
2E3
330
1F
100
AcDbEntity
  8
0
  6
Continuous
 62
     7
100
AcDbLine
 10
161.133
 20
311.4
 30
0.0
 11
171.983
 21
311.4
 31
0.0
  0
LINE
  5
2E4
330
1F
100
AcDbEntity
  8
0
  6
Continuous
 62
     7
100
AcDbLine
 10
144.983
 20
305.4
 30
0.0
 11
144.983
 21
306.8
 31
0.0
  0
LINE
  5
2E5
330
1F
100
AcDbEntity
  8
0
  6
Continuous
 62
     7
100
AcDbLine
 10
144.983
 20
306.8
 30
0.0
 11
147.3829999999999
 21
306.8
 31
0.0
  0
LINE
  5
2E6
330
1F
100
AcDbEntity
  8
0
  6
Continuous
 62
     7
100
AcDbLine
 10
147.3829999999999
 20
306.8
 30
0.0
 11
147.3829999999999
 21
305.4
 31
0.0
  0
LINE
  5
2E7
330
1F
100
AcDbEntity
  8
0
  6
Continuous
 62
     7
100
AcDbLine
 10
177.283
 20
305.4
 30
0.0
 11
177.283
 21
306.8
 31
0.0
  0
LINE
  5
2E8
330
1F
100
AcDbEntity
  8
0
  6
Continuous
 62
     7
100
AcDbLine
 10
177.283
 20
306.8
 30
0.0
 11
174.883
 21
306.8
 31
0.0
  0
LINE
  5
2E9
330
1F
100
AcDbEntity
  8
0
  6
Continuous
 62
     7
100
AcDbLine
 10
174.883
 20
306.8
 30
0.0
 11
174.883
 21
305.4
 31
0.0
  0
ARC
  5
2EA
330
1F
100
AcDbEntity
  8
0
  6
Continuous
 62
     7
100
AcDbCircle
 10
176.383
 20
306.2
 30
0.0
 40
1.0
100
AcDbArc
 50
143.130102354
 51
233.130102353
  0
ARC
  5
2EB
330
1F
100
AcDbEntity
  8
0
  6
Continuous
 62
     7
100
AcDbCircle
 10
176.383
 20
306.2
 30
0.0
 40
1.0
100
AcDbArc
 50
306.869897645
 51
18.434948823
  0
ARC
  5
2EC
330
1F
100
AcDbEntity
  8
0
  6
Continuous
 62
     7
100
AcDbCircle
 10
145.883
 20
306.2
 30
0.0
 40
1.0
100
AcDbArc
 50
146.309932475
 51
233.130102357
  0
ARC
  5
2ED
330
1F
100
AcDbEntity
  8
0
  6
Continuous
 62
     7
100
AcDbCircle
 10
145.883
 20
306.2
 30
0.0
 40
1.0
100
AcDbArc
 50
306.869897645
 51
36.869897646
  0
LINE
  5
2EE
330
1F
100
AcDbEntity
  8
0
  6
Continuous
 62
     7
100
AcDbLine
 10
138.133
 20
314.7
 30
0.0
 11
144.633
 21
314.7
 31
0.0
  0
LINE
  5
2EF
330
1F
100
AcDbEntity
  8
0
  6
Continuous
 62
     7
100
AcDbLine
 10
137.133
 20
313.7
 30
0.0
 11
137.133
 21
295.7
 31
0.0
  0
LINE
  5
2F0
330
1F
100
AcDbEntity
  8
0
  6
Continuous
 62
     7
100
AcDbLine
 10
138.133
 20
314.7
 30
0.0
 11
137.133
 21
313.7
 31
0.0
  0
LINE
  5
2F1
330
1F
100
AcDbEntity
  8
0
  6
Continuous
 62
     7
100
AcDbLine
 10
177.6329999999999
 20
314.7
 30
0.0
 11
184.133
 21
314.7
 31
0.0
  0
LINE
  5
2F2
330
1F
100
AcDbEntity
  8
0
  6
Continuous
 62
     7
100
AcDbLine
 10
185.133
 20
313.7
 30
0.0
 11
185.133
 21
295.7
 31
0.0
  0
LINE
  5
2F3
330
1F
100
AcDbEntity
  8
0
  6
Continuous
 62
     7
100
AcDbLine
 10
184.133
 20
314.7
 30
0.0
 11
185.133
 21
313.7
 31
0.0
  0
LINE
  5
2F4
330
1F
100
AcDbEntity
  8
0
  6
Continuous
 62
     7
100
AcDbLine
 10
143.1329999999999
 20
308.4
 30
0.0
 11
143.1329999999999
 21
298.506
 31
0.0
  0
LINE
  5
2F5
330
1F
100
AcDbEntity
  8
0
  6
Continuous
 62
     7
100
AcDbLine
 10
179.133
 20
308.4
 30
0.0
 11
179.133
 21
295.7
 31
0.0
  0
LINE
  5
2F6
330
1F
100
AcDbEntity
  8
0
  6
Continuous
 62
     7
100
AcDbLine
 10
180.133
 20
311.4
 30
0.0
 11
180.133
 21
308.4
 31
0.0
  0
LINE
  5
2F7
330
1F
100
AcDbEntity
  8
0
  6
Continuous
 62
     7
100
AcDbLine
 10
142.133
 20
311.4
 30
0.0
 11
142.133
 21
308.4
 31
0.0
  0
LINE
  5
2F8
330
1F
100
AcDbEntity
  8
0
  6
Continuous
 62
     7
100
AcDbLine
 10
143.1329999999999
 20
298.506
 30
0.0
 11
143.1329999999999
 21
295.7
 31
0.0
  0
LINE
  5
2F9
330
1F
100
AcDbEntity
  8
0
  6
Continuous
 62
     7
100
AcDbLine
 10
144.633
 20
314.7
 30
0.0
 11
144.633
 21
327.7
 31
0.0
  0
LINE
  5
2FA
330
1F
100
AcDbEntity
  8
0
  6
Continuous
 62
     7
100
AcDbLine
 10
144.633
 20
327.7
 30
0.0
 11
145.633
 21
328.7
 31
0.0
  0
LINE
  5
2FB
330
1F
100
AcDbEntity
  8
0
  6
Continuous
 62
     7
100
AcDbLine
 10
177.6329999999999
 20
327.7
 30
0.0
 11
177.6329999999999
 21
314.7
 31
0.0
  0
LINE
  5
2FC
330
1F
100
AcDbEntity
  8
0
  6
Continuous
 62
     7
100
AcDbLine
 10
177.6329999999999
 20
327.7
 30
0.0
 11
176.633
 21
328.7
 31
0.0
  0
LINE
  5
2FD
330
1F
100
AcDbEntity
  8
0
  6
Continuous
 62
     7
100
AcDbLine
 10
147.133
 20
311.506
 30
0.0
 11
147.133
 21
328.7
 31
0.0
  0
LINE
  5
2FE
330
1F
100
AcDbEntity
  8
0
  6
Continuous
 62
     7
100
AcDbLine
 10
175.133
 20
311.506
 30
0.0
 11
175.133
 21
328.7
 31
0.0
  0
LINE
  5
2FF
330
1F
100
AcDbEntity
  8
0
  6
Continuous
 62
     7
100
AcDbLine
 10
174.983
 20
328.7
 30
0.0
 11
176.633
 21
328.7
 31
0.0
  0
LINE
  5
300
330
1F
100
AcDbEntity
  8
0
  6
Continuous
 62
     7
100
AcDbLine
 10
145.633
 20
328.7
 30
0.0
 11
147.283
 21
328.7
 31
0.0
  0
LINE
  5
301
330
1F
100
AcDbEntity
  8
0
  6
Continuous
 62
     7
100
AcDbLine
 10
179.133
 20
295.7
 30
0.0
 11
185.133
 21
295.7
 31
0.0
  0
LINE
  5
302
330
1F
100
AcDbEntity
  8
0
  6
Continuous
 62
     7
100
AcDbLine
 10
137.133
 20
295.7
 30
0.0
 11
143.1329999999999
 21
295.7
 31
0.0
  0
LINE
  5
303
330
1F
100
AcDbEntity
  8
0
  6
Continuous
 62
     7
100
AcDbLine
 10
147.283
 20
311.4
 30
0.0
 11
142.133
 21
311.4
 31
0.0
  0
LINE
  5
304
330
1F
100
AcDbEntity
  8
0
  6
Continuous
 62
     7
100
AcDbLine
 10
180.133
 20
311.4
 30
0.0
 11
174.983
 21
311.4
 31
0.0
  0
LINE
  5
305
330
1F
100
AcDbEntity
  8
0
  6
Continuous
 62
     7
100
AcDbLine
 10
178.983
 20
308.4
 30
0.0
 11
180.133
 21
308.4
 31
0.0
  0
LINE
  5
306
330
1F
100
AcDbEntity
  8
0
  6
Continuous
 62
     7
100
AcDbLine
 10
142.133
 20
308.4
 30
0.0
 11
143.283
 21
308.4
 31
0.0
  0
LINE
  5
307
330
1F
100
AcDbEntity
  8
0
  6
Continuous
 62
     7
100
AcDbLine
 10
144.833
 20
146.1
 30
0.0
 11
137.133
 21
146.1
 31
0.0
  0
LINE
  5
308
330
1F
100
AcDbEntity
  8
0
  6
Continuous
 62
     7
100
AcDbLine
 10
185.133
 20
146.1
 30
0.0
 11
177.333
 21
146.1
 31
0.0
  0
LINE
  5
309
330
1F
100
AcDbEntity
  8
0
  6
Continuous
 62
     7
100
AcDbLine
 10
143.1329999999999
 20
305.4
 30
0.0
 11
143.1329999999999
 21
295.8999999999999
 31
0.0
  0
LINE
  5
30A
330
1F
100
AcDbEntity
  8
0
  6
Continuous
 62
     7
100
AcDbLine
 10
179.133
 20
305.4
 30
0.0
 11
179.133
 21
295.8999999999999
 31
0.0
  0
LINE
  5
30B
330
1F
100
AcDbEntity
  8
0
  6
Continuous
 62
     7
100
AcDbLine
 10
179.133
 20
136.4
 30
0.0
 11
179.133
 21
145.9
 31
0.0
  0
LINE
  5
30C
330
1F
100
AcDbEntity
  8
0
  6
Continuous
 62
     7
100
AcDbLine
 10
143.1329999999999
 20
136.4
 30
0.0
 11
143.1329999999999
 21
145.9
 31
0.0
  0
MTEXT
  5
30D
330
1F
100
AcDbEntity
  8
0
  6
Continuous
 62
     7
100
AcDbMText
 10
92.933
 20
369.63
 30
0.0
 40
10.0
 41
208.0
 71
     7
 72
     1
  1
\W0.800;ＡＶＰ１０１ＤＪＨＯＡＡＡ
  7
KANJI0
 73
     1
 44
1.0
1001
ACAD
1000
MTEXTBEGIN
1070
    73
1070
     1
1070
    44
1040
1.0
1070
    74
1070
     0
1000
MTEXTEND
  0
LINE
  5
30F
330
1F
100
AcDbEntity
  8
0
  6
LTYPE1
 62
     7
100
AcDbLine
 10
586.983
 20
335.4
 30
0.0
 11
586.983
 21
145.4
 31
0.0
  0
LINE
  5
310
330
1F
100
AcDbEntity
  8
0
  6
LTYPE1
 62
     7
100
AcDbLine
 10
586.983
 20
143.9
 30
0.0
 11
586.983
 21
152.4
 31
0.0
  0
LINE
  5
311
330
1F
100
AcDbEntity
  8
0
  6
LTYPE1
 62
     7
100
AcDbLine
 10
586.983
 20
151.9
 30
0.0
 11
586.983
 21
143.9
 31
0.0
  0
LINE
  5
312
330
1F
100
AcDbEntity
  8
0
  6
LTYPE1
 62
     7
100
AcDbLine
 10
586.983
 20
328.4
 30
0.0
 11
586.983
 21
336.9
 31
0.0
  0
LINE
  5
313
330
1F
100
AcDbEntity
  8
0
  6
LTYPE1
 62
     7
100
AcDbLine
 10
586.983
 20
145.95
 30
0.0
 11
586.983
 21
154.45
 31
0.0
  0
LINE
  5
314
330
1F
100
AcDbEntity
  8
0
  6
LTYPE1
 62
     7
100
AcDbLine
 10
586.983
 20
330.45
 30
0.0
 11
586.983
 21
338.95
 31
0.0
  0
LINE
  5
315
330
1F
100
AcDbEntity
  8
0
  6
LTYPE1
 62
     7
100
AcDbLine
 10
586.983
 20
153.95
 30
0.0
 11
586.983
 21
145.95
 31
0.0
  0
LINE
  5
316
330
1F
100
AcDbEntity
  8
0
  6
LTYPE1
 62
     7
100
AcDbLine
 10
586.983
 20
149.7
 30
0.0
 11
586.983
 21
143.7
 31
0.0
  0
LINE
  5
317
330
1F
100
AcDbEntity
  8
0
  6
LTYPE1
 62
     7
100
AcDbLine
 10
586.983
 20
336.5
 30
0.0
 11
586.983
 21
328.5
 31
0.0
  0
LINE
  5
318
330
1F
100
AcDbEntity
  8
0
  6
LTYPE1
 62
     7
100
AcDbLine
 10
586.983
 20
332.75
 30
0.0
 11
586.983
 21
338.75
 31
0.0
  0
LINE
  5
319
330
1F
100
AcDbEntity
  8
0
  6
LTYPE1
 62
     7
100
AcDbLine
 10
587.9830000000001
 20
148.95
 30
0.0
 11
587.9830000000001
 21
142.95
 31
0.0
  0
LINE
  5
31A
330
1F
100
AcDbEntity
  8
0
  6
LTYPE1
 62
     7
100
AcDbLine
 10
588.233
 20
333.05
 30
0.0
 11
587.9830000000001
 21
333.5
 31
0.0
  0
LINE
  5
31B
330
1F
100
AcDbEntity
  8
0
  6
LTYPE1
 62
     7
100
AcDbLine
 10
587.9830000000001
 20
339.5
 30
0.0
 11
587.9830000000001
 21
333.5
 31
0.0
  0
LINE
  5
31C
330
1F
100
AcDbEntity
  8
0
  6
LTYPE1
 62
     7
100
AcDbLine
 10
585.983
 20
142.95
 30
0.0
 11
585.983
 21
148.95
 31
0.0
  0
LINE
  5
31D
330
1F
100
AcDbEntity
  8
0
  6
LTYPE1
 62
     7
100
AcDbLine
 10
585.7330000000001
 20
333.05
 30
0.0
 11
585.983
 21
333.5
 31
0.0
  0
LINE
  5
31E
330
1F
100
AcDbEntity
  8
0
  6
LTYPE1
 62
     7
100
AcDbLine
 10
585.983
 20
333.5
 30
0.0
 11
585.983
 21
339.5
 31
0.0
  0
LINE
  5
31F
330
1F
100
AcDbEntity
  8
0
  6
LTYPE1
 62
     7
100
AcDbLine
 10
586.983
 20
163.45
 30
0.0
 11
586.983
 21
123.45
 31
0.0
  0
LINE
  5
320
330
1F
100
AcDbEntity
  8
0
  6
LTYPE1
 62
     7
100
AcDbLine
 10
586.983
 20
319.4
 30
0.0
 11
586.983
 21
360.4
 31
0.0
  0
LINE
  5
321
330
1F
100
AcDbEntity
  8
0
  6
LTYPE1
 62
     7
100
AcDbLine
 10
586.983
 20
335.4
 30
0.0
 11
586.983
 21
372.4
 31
0.0
  0
LINE
  5
322
330
1F
100
AcDbEntity
  8
0
  6
LTYPE1
 62
     7
100
AcDbLine
 10
561.2280000000001
 20
337.6
 30
0.0
 11
561.2280000000001
 21
334.98
 31
0.0
  0
LINE
  5
323
330
1F
100
AcDbEntity
  8
0
  6
LTYPE1
 62
     7
100
AcDbLine
 10
559.918
 20
336.29
 30
0.0
 11
562.5379999999999
 21
336.29
 31
0.0
  0
LINE
  5
324
330
1F
100
AcDbEntity
  8
0
  6
LTYPE1
 62
     7
100
AcDbLine
 10
612.738
 20
337.6
 30
0.0
 11
612.738
 21
334.98
 31
0.0
  0
LINE
  5
325
330
1F
100
AcDbEntity
  8
0
  6
LTYPE1
 62
     7
100
AcDbLine
 10
614.048
 20
336.29
 30
0.0
 11
611.4279999999999
 21
336.29
 31
0.0
  0
LINE
  5
326
330
1F
100
AcDbEntity
  8
0
  6
LTYPE1
 62
     7
100
AcDbLine
 10
586.983
 20
161.4
 30
0.0
 11
586.983
 21
121.4
 31
0.0
  0
LINE
  5
327
330
1F
100
AcDbEntity
  8
0
  6
LTYPE1
 62
     7
100
AcDbLine
 10
586.983
 20
145.4
 30
0.0
 11
586.983
 21
108.4
 31
0.0
  0
LINE
  5
328
330
1F
100
AcDbEntity
  8
0
  6
LTYPE1
 62
     7
100
AcDbLine
 10
608.763
 20
142.81
 30
0.0
 11
608.763
 21
146.41
 31
0.0
  0
LINE
  5
329
330
1F
100
AcDbEntity
  8
0
  6
LTYPE1
 62
     7
100
AcDbLine
 10
610.5629999999999
 20
144.61
 30
0.0
 11
606.963
 21
144.61
 31
0.0
  0
LINE
  5
32A
330
1F
100
AcDbEntity
  8
0
  6
LTYPE1
 62
     7
100
AcDbLine
 10
565.2029999999999
 20
142.81
 30
0.0
 11
565.2029999999999
 21
146.41
 31
0.0
  0
LINE
  5
32B
330
1F
100
AcDbEntity
  8
0
  6
LTYPE1
 62
     7
100
AcDbLine
 10
563.403
 20
144.61
 30
0.0
 11
567.003
 21
144.61
 31
0.0
  0
LINE
  5
32C
330
1F
100
AcDbEntity
  8
0
  6
LTYPE1
 62
     7
100
AcDbLine
 10
586.983
 20
333.15
 30
0.0
 11
586.983
 21
338.3
 31
0.0
  0
LINE
  5
32D
330
1F
100
AcDbEntity
  8
0
  6
LTYPE1
 62
     7
100
AcDbLine
 10
586.983
 20
147.65
 30
0.0
 11
586.983
 21
142.5
 31
0.0
  0
LINE
  5
32E
330
1F
100
AcDbEntity
  8
0
  6
LTYPE1
 62
     7
100
AcDbLine
 10
385.0630000000001
 20
330.4
 30
0.0
 11
385.0630000000001
 21
140.4
 31
0.0
  0
LINE
  5
32F
330
1F
100
AcDbEntity
  8
0
  6
LTYPE1
 62
     7
100
AcDbLine
 10
385.0630000000001
 20
138.9
 30
0.0
 11
385.0630000000001
 21
147.4
 31
0.0
  0
LINE
  5
330
330
1F
100
AcDbEntity
  8
0
  6
LTYPE1
 62
     7
100
AcDbLine
 10
385.0630000000001
 20
323.4
 30
0.0
 11
385.0630000000001
 21
331.9
 31
0.0
  0
LINE
  5
331
330
1F
100
AcDbEntity
  8
0
  6
LTYPE1
 62
     7
100
AcDbLine
 10
385.0630000000001
 20
146.9
 30
0.0
 11
385.0630000000001
 21
138.9
 31
0.0
  0
LINE
  5
332
330
1F
100
AcDbEntity
  8
0
  6
LTYPE1
 62
     7
100
AcDbLine
 10
385.0630000000001
 20
142.65
 30
0.0
 11
385.0630000000001
 21
136.65
 31
0.0
  0
LINE
  5
333
330
1F
100
AcDbEntity
  8
0
  6
LTYPE1
 62
     7
100
AcDbLine
 10
385.0630000000001
 20
329.45
 30
0.0
 11
385.0630000000001
 21
321.45
 31
0.0
  0
LINE
  5
334
330
1F
100
AcDbEntity
  8
0
  6
LTYPE1
 62
     7
100
AcDbLine
 10
385.0630000000001
 20
325.7
 30
0.0
 11
385.0630000000001
 21
331.7
 31
0.0
  0
LINE
  5
335
330
1F
100
AcDbEntity
  8
0
  6
LTYPE1
 62
     7
100
AcDbLine
 10
386.313
 20
142.35
 30
0.0
 11
386.063
 21
141.9
 31
0.0
  0
LINE
  5
336
330
1F
100
AcDbEntity
  8
0
  6
LTYPE1
 62
     7
100
AcDbLine
 10
386.063
 20
141.9
 30
0.0
 11
386.063
 21
135.9
 31
0.0
  0
LINE
  5
337
330
1F
100
AcDbEntity
  8
0
  6
LTYPE1
 62
     7
100
AcDbLine
 10
386.313
 20
326.0
 30
0.0
 11
386.063
 21
326.45
 31
0.0
  0
LINE
  5
338
330
1F
100
AcDbEntity
  8
0
  6
LTYPE1
 62
     7
100
AcDbLine
 10
386.063
 20
332.45
 30
0.0
 11
386.063
 21
326.45
 31
0.0
  0
LINE
  5
339
330
1F
100
AcDbEntity
  8
0
  6
LTYPE1
 62
     7
100
AcDbLine
 10
383.8130000000001
 20
142.35
 30
0.0
 11
384.063
 21
141.9
 31
0.0
  0
LINE
  5
33A
330
1F
100
AcDbEntity
  8
0
  6
LTYPE1
 62
     7
100
AcDbLine
 10
384.063
 20
135.9
 30
0.0
 11
384.063
 21
141.9
 31
0.0
  0
LINE
  5
33B
330
1F
100
AcDbEntity
  8
0
  6
LTYPE1
 62
     7
100
AcDbLine
 10
383.8130000000001
 20
326.0
 30
0.0
 11
384.063
 21
326.45
 31
0.0
  0
LINE
  5
33C
330
1F
100
AcDbEntity
  8
0
  6
LTYPE1
 62
     7
100
AcDbLine
 10
384.063
 20
326.45
 30
0.0
 11
384.063
 21
332.45
 31
0.0
  0
LINE
  5
33D
330
1F
100
AcDbEntity
  8
0
  6
LTYPE1
 62
     7
100
AcDbLine
 10
385.0630000000001
 20
314.4
 30
0.0
 11
385.0630000000001
 21
354.4
 31
0.0
  0
LINE
  5
33E
330
1F
100
AcDbEntity
  8
0
  6
LTYPE1
 62
     7
100
AcDbLine
 10
385.0630000000001
 20
330.4
 30
0.0
 11
385.0630000000001
 21
362.4
 31
0.0
  0
LINE
  5
33F
330
1F
100
AcDbEntity
  8
0
  6
LTYPE1
 62
     7
100
AcDbLine
 10
363.283
 20
333.2
 30
0.0
 11
363.283
 21
329.6
 31
0.0
  0
LINE
  5
340
330
1F
100
AcDbEntity
  8
0
  6
LTYPE1
 62
     7
100
AcDbLine
 10
361.483
 20
331.4
 30
0.0
 11
365.083
 21
331.4
 31
0.0
  0
LINE
  5
341
330
1F
100
AcDbEntity
  8
0
  6
LTYPE1
 62
     7
100
AcDbLine
 10
406.843
 20
333.2
 30
0.0
 11
406.843
 21
329.6
 31
0.0
  0
LINE
  5
342
330
1F
100
AcDbEntity
  8
0
  6
LTYPE1
 62
     7
100
AcDbLine
 10
408.643
 20
331.4
 30
0.0
 11
405.043
 21
331.4
 31
0.0
  0
LINE
  5
343
330
1F
100
AcDbEntity
  8
0
  6
LTYPE1
 62
     7
100
AcDbLine
 10
385.0630000000001
 20
156.4
 30
0.0
 11
385.0630000000001
 21
116.4
 31
0.0
  0
LINE
  5
344
330
1F
100
AcDbEntity
  8
0
  6
LTYPE1
 62
     7
100
AcDbLine
 10
385.0630000000001
 20
140.4
 30
0.0
 11
385.0630000000001
 21
108.4
 31
0.0
  0
LINE
  5
345
330
1F
100
AcDbEntity
  8
0
  6
LTYPE1
 62
     7
100
AcDbLine
 10
406.843
 20
137.6
 30
0.0
 11
406.843
 21
141.2
 31
0.0
  0
LINE
  5
346
330
1F
100
AcDbEntity
  8
0
  6
LTYPE1
 62
     7
100
AcDbLine
 10
408.643
 20
139.4
 30
0.0
 11
405.043
 21
139.4
 31
0.0
  0
LINE
  5
347
330
1F
100
AcDbEntity
  8
0
  6
LTYPE1
 62
     7
100
AcDbLine
 10
363.283
 20
137.6
 30
0.0
 11
363.283
 21
141.2
 31
0.0
  0
LINE
  5
348
330
1F
100
AcDbEntity
  8
0
  6
LTYPE1
 62
     7
100
AcDbLine
 10
361.483
 20
139.4
 30
0.0
 11
365.083
 21
139.4
 31
0.0
  0
LINE
  5
349
330
1F
100
AcDbEntity
  8
0
  6
LTYPE1
 62
     7
100
AcDbLine
 10
161.133
 20
142.9
 30
0.0
 11
161.133
 21
134.9
 31
0.0
  0
LINE
  5
34A
330
1F
100
AcDbEntity
  8
0
  6
LTYPE1
 62
     7
100
AcDbLine
 10
162.133
 20
138.35
 30
0.0
 11
161.8829999999999
 21
137.9
 31
0.0
  0
LINE
  5
34B
330
1F
100
AcDbEntity
  8
0
  6
LTYPE1
 62
     7
100
AcDbLine
 10
160.133
 20
138.35
 30
0.0
 11
160.383
 21
137.9
 31
0.0
  0
LINE
  5
34C
330
1F
100
AcDbEntity
  8
0
  6
LTYPE1
 62
     7
100
AcDbLine
 10
160.133
 20
303.45
 30
0.0
 11
160.383
 21
303.9
 31
0.0
  0
LINE
  5
34D
330
1F
100
AcDbEntity
  8
0
  6
LTYPE1
 62
     7
100
AcDbLine
 10
162.133
 20
303.45
 30
0.0
 11
161.8829999999999
 21
303.9
 31
0.0
  0
LINE
  5
34E
330
1F
100
AcDbEntity
  8
0
  6
LTYPE1
 62
     7
100
AcDbLine
 10
161.133
 20
306.9
 30
0.0
 11
161.133
 21
298.9
 31
0.0
  0
LINE
  5
34F
330
1F
100
AcDbEntity
  8
0
  6
LTYPE1
 62
     7
100
AcDbLine
 10
160.383
 20
303.9
 30
0.0
 11
160.383
 21
309.9
 31
0.0
  0
LINE
  5
350
330
1F
100
AcDbEntity
  8
0
  6
LTYPE1
 62
     7
100
AcDbLine
 10
161.8829999999999
 20
309.9
 30
0.0
 11
161.8829999999999
 21
303.9
 31
0.0
  0
LINE
  5
351
330
1F
100
AcDbEntity
  8
0
  6
LTYPE1
 62
     7
100
AcDbLine
 10
161.133
 20
303.15
 30
0.0
 11
161.133
 21
309.15
 31
0.0
  0
LINE
  5
352
330
1F
100
AcDbEntity
  8
0
  6
LTYPE1
 62
     7
100
AcDbLine
 10
161.8829999999999
 20
137.9
 30
0.0
 11
161.8829999999999
 21
131.9
 31
0.0
  0
LINE
  5
353
330
1F
100
AcDbEntity
  8
0
  6
LTYPE1
 62
     7
100
AcDbLine
 10
160.383
 20
131.9
 30
0.0
 11
160.383
 21
137.9
 31
0.0
  0
LINE
  5
354
330
1F
100
AcDbEntity
  8
0
  6
LTYPE1
 62
     7
100
AcDbLine
 10
161.133
 20
138.65
 30
0.0
 11
161.133
 21
132.65
 31
0.0
  0
LINE
  5
355
330
1F
100
AcDbEntity
  8
0
  6
LTYPE1
 62
     7
100
AcDbLine
 10
161.133
 20
136.4
 30
0.0
 11
161.133
 21
305.4
 31
0.0
  0
LINE
  5
356
330
1F
100
AcDbEntity
  8
0
  6
LTYPE1
 62
     7
100
AcDbLine
 10
180.133
 20
133.4
 30
0.0
 11
180.133
 21
146.1
 31
0.0
  0
LINE
  5
357
330
1F
100
AcDbEntity
  8
0
  6
LTYPE1
 62
     7
100
AcDbLine
 10
142.133
 20
133.4
 30
0.0
 11
142.133
 21
146.1
 31
0.0
  0
LINE
  5
358
330
1F
100
AcDbEntity
  8
0
  6
LTYPE1
 62
     7
100
AcDbLine
 10
161.133
 20
108.4
 30
0.0
 11
161.133
 21
146.1
 31
0.0
  0
LINE
  5
359
330
1F
100
AcDbEntity
  8
0
  6
LTYPE1
 62
     7
100
AcDbLine
 10
142.133
 20
308.4
 30
0.0
 11
142.133
 21
295.7
 31
0.0
  0
LINE
  5
35A
330
1F
100
AcDbEntity
  8
0
  6
LTYPE1
 62
     7
100
AcDbLine
 10
180.133
 20
308.4
 30
0.0
 11
180.133
 21
295.7
 31
0.0
  0
LINE
  5
35B
330
1F
100
AcDbEntity
  8
0
  6
LTYPE1
 62
     7
100
AcDbLine
 10
161.133
 20
309.2
 30
0.0
 11
161.133
 21
305.2
 31
0.0
  0
LINE
  5
35C
330
1F
100
AcDbEntity
  8
0
  6
LTYPE1
 62
     7
100
AcDbLine
 10
161.133
 20
333.4
 30
0.0
 11
161.133
 21
295.7
 31
0.0
  0
ENDSEC
  0
SECTION
  2
OBJECTS
  0
DICTIONARY
  5
C
330
0
100
AcDbDictionary
281
     1
  3
ACAD_COLOR
350
374
  3
ACAD_GROUP
350
D
  3
ACAD_LAYOUT
350
1A
  3
ACAD_MATERIAL
350
35F
  3
ACAD_MLINESTYLE
350
17
  3
ACAD_PLOTSETTINGS
350
19
  3
ACAD_PLOTSTYLENAME
350
E
  3
ACAD_TABLESTYLE
350
375
  3
ACAD_VISUALSTYLE
350
363
  3
AcDbVariableDictionary
350
37F
  3
DWGPROPS
350
384
  0
DICTIONARY
  5
37A
330
2
100
AcDbDictionary
280
     1
281
     1
  3
ACAD_LAYERFILTERS
360
37E
  3
ACLYDICTIONARY
360
37D
  0
DICTIONARY
  5
374
102
{ACAD_REACTORS
330
C
102
}
330
C
100
AcDbDictionary
281
     1
  0
DICTIONARY
  5
D
102
{ACAD_REACTORS
330
C
102
}
330
C
100
AcDbDictionary
281
     1
  0
DICTIONARY
  5
1A
102
{ACAD_REACTORS
330
C
102
}
330
C
100
AcDbDictionary
281
     1
  3
Model
350
22
  3
ﾚｲｱｳﾄ1
350
1E
  3
ﾚｲｱｳﾄ2
350
26
  0
DICTIONARY
  5
35F
102
{ACAD_REACTORS
330
C
102
}
330
C
100
AcDbDictionary
281
     1
  3
ByBlock
350
361
  3
ByLayer
350
360
  3
Global
350
362
  0
DICTIONARY
  5
17
102
{ACAD_REACTORS
330
C
102
}
330
C
100
AcDbDictionary
281
     1
  3
Standard
350
18
  0
DICTIONARY
  5
19
102
{ACAD_REACTORS
330
C
102
}
330
C
100
AcDbDictionary
281
     1
  0
ACDBDICTIONARYWDFLT
  5
E
330
C
100
AcDbDictionary
281
     0
  3
Normal
350
F
100
AcDbDictionaryWithDefault
340
F
  0
DICTIONARY
  5
375
102
{ACAD_REACTORS
330
C
102
}
330
C
100
AcDbDictionary
281
     1
  3
Standard
350
376
  0
DICTIONARY
  5
363
102
{ACAD_REACTORS
330
C
102
}
330
C
100
AcDbDictionary
281
     1
  3
2dWireframe
350
369
  3
3D Hidden
350
36B
  3
3dWireframe
350
36A
  3
Basic
350
368
  3
Brighten
350
36F
  3
ColorChange
350
373
  3
Conceptual
350
36C
  3
Dim
350
36E
  3
Facepattern
350
372
  3
Flat
350
364
  3
FlatWithEdges
350
365
  3
Gouraud
350
366
  3
GouraudWithEdges
350
367
  3
Linepattern
350
371
  3
Realistic
350
36D
  3
Thicken
350
370
  0
DICTIONARY
  5
37F
102
{ACAD_REACTORS
330
C
102
}
330
C
100
AcDbDictionary
281
     1
  3
CTABLESTYLE
350
380
  3
DIMASSOC
350
383
  3
INDEXCTL
350
382
  3
SORTENTS
350
381
  0
XRECORD
  5
384
102
{ACAD_REACTORS
330
C
102
}
330
C
100
AcDbXrecord
280
     1
  1
DWGPROPS COOKIE
  2

  3

  4

  6

  7

  8
gijutsu-sakata
  9

300
=
301
=
302
=
303
=
304
=
305
=
306
=
307
=
308
=
309
=
 40
0.0006518518518519
 41
2457476.58834397
 42
2457476.588995
  1

 90
        0
  0
DICTIONARY
  5
37E
102
{ACAD_REACTORS
330
37A
102
}
330
37A
100
AcDbDictionary
281
     1
  0
DICTIONARY
  5
37D
102
{ACAD_REACTORS
330
37A
102
}
330
37A
100
AcDbDictionary
281
     1
1001
ACAD
1000
<All
  0
LAYOUT
  5
22
102
{ACAD_XDICTIONARY
360
387
102
}
102
{ACAD_REACTORS
330
1A
102
}
330
1A
100
AcDbPlotSettings
  1

  2

  4

  6

 40
0.0
 41
0.0
 42
0.0
 43
0.0
 44
0.0
 45
0.0
 46
0.0
 47
0.0
 48
0.0
 49
0.0
140
0.0
141
0.0
142
1.0
143
1.0
 70
  1712
 72
     0
 73
     0
 74
     0
  7

 75
     0
147
1.0
148
0.0
149
0.0
100
AcDbLayout
  1
Model
 70
     1
 71
     0
 10
0.0
 20
0.0
 11
0.0
 21
0.0
 12
0.0
 22
0.0
 32
0.0
 14
0.0
 24
0.0
 34
0.0
 15
0.0
 25
0.0
 35
0.0
146
0.0
 13
0.0
 23
0.0
 33
0.0
 16
1.0
 26
0.0
 36
0.0
 17
0.0
 27
1.0
 37
0.0
 76
     0
330
1F
331
29
  0
LAYOUT
  5
1E
102
{ACAD_XDICTIONARY
360
385
102
}
102
{ACAD_REACTORS
330
1A
102
}
330
1A
100
AcDbPlotSettings
  1

  2

  4

  6

 40
0.0
 41
0.0
 42
0.0
 43
0.0
 44
0.0
 45
0.0
 46
0.0
 47
0.0
 48
0.0
 49
0.0
140
0.0
141
0.0
142
1.0
143
1.0
 70
   688
 72
     0
 73
     0
 74
     5
  7

 75
    16
147
1.0
148
0.0
149
0.0
100
AcDbLayout
  1
ﾚｲｱｳﾄ1
 70
     1
 71
     1
 10
0.0
 20
0.0
 11
0.0
 21
0.0
 12
0.0
 22
0.0
 32
0.0
 14
1.000000000000000E+20
 24
1.000000000000000E+20
 34
1.000000000000000E+20
 15
-1.000000000000000E+20
 25
-1.000000000000000E+20
 35
-1.000000000000000E+20
146
0.0
 13
0.0
 23
0.0
 33
0.0
 16
1.0
 26
0.0
 36
0.0
 17
0.0
 27
1.0
 37
0.0
 76
     0
330
1B
  0
LAYOUT
  5
26
102
{ACAD_XDICTIONARY
360
389
102
}
102
{ACAD_REACTORS
330
1A
102
}
330
1A
100
AcDbPlotSettings
  1

  2

  4

  6

 40
0.0
 41
0.0
 42
0.0
 43
0.0
 44
0.0
 45
0.0
 46
0.0
 47
0.0
 48
0.0
 49
0.0
140
0.0
141
0.0
142
1.0
143
1.0
 70
   688
 72
     0
 73
     0
 74
     5
  7

 75
    16
147
1.0
148
0.0
149
0.0
100
AcDbLayout
  1
ﾚｲｱｳﾄ2
 70
     1
 71
     2
 10
0.0
 20
0.0
 11
0.0
 21
0.0
 12
0.0
 22
0.0
 32
0.0
 14
0.0
 24
0.0
 34
0.0
 15
0.0
 25
0.0
 35
0.0
146
0.0
 13
0.0
 23
0.0
 33
0.0
 16
1.0
 26
0.0
 36
0.0
 17
0.0
 27
1.0
 37
0.0
 76
     0
330
23
  0
MATERIAL
  5
361
102
{ACAD_XDICTIONARY
360
38D
102
}
102
{ACAD_REACTORS
330
35F
102
}
330
35F
100
AcDbMaterial
  1
ByBlock
  0
MATERIAL
  5
360
102
{ACAD_XDICTIONARY
360
38B
102
}
102
{ACAD_REACTORS
330
35F
102
}
330
35F
100
AcDbMaterial
  1
ByLayer
  0
MATERIAL
  5
362
102
{ACAD_XDICTIONARY
360
38F
102
}
102
{ACAD_REACTORS
330
35F
102
}
330
35F
100
AcDbMaterial
  1
Global
  0
MLINESTYLE
  5
18
102
{ACAD_REACTORS
330
17
102
}
330
17
100
AcDbMlineStyle
  2
STANDARD
 70
     0
  3

 62
   256
 51
90.0
 52
90.0
 71
     2
 49
0.5
 62
   256
  6
BYLAYER
 49
-0.5
 62
   256
  6
BYLAYER
  0
ACDBPLACEHOLDER
  5
F
102
{ACAD_REACTORS
330
E
102
}
330
E
  0
TABLESTYLE
  5
376
102
{ACAD_XDICTIONARY
360
391
102
}
102
{ACAD_REACTORS
330
375
102
}
330
375
100
AcDbTableStyle
  3
Standard
 70
     0
 71
     0
 40
1.5
 41
1.5
280
     0
281
     0
  7
Standard
140
4.5
170
     2
 62
     0
 63
     7
283
     0
274
    -2
284
     1
 64
     0
275
    -2
285
     1
 65
     0
276
    -2
286
     1
 66
     0
277
    -2
287
     1
 67
     0
278
    -2
288
     1
 68
     0
279
    -2
289
     1
 69
     0
  7
Standard
140
6.0
170
     5
 62
     0
 63
     7
283
     0
274
    -2
284
     1
 64
     0
275
    -2
285
     1
 65
     0
276
    -2
286
     1
 66
     0
277
    -2
287
     1
 67
     0
278
    -2
288
     1
 68
     0
279
    -2
289
     1
 69
     0
  7
Standard
140
4.5
170
     5
 62
     0
 63
     7
283
     0
274
    -2
284
     1
 64
     0
275
    -2
285
     1
 65
     0
276
    -2
286
     1
 66
     0
277
    -2
287
     1
 67
     0
278
    -2
288
     1
 68
     0
279
    -2
289
     1
 69
     0
  0
VISUALSTYLE
  5
369
102
{ACAD_REACTORS
330
363
102
}
330
363
100
AcDbVisualStyle
  2
2dWireframe
 70
     4
 71
     0
 72
     2
 73
     0
 90
        0
 40
-0.6
 41
-30.0
 62
     5
 63
     7
 74
     1
 91
        4
 64
     7
 65
   257
 75
     1
175
     1
 42
1.0
 92
        0
 66
   257
 43
1.0
 76
     1
 77
     6
 78
     2
 67
     7
 79
     5
170
     0
171
     0
290
     0
174
     0
 93
        1
 44
0.0
173
     0
291
     0
 45
0.0
1001
ACAD
1000
AcDbSavedByObjectVersion
1070
     0
  0
VISUALSTYLE
  5
36B
102
{ACAD_REACTORS
330
363
102
}
330
363
100
AcDbVisualStyle
  2
3D Hidden
 70
     6
 71
     1
 72
     2
 73
     2
 90
        0
 40
-0.6
 41
-30.0
 62
     5
 63
     7
 74
     2
 91
        2
 64
     7
 65
   257
 75
     2
175
     1
 42
40.0
 92
        0
 66
   257
 43
1.0
 76
     1
 77
     6
 78
     2
 67
     7
 79
     3
170
     0
171
     0
290
     0
174
     0
 93
        1
 44
0.0
173
     0
291
     0
 45
0.0
1001
ACAD
1000
AcDbSavedByObjectVersion
1070
     0
  0
VISUALSTYLE
  5
36A
102
{ACAD_REACTORS
330
363
102
}
330
363
100
AcDbVisualStyle
  2
3dWireframe
 70
     5
 71
     0
 72
     2
 73
     0
 90
        0
 40
-0.6
 41
-30.0
 62
     5
 63
     7
 74
     1
 91
        4
 64
     7
 65
   257
 75
     1
175
     1
 42
1.0
 92
        0
 66
   257
 43
1.0
 76
     1
 77
     6
 78
     2
 67
     7
 79
     5
170
     0
171
     0
290
     0
174
     0
 93
        1
 44
0.0
173
     0
291
     0
 45
0.0
1001
ACAD
1000
AcDbSavedByObjectVersion
1070
     0
  0
VISUALSTYLE
  5
368
102
{ACAD_REACTORS
330
363
102
}
330
363
100
AcDbVisualStyle
  2
Basic
 70
     7
 71
     1
 72
     0
 73
     1
 90
        0
 40
-0.6
 41
-30.0
 62
     5
 63
     7
 74
     0
 91
        4
 64
     7
 65
   257
 75
     1
175
     1
 42
1.0
 92
        8
 66
     7
 43
1.0
 76
     1
 77
     6
 78
     2
 67
     7
 79
     5
170
     0
171
     0
290
     0
174
     0
 93
        1
 44
0.0
173
     0
291
     1
 45
0.0
1001
ACAD
1000
AcDbSavedByObjectVersion
1070
     0
  0
VISUALSTYLE
  5
36F
102
{ACAD_REACTORS
330
363
102
}
330
363
100
AcDbVisualStyle
  2
Brighten
 70
    12
 71
     2
 72
     2
 73
     0
 90
        0
 40
-0.6
 41
-30.0
 62
     5
 63
     7
 74
     1
 91
        4
 64
     7
 65
   257
 75
     1
175
     1
 42
1.0
 92
        8
 66
     7
 43
1.0
 76
     1
 77
     6
 78
     2
 67
     7
 79
     5
170
     0
171
     0
290
     0
174
     0
 93
        1
 44
50.0
173
     0
291
     1
 45
0.0
1001
ACAD
1000
AcDbSavedByObjectVersion
1070
     0
  0
VISUALSTYLE
  5
373
102
{ACAD_REACTORS
330
363
102
}
330
363
100
AcDbVisualStyle
  2
ColorChange
 70
    16
 71
     2
 72
     2
 73
     3
 90
        0
 40
-0.6
 41
-30.0
 62
     5
 63
     8
 74
     1
 91
        4
 64
     7
 65
   257
 75
     1
175
     1
 42
1.0
 92
        8
 66
     8
 43
1.0
 76
     1
 77
     6
 78
     2
 67
     7
 79
     5
170
     0
171
     0
290
     0
174
     0
 93
        1
 44
0.0
173
     0
291
     1
 45
0.0
1001
ACAD
1000
AcDbSavedByObjectVersion
1070
     0
  0
VISUALSTYLE
  5
36C
102
{ACAD_REACTORS
330
363
102
}
330
363
100
AcDbVisualStyle
  2
Conceptual
 70
     9
 71
     3
 72
     2
 73
     0
 90
        0
 40
-0.6
 41
-30.0
 62
     5
 63
     7
 74
     2
 91
        2
 64
     7
 65
   257
 75
     1
175
     1
 42
40.0
 92
        8
 66
     7
 43
1.0
 76
     1
 77
     6
 78
     2
 67
     7
 79
     3
170
     0
171
     0
290
     0
174
     0
 93
        1
 44
0.0
173
     0
291
     0
 45
0.0
1001
ACAD
1000
AcDbSavedByObjectVersion
1070
     0
  0
VISUALSTYLE
  5
36E
102
{ACAD_REACTORS
330
363
102
}
330
363
100
AcDbVisualStyle
  2
Dim
 70
    11
 71
     2
 72
     2
 73
     0
 90
        0
 40
-0.6
 41
-30.0
 62
     5
 63
     7
 74
     1
 91
        4
 64
     7
 65
   257
 75
     1
175
     1
 42
1.0
 92
        8
 66
     7
 43
1.0
 76
     1
 77
     6
 78
     2
 67
     7
 79
     5
170
     0
171
     0
290
     0
174
     0
 93
        1
 44
-50.0
173
     0
291
     1
 45
0.0
1001
ACAD
1000
AcDbSavedByObjectVersion
1070
     0
  0
VISUALSTYLE
  5
372
102
{ACAD_REACTORS
330
363
102
}
330
363
100
AcDbVisualStyle
  2
Facepattern
 70
    15
 71
     2
 72
     2
 73
     0
 90
        0
 40
-0.6
 41
-30.0
 62
     5
 63
     7
 74
     1
 91
        4
 64
     7
 65
   257
 75
     1
175
     1
 42
1.0
 92
        8
 66
     7
 43
1.0
 76
     1
 77
     6
 78
     2
 67
     7
 79
     5
170
     0
171
     0
290
     0
174
     0
 93
        1
 44
0.0
173
     0
291
     1
 45
0.0
1001
ACAD
1000
AcDbSavedByObjectVersion
1070
     0
  0
VISUALSTYLE
  5
364
102
{ACAD_REACTORS
330
363
102
}
330
363
100
AcDbVisualStyle
  2
Flat
 70
     0
 71
     2
 72
     1
 73
     1
 90
        2
 40
-0.6
 41
30.0
 62
     5
 63
     7
 74
     0
 91
        4
 64
     7
 65
   257
 75
     1
175
     1
 42
1.0
 92
        8
 66
     7
 43
1.0
 76
     1
 77
     6
 78
     2
 67
     7
 79
     5
170
     0
171
     0
290
     0
174
     0
 93
       13
 44
0.0
173
     0
291
     1
 45
0.0
1001
ACAD
1000
AcDbSavedByObjectVersion
1070
     0
  0
VISUALSTYLE
  5
365
102
{ACAD_REACTORS
330
363
102
}
330
363
100
AcDbVisualStyle
  2
FlatWithEdges
 70
     1
 71
     2
 72
     1
 73
     1
 90
        2
 40
-0.6
 41
30.0
 62
     5
 63
     7
 74
     1
 91
        4
 64
     7
 65
   257
 75
     1
175
     1
 42
1.0
 92
        0
 66
   257
 43
1.0
 76
     1
 77
     6
 78
     2
 67
     7
 79
     5
170
     0
171
     0
290
     0
174
     0
 93
       13
 44
0.0
173
     0
291
     1
 45
0.0
1001
ACAD
1000
AcDbSavedByObjectVersion
1070
     0
  0
VISUALSTYLE
  5
366
102
{ACAD_REACTORS
330
363
102
}
330
363
100
AcDbVisualStyle
  2
Gouraud
 70
     2
 71
     2
 72
     2
 73
     1
 90
        2
 40
-0.6
 41
30.0
 62
     5
 63
     7
 74
     0
 91
        4
 64
     7
 65
   257
 75
     1
175
     1
 42
1.0
 92
        0
 66
     7
 43
1.0
 76
     1
 77
     6
 78
     2
 67
     7
 79
     5
170
     0
171
     0
290
     0
174
     0
 93
       13
 44
0.0
173
     0
291
     1
 45
0.0
1001
ACAD
1000
AcDbSavedByObjectVersion
1070
     0
  0
VISUALSTYLE
  5
367
102
{ACAD_REACTORS
330
363
102
}
330
363
100
AcDbVisualStyle
  2
GouraudWithEdges
 70
     3
 71
     2
 72
     2
 73
     1
 90
        2
 40
-0.6
 41
30.0
 62
     5
 63
     7
 74
     1
 91
        4
 64
     7
 65
   257
 75
     1
175
     1
 42
1.0
 92
        0
 66
   257
 43
1.0
 76
     1
 77
     6
 78
     2
 67
     7
 79
     5
170
     0
171
     0
290
     0
174
     0
 93
       13
 44
0.0
173
     0
291
     1
 45
0.0
1001
ACAD
1000
AcDbSavedByObjectVersion
1070
     0
  0
VISUALSTYLE
  5
371
102
{ACAD_REACTORS
330
363
102
}
330
363
100
AcDbVisualStyle
  2
Linepattern
 70
    14
 71
     2
 72
     2
 73
     0
 90
        0
 40
-0.6
 41
-30.0
 62
     5
 63
     7
 74
     1
 91
        4
 64
     7
 65
   257
 75
     7
175
     7
 42
1.0
 92
        8
 66
     7
 43
1.0
 76
     1
 77
     6
 78
     2
 67
     7
 79
     5
170
     0
171
     0
290
     0
174
     0
 93
        1
 44
0.0
173
     0
291
     1
 45
0.0
1001
ACAD
1000
AcDbSavedByObjectVersion
1070
     0
  0
VISUALSTYLE
  5
36D
102
{ACAD_REACTORS
330
363
102
}
330
363
100
AcDbVisualStyle
  2
Realistic
 70
     8
 71
     2
 72
     2
 73
     0
 90
        0
 40
-0.6
 41
-30.0
 62
     5
 63
     7
 74
     1
 91
        0
 64
     7
 65
   257
 75
     1
175
     1
 42
1.0
 92
        8
 66
     8
 43
1.0
 76
     1
 77
     6
 78
     2
 67
     7
 79
     5
170
     0
171
     0
290
     0
174
     0
 93
       13
 44
0.0
173
     0
291
     0
 45
0.0
1001
ACAD
1000
AcDbSavedByObjectVersion
1070
     0
  0
VISUALSTYLE
  5
370
102
{ACAD_REACTORS
330
363
102
}
330
363
100
AcDbVisualStyle
  2
Thicken
 70
    13
 71
     2
 72
     2
 73
     0
 90
        0
 40
-0.6
 41
-30.0
 62
     5
 63
     7
 74
     1
 91
        4
 64
     7
 65
   257
 75
     1
175
     1
 42
1.0
 92
       12
 66
     7
 43
1.0
 76
     1
 77
     6
 78
     2
 67
     7
 79
     5
170
     0
171
     0
290
     0
174
     0
 93
        1
 44
0.0
173
     0
291
     1
 45
0.0
1001
ACAD
1000
AcDbSavedByObjectVersion
1070
     0
  0
DICTIONARYVAR
  5
380
102
{ACAD_REACTORS
330
37F
102
}
330
37F
100
DictionaryVariables
280
     0
  1
STANDARD
  0
DICTIONARYVAR
  5
383
102
{ACAD_REACTORS
330
37F
102
}
330
37F
100
DictionaryVariables
280
     0
  1
1
  0
DICTIONARYVAR
  5
382
102
{ACAD_REACTORS
330
37F
102
}
330
37F
100
DictionaryVariables
280
     0
  1
0
  0
DICTIONARYVAR
  5
381
102
{ACAD_REACTORS
330
37F
102
}
330
37F
100
DictionaryVariables
280
     0
  1
127
  0
DICTIONARY
  5
387
330
22
100
AcDbDictionary
280
     1
281
     1
  3
ACAD_XREC_ROUNDTRIP
360
388
  0
DICTIONARY
  5
385
330
1E
100
AcDbDictionary
280
     1
281
     1
  3
ACAD_XREC_ROUNDTRIP
360
386
  0
DICTIONARY
  5
389
330
26
100
AcDbDictionary
280
     1
281
     1
  3
ACAD_XREC_ROUNDTRIP
360
38A
  0
DICTIONARY
  5
38D
330
361
100
AcDbDictionary
280
     1
281
     1
  3
ACAD_XREC_ROUNDTRIP
360
38E
  0
DICTIONARY
  5
38B
330
360
100
AcDbDictionary
280
     1
281
     1
  3
ACAD_XREC_ROUNDTRIP
360
38C
  0
DICTIONARY
  5
38F
330
362
100
AcDbDictionary
280
     1
281
     1
  3
ACAD_XREC_ROUNDTRIP
360
390
  0
DICTIONARY
  5
391
330
376
100
AcDbDictionary
280
     1
281
     1
  3
ACAD_XREC_ROUNDTRIP
360
392
  0
XRECORD
  5
388
102
{ACAD_REACTORS
330
387
102
}
330
387
100
AcDbXrecord
280
     1
102
SHADEPLOT
 70
     0
102
SHADEPLOTRESLEVEL
 70
     2
102
SHADEPLOTCUSTOMDPI
 70
   300
  0
XRECORD
  5
386
102
{ACAD_REACTORS
330
385
102
}
330
385
100
AcDbXrecord
280
     1
102
SHADEPLOT
 70
     0
102
SHADEPLOTRESLEVEL
 70
     2
102
SHADEPLOTCUSTOMDPI
 70
   300
  0
XRECORD
  5
38A
102
{ACAD_REACTORS
330
389
102
}
330
389
100
AcDbXrecord
280
     1
102
SHADEPLOT
 70
     0
102
SHADEPLOTRESLEVEL
 70
     2
102
SHADEPLOTCUSTOMDPI
 70
   300
  0
XRECORD
  5
38E
102
{ACAD_REACTORS
330
38D
102
}
330
38D
100
AcDbXrecord
280
     1
102
MATERIAL
148
0.0
149
0.0
149
0.0
 93
        0
 94
       63
282
     0
 72
     1
 77
     1
171
     1
175
     1
179
     1
273
     0
  0
XRECORD
  5
38C
102
{ACAD_REACTORS
330
38B
102
}
330
38B
100
AcDbXrecord
280
     1
102
MATERIAL
148
0.0
149
0.0
149
0.0
 93
        0
 94
       63
282
     0
 72
     1
 77
     1
171
     1
175
     1
179
     1
273
     0
  0
XRECORD
  5
390
102
{ACAD_REACTORS
330
38F
102
}
330
38F
100
AcDbXrecord
280
     1
102
MATERIAL
148
0.0
149
0.0
149
0.0
 93
        0
 94
       63
282
     0
 72
     1
 77
     1
171
     1
175
     1
179
     1
273
     0
  0
XRECORD
  5
392
102
{ACAD_REACTORS
330
391
102
}
330
391
100
AcDbXrecord
280
     1
102
ACAD_ROUNDTRIP_PRE2007_TABLESTYLE
 90
      512
 91
        0
  1

 92
      512
 93
        0
  2

 94
      512
 95
        0
  3

  0
ENDSEC
  0
EOF
