  0
SECTION
  2
HEADER
  9
$ACADVER
  1
AC1015
  9
$ACADMAINTVER
 70
    20
  9
$DWGCODEPAGE
  3
ANSI_932
  9
$INSBASE
 10
0.0
 20
0.0
 30
0.0
  9
$EXTMIN
 10
98.84299999999999
 20
126.713
 30
0.0
  9
$EXTMAX
 10
514.591999865
 20
368.6832499999999
 30
0.0
  9
$LIMMIN
 10
0.0
 20
0.0
  9
$LIMMAX
 10
594.0
 20
420.0
  9
$ORTHOMODE
 70
     0
  9
$REGENMODE
 70
     1
  9
$FILLMODE
 70
     1
  9
$QTEXTMODE
 70
     0
  9
$MIRRTEXT
 70
     1
  9
$LTSCALE
 40
1.0
  9
$ATTMODE
 70
     1
  9
$TEXTSIZE
 40
2.5
  9
$TRACEWID
 40
1.0
  9
$TEXTSTYLE
  7
Standard
  9
$CLAYER
  8
0
  9
$CELTYPE
  6
ByLayer
  9
$CECOLOR
 62
   256
  9
$CELTSCALE
 40
1.0
  9
$DISPSILH
 70
     0
  9
$DIMSCALE
 40
1.0
  9
$DIMASZ
 40
2.5
  9
$DIMEXO
 40
0.625
  9
$DIMDLI
 40
3.75
  9
$DIMRND
 40
0.0
  9
$DIMDLE
 40
0.0
  9
$DIMEXE
 40
1.25
  9
$DIMTP
 40
0.0
  9
$DIMTM
 40
0.0
  9
$DIMTXT
 40
2.5
  9
$DIMCEN
 40
2.5
  9
$DIMTSZ
 40
0.0
  9
$DIMTOL
 70
     0
  9
$DIMLIM
 70
     0
  9
$DIMTIH
 70
     0
  9
$DIMTOH
 70
     0
  9
$DIMSE1
 70
     0
  9
$DIMSE2
 70
     0
  9
$DIMTAD
 70
     1
  9
$DIMZIN
 70
     8
  9
$DIMBLK
  1

  9
$DIMASO
 70
     1
  9
$DIMSHO
 70
     1
  9
$DIMPOST
  1

  9
$DIMAPOST
  1

  9
$DIMALT
 70
     0
  9
$DIMALTD
 70
     3
  9
$DIMALTF
 40
0.03937007874016
  9
$DIMLFAC
 40
1.0
  9
$DIMTOFL
 70
     1
  9
$DIMTVP
 40
0.0
  9
$DIMTIX
 70
     0
  9
$DIMSOXD
 70
     0
  9
$DIMSAH
 70
     0
  9
$DIMBLK1
  1

  9
$DIMBLK2
  1

  9
$DIMSTYLE
  2
ISO-25
  9
$DIMCLRD
 70
     0
  9
$DIMCLRE
 70
     0
  9
$DIMCLRT
 70
     0
  9
$DIMTFAC
 40
1.0
  9
$DIMGAP
 40
0.625
  9
$DIMJUST
 70
     0
  9
$DIMSD1
 70
     0
  9
$DIMSD2
 70
     0
  9
$DIMTOLJ
 70
     0
  9
$DIMTZIN
 70
     8
  9
$DIMALTZ
 70
     0
  9
$DIMALTTZ
 70
     0
  9
$DIMUPT
 70
     0
  9
$DIMDEC
 70
     2
  9
$DIMTDEC
 70
     2
  9
$DIMALTU
 70
     2
  9
$DIMALTTD
 70
     3
  9
$DIMTXSTY
  7
Standard
  9
$DIMAUNIT
 70
     0
  9
$DIMADEC
 70
     0
  9
$DIMALTRND
 40
0.0
  9
$DIMAZIN
 70
     0
  9
$DIMDSEP
 70
    46
  9
$DIMATFIT
 70
     3
  9
$DIMFRAC
 70
     0
  9
$DIMLDRBLK
  1

  9
$DIMLUNIT
 70
     2
  9
$DIMLWD
 70
    -2
  9
$DIMLWE
 70
    -2
  9
$DIMTMOVE
 70
     0
  9
$LUNITS
 70
     2
  9
$LUPREC
 70
     4
  9
$SKETCHINC
 40
1.0
  9
$FILLETRAD
 40
10.0
  9
$AUNITS
 70
     0
  9
$AUPREC
 70
     0
  9
$MENU
  1
.
  9
$ELEVATION
 40
0.0
  9
$PELEVATION
 40
0.0
  9
$THICKNESS
 40
0.0
  9
$LIMCHECK
 70
     0
  9
$CHAMFERA
 40
10.0
  9
$CHAMFERB
 40
10.0
  9
$CHAMFERC
 40
20.0
  9
$CHAMFERD
 40
0.0
  9
$SKPOLY
 70
     0
  9
$TDCREATE
 40
2456485.622205220
  9
$TDUCREATE
 40
2456485.247205220
  9
$TDUPDATE
 40
2456485.622851378
  9
$TDUUPDATE
 40
2456485.247851377
  9
$TDINDWG
 40
0.0006468866
  9
$TDUSRTIMER
 40
0.0006468866
  9
$USRTIMER
 70
     1
  9
$ANGBASE
 50
0.0
  9
$ANGDIR
 70
     0
  9
$PDMODE
 70
     0
  9
$PDSIZE
 40
0.0
  9
$PLINEWID
 40
0.0
  9
$SPLFRAME
 70
     0
  9
$SPLINETYPE
 70
     6
  9
$SPLINESEGS
 70
     8
  9
$HANDSEED
  5
525
  9
$SURFTAB1
 70
     6
  9
$SURFTAB2
 70
     6
  9
$SURFTYPE
 70
     6
  9
$SURFU
 70
     6
  9
$SURFV
 70
     6
  9
$UCSBASE
  2

  9
$UCSNAME
  2

  9
$UCSORG
 10
0.0
 20
0.0
 30
0.0
  9
$UCSXDIR
 10
1.0
 20
0.0
 30
0.0
  9
$UCSYDIR
 10
0.0
 20
1.0
 30
0.0
  9
$UCSORTHOREF
  2

  9
$UCSORTHOVIEW
 70
     0
  9
$UCSORGTOP
 10
0.0
 20
0.0
 30
0.0
  9
$UCSORGBOTTOM
 10
0.0
 20
0.0
 30
0.0
  9
$UCSORGLEFT
 10
0.0
 20
0.0
 30
0.0
  9
$UCSORGRIGHT
 10
0.0
 20
0.0
 30
0.0
  9
$UCSORGFRONT
 10
0.0
 20
0.0
 30
0.0
  9
$UCSORGBACK
 10
0.0
 20
0.0
 30
0.0
  9
$PUCSBASE
  2

  9
$PUCSNAME
  2

  9
$PUCSORG
 10
0.0
 20
0.0
 30
0.0
  9
$PUCSXDIR
 10
1.0
 20
0.0
 30
0.0
  9
$PUCSYDIR
 10
0.0
 20
1.0
 30
0.0
  9
$PUCSORTHOREF
  2

  9
$PUCSORTHOVIEW
 70
     0
  9
$PUCSORGTOP
 10
0.0
 20
0.0
 30
0.0
  9
$PUCSORGBOTTOM
 10
0.0
 20
0.0
 30
0.0
  9
$PUCSORGLEFT
 10
0.0
 20
0.0
 30
0.0
  9
$PUCSORGRIGHT
 10
0.0
 20
0.0
 30
0.0
  9
$PUCSORGFRONT
 10
0.0
 20
0.0
 30
0.0
  9
$PUCSORGBACK
 10
0.0
 20
0.0
 30
0.0
  9
$USERI1
 70
     0
  9
$USERI2
 70
     0
  9
$USERI3
 70
     0
  9
$USERI4
 70
     0
  9
$USERI5
 70
     0
  9
$USERR1
 40
0.0
  9
$USERR2
 40
0.0
  9
$USERR3
 40
0.0
  9
$USERR4
 40
0.0
  9
$USERR5
 40
0.0
  9
$WORLDVIEW
 70
     1
  9
$SHADEDGE
 70
     3
  9
$SHADEDIF
 70
    70
  9
$TILEMODE
 70
     1
  9
$MAXACTVP
 70
    64
  9
$PINSBASE
 10
0.0
 20
0.0
 30
0.0
  9
$PLIMCHECK
 70
     0
  9
$PEXTMIN
 10
1.000000000000000E+20
 20
1.000000000000000E+20
 30
1.000000000000000E+20
  9
$PEXTMAX
 10
-1.000000000000000E+20
 20
-1.000000000000000E+20
 30
-1.000000000000000E+20
  9
$PLIMMIN
 10
0.0
 20
0.0
  9
$PLIMMAX
 10
0.0
 20
0.0
  9
$UNITMODE
 70
     0
  9
$VISRETAIN
 70
     0
  9
$PLINEGEN
 70
     0
  9
$PSLTSCALE
 70
     1
  9
$TREEDEPTH
 70
  3020
  9
$CMLSTYLE
  2
Standard
  9
$CMLJUST
 70
     0
  9
$CMLSCALE
 40
20.0
  9
$PROXYGRAPHICS
 70
     1
  9
$MEASUREMENT
 70
     1
  9
$CELWEIGHT
370
    -1
  9
$ENDCAPS
280
     0
  9
$JOINSTYLE
280
     0
  9
$LWDISPLAY
290
     0
  9
$INSUNITS
 70
     4
  9
$HYPERLINKBASE
  1

  9
$STYLESHEET
  1

  9
$XEDIT
290
     1
  9
$CEPSNTYPE
380
     0
  9
$PSTYLEMODE
290
     1
  9
$FINGERPRINTGUID
  2
{A6E2B78E-3140-DCA3-AAEE-C450B8C774D5}
  9
$VERSIONGUID
  2
{63C6D7CC-4A78-4A02-85A6-E228ABD8BEC3}
  9
$EXTNAMES
290
     1
  9
$PSVPSCALE
 40
0.0
  9
$OLESTARTUP
290
     0
  0
ENDSEC
  0
SECTION
  2
CLASSES
  0
CLASS
  1
ACDBDICTIONARYWDFLT
  2
AcDbDictionaryWithDefault
  3
ObjectDBX Classes
 90
        0
280
     0
281
     0
  0
CLASS
  1
MATERIAL
  2
AcDbMaterial
  3
ObjectDBX Classes
 90
     1024
280
     0
281
     0
  0
CLASS
  1
VISUALSTYLE
  2
AcDbVisualStyle
  3
ObjectDBX Classes
 90
     4095
280
     0
281
     0
  0
CLASS
  1
TABLESTYLE
  2
AcDbTableStyle
  3
ObjectDBX Classes
 90
     4095
280
     0
281
     0
  0
CLASS
  1
DICTIONARYVAR
  2
AcDbDictionaryVar
  3
ObjectDBX Classes
 90
        0
280
     0
281
     0
  0
CLASS
  1
ACDBPLACEHOLDER
  2
AcDbPlaceHolder
  3
ObjectDBX Classes
 90
        0
280
     0
281
     0
  0
CLASS
  1
LAYOUT
  2
AcDbLayout
  3
ObjectDBX Classes
 90
        0
280
     0
281
     0
  0
ENDSEC
  0
SECTION
  2
TABLES
  0
TABLE
  2
VPORT
  5
8
330
0
100
AcDbSymbolTable
 70
     1
  0
VPORT
  5
29
330
8
100
AcDbSymbolTableRecord
100
AcDbViewportTableRecord
  2
*Active
 70
     0
 10
0.0
 20
0.0
 11
1.0
 21
1.0
 12
334.5043214478047
 22
248.5628503678777
 13
0.0
 23
0.0
 14
10.0
 24
10.0
 15
0.0
 25
0.0
 16
0.0
 26
0.0
 36
1.0
 17
0.0
 27
0.0
 37
0.0
 40
412.3344867545878
 41
1.449367088607594
 42
50.0
 43
0.0
 44
0.0
 50
0.0
 51
0.0
 71
     0
 72
  1000
 73
     1
 74
     3
 75
     0
 76
     0
 77
     0
 78
     0
281
     0
 65
     0
110
0.0
120
0.0
130
0.0
111
1.0
121
0.0
131
0.0
112
0.0
122
1.0
132
0.0
 79
     0
146
0.0
  0
ENDTAB
  0
TABLE
  2
LTYPE
  5
5
330
0
100
AcDbSymbolTable
 70
     1
  0
LTYPE
  5
14
330
5
100
AcDbSymbolTableRecord
100
AcDbLinetypeTableRecord
  2
ByBlock
 70
     0
  3

 72
    65
 73
     0
 40
0.0
  0
LTYPE
  5
15
330
5
100
AcDbSymbolTableRecord
100
AcDbLinetypeTableRecord
  2
ByLayer
 70
     0
  3

 72
    65
 73
     0
 40
0.0
  0
LTYPE
  5
16
330
5
100
AcDbSymbolTableRecord
100
AcDbLinetypeTableRecord
  2
Continuous
 70
     0
  3
Solid line
 72
    65
 73
     0
 40
0.0
  0
ENDTAB
  0
TABLE
  2
LAYER
  5
2
102
{ACAD_XDICTIONARY
360
50C
102
}
330
0
100
AcDbSymbolTable
 70
   127
  0
LAYER
  5
10
330
2
100
AcDbSymbolTableRecord
100
AcDbLayerTableRecord
  2
0
 70
     0
 62
     7
  6
Continuous
370
    -3
390
F
  0
LAYER
  5
2A
330
2
100
AcDbSymbolTableRecord
100
AcDbLayerTableRecord
  2
4
 70
     0
 62
     7
  6
Continuous
370
    -3
390
F
  0
ENDTAB
  0
TABLE
  2
STYLE
  5
3
330
0
100
AcDbSymbolTable
 70
    10
  0
STYLE
  5
11
330
3
100
AcDbSymbolTableRecord
100
AcDbTextStyleTableRecord
  2
Standard
 70
     0
 40
0.0
 41
1.0
 50
0.0
 71
     0
 42
2.5
  3
txt.shx
  4
extfont.shx
  0
STYLE
  5
366
330
3
100
AcDbSymbolTableRecord
100
AcDbTextStyleTableRecord
  2
KANJI0
 70
     0
 40
1.8
 41
0.7780000000000001
 50
0.0
 71
     0
 42
1.8
  3
txt.shx
  4
extfont.shx
  0
STYLE
  5
368
330
3
100
AcDbSymbolTableRecord
100
AcDbTextStyleTableRecord
  2
KANJI1
 70
     0
 40
1.7
 41
1.0
 50
0.0
 71
     0
 42
1.7
  3
txt.shx
  4
extfont.shx
  0
STYLE
  5
36A
330
3
100
AcDbSymbolTableRecord
100
AcDbTextStyleTableRecord
  2
KANJI2
 70
     0
 40
1.7
 41
0.7410000000000001
 50
0.0
 71
     0
 42
1.7
  3
txt.shx
  4
extfont.shx
  0
STYLE
  5
36C
330
3
100
AcDbSymbolTableRecord
100
AcDbTextStyleTableRecord
  2
KANJI3
 70
     0
 40
1.8
 41
1.0
 50
0.0
 71
     0
 42
1.8
  3
txt.shx
  4
extfont.shx
  0
STYLE
  5
36E
330
3
100
AcDbSymbolTableRecord
100
AcDbTextStyleTableRecord
  2
KANJI4
 70
     0
 40
3.299999999999999
 41
0.947
 50
0.0
 71
     0
 42
3.299999999999999
  3
txt.shx
  4
extfont.shx
  0
STYLE
  5
370
330
3
100
AcDbSymbolTableRecord
100
AcDbTextStyleTableRecord
  2
KANJI5
 70
     0
 40
4.987499999999999
 41
1.0
 50
0.0
 71
     0
 42
4.987499999999999
  3
txt.shx
  4
extfont.shx
  0
STYLE
  5
372
330
3
100
AcDbSymbolTableRecord
100
AcDbTextStyleTableRecord
  2
KANJI6
 70
     0
 40
5.5125
 41
0.8919999999999999
 50
0.0
 71
     0
 42
5.5125
  3
txt.shx
  4
extfont.shx
  0
STYLE
  5
37A
330
3
100
AcDbSymbolTableRecord
100
AcDbTextStyleTableRecord
  2
KANJI7
 70
     0
 40
4.41
 41
0.974
 50
0.0
 71
     0
 42
4.41
  3
txt.shx
  4
extfont.shx
  0
STYLE
  5
4B2
330
3
100
AcDbSymbolTableRecord
100
AcDbTextStyleTableRecord
  2
KANJI8
 70
     0
 40
4.0
 41
1.0
 50
0.0
 71
     0
 42
4.0
  3
txt.shx
  4
extfont.shx
  0
ENDTAB
  0
TABLE
  2
VIEW
  5
6
330
0
100
AcDbSymbolTable
 70
     0
  0
ENDTAB
  0
TABLE
  2
UCS
  5
7
330
0
100
AcDbSymbolTable
 70
     0
  0
ENDTAB
  0
TABLE
  2
APPID
  5
9
330
0
100
AcDbSymbolTable
 70
     1
  0
APPID
  5
12
330
9
100
AcDbSymbolTableRecord
100
AcDbRegAppTableRecord
  2
ACAD
 70
     0
  0
ENDTAB
  0
TABLE
  2
DIMSTYLE
  5
A
330
0
100
AcDbSymbolTable
 70
     1
100
AcDbDimStyleTable
 71
     0
  0
DIMSTYLE
105
27
330
A
100
AcDbSymbolTableRecord
100
AcDbDimStyleTableRecord
  2
ISO-25
 70
     0
 41
2.5
 42
0.625
 43
3.75
 44
1.25
 73
     0
 74
     0
 77
     1
 78
     8
140
2.5
141
2.5
143
0.039370079
147
0.625
171
     3
172
     1
271
     2
272
     2
274
     3
284
     8
340
11
  0
ENDTAB
  0
TABLE
  2
BLOCK_RECORD
  5
1
330
0
100
AcDbSymbolTable
 70
     1
  0
BLOCK_RECORD
  5
1F
330
1
100
AcDbSymbolTableRecord
100
AcDbBlockTableRecord
  2
*Model_Space
340
22
  0
BLOCK_RECORD
  5
1B
330
1
100
AcDbSymbolTableRecord
100
AcDbBlockTableRecord
  2
*Paper_Space
340
1E
  0
BLOCK_RECORD
  5
23
330
1
100
AcDbSymbolTableRecord
100
AcDbBlockTableRecord
  2
*Paper_Space0
340
26
  0
ENDTAB
  0
ENDSEC
  0
SECTION
  2
BLOCKS
  0
BLOCK
  5
20
330
1F
100
AcDbEntity
  8
0
100
AcDbBlockBegin
  2
*Model_Space
 70
     0
 10
0.0
 20
0.0
 30
0.0
  3
*Model_Space
  1

  0
ENDBLK
  5
21
330
1F
100
AcDbEntity
  8
0
100
AcDbBlockEnd
  0
BLOCK
  5
1C
330
1B
100
AcDbEntity
 67
     1
  8
0
100
AcDbBlockBegin
  2
*Paper_Space
 70
     0
 10
0.0
 20
0.0
 30
0.0
  3
*Paper_Space
  1

  0
ENDBLK
  5
1D
330
1B
100
AcDbEntity
 67
     1
  8
0
100
AcDbBlockEnd
  0
BLOCK
  5
24
330
23
100
AcDbEntity
 67
     1
  8
0
100
AcDbBlockBegin
  2
*Paper_Space0
 70
     0
 10
0.0
 20
0.0
 30
0.0
  3
*Paper_Space0
  1

  0
ENDBLK
  5
25
330
23
100
AcDbEntity
 67
     1
  8
0
100
AcDbBlockEnd
  0
ENDSEC
  0
SECTION
  2
ENTITIES
  0
LINE
  5
A9
330
1F
100
AcDbEntity
  8
0
  6
Continuous
 62
     7
100
AcDbLine
 10
106.75866666
 20
247.813
 30
0.0
 11
106.963794865
 21
247.813
 31
0.0
  0
LINE
  5
AA
330
1F
100
AcDbEntity
  8
0
  6
Continuous
 62
     7
100
AcDbLine
 10
193.220205
 20
247.813
 30
0.0
 11
193.425333205
 21
247.813
 31
0.0
  0
ARC
  5
AB
330
1F
100
AcDbEntity
  8
0
  6
Continuous
 62
     7
100
AcDbCircle
 10
197.091999865
 20
294.812769162
 30
0.0
 40
1.0
100
AcDbArc
 50
0.0
 51
90.0
  0
LINE
  5
AC
330
1F
100
AcDbEntity
  8
0
  6
Continuous
 62
     7
100
AcDbLine
 10
197.091999865
 20
295.812769162
 30
0.0
 11
103.092
 21
295.812769162
 31
0.0
  0
ARC
  5
AD
330
1F
100
AcDbEntity
  8
0
  6
Continuous
 62
     7
100
AcDbCircle
 10
103.092
 20
294.812769162
 30
0.0
 40
1.0
100
AcDbArc
 50
90.0
 51
180.0
  0
LINE
  5
AE
330
1F
100
AcDbEntity
  8
0
  6
Continuous
 62
     7
100
AcDbLine
 10
102.092
 20
294.812769162
 30
0.0
 11
102.092
 21
248.813
 31
0.0
  0
ARC
  5
AF
330
1F
100
AcDbEntity
  8
0
  6
Continuous
 62
     7
100
AcDbCircle
 10
103.092
 20
248.813
 30
0.0
 40
1.0
100
AcDbArc
 50
180.0
 51
270.0
  0
LINE
  5
B0
330
1F
100
AcDbEntity
  8
0
  6
Continuous
 62
     7
100
AcDbLine
 10
198.091999865
 20
248.813
 30
0.0
 11
198.091999865
 21
294.812769162
 31
0.0
  0
LINE
  5
B1
330
1F
100
AcDbEntity
  8
0
  6
Continuous
 62
     7
100
AcDbLine
 10
103.092
 20
247.813
 30
0.0
 11
197.091999865
 21
247.813
 31
0.0
  0
ARC
  5
B2
330
1F
100
AcDbEntity
  8
0
  6
Continuous
 62
     7
100
AcDbCircle
 10
197.091999865
 20
248.813
 30
0.0
 40
1.0
100
AcDbArc
 50
270.0
 51
0.0
  0
LWPOLYLINE
  5
B4
330
1F
100
AcDbEntity
  8
0
  6
Continuous
 62
     7
100
AcDbPolyline
 90
        4
 70
   128
 43
0.0
 10
150.0919999329999
 20
288.812769162
 10
193.091999933
 20
288.812769162
 10
193.091999933
 20
260.812769162
 10
150.0919999329999
 20
260.812769162
  0
LWPOLYLINE
  5
B6
330
1F
100
AcDbEntity
  8
0
  6
Continuous
 62
     7
100
AcDbPolyline
 90
        4
 70
   128
 43
0.0
 10
150.0919999329999
 20
288.812769162
 10
107.091999933
 20
288.812769162
 10
107.091999933
 20
260.812769162
 10
150.0919999329999
 20
260.812769162
  0
LWPOLYLINE
  5
B8
330
1F
100
AcDbEntity
  8
0
  6
Continuous
 62
     7
100
AcDbPolyline
 90
        4
 70
   129
 43
0.0
 10
173.091999933
 20
251.313
 10
193.091999933
 20
251.313
 10
193.091999933
 20
259.313
 10
173.091999933
 20
259.313
  0
LINE
  5
B9
330
1F
100
AcDbEntity
  8
0
  6
Continuous
 62
     7
100
AcDbLine
 10
246.091999865
 20
289.612999582
 30
0.0
 11
246.091999865
 21
292.512999553
 31
0.0
  0
LINE
  5
BA
330
1F
100
AcDbEntity
  8
0
  6
Continuous
 62
     7
100
AcDbLine
 10
244.491999931
 20
295.81299952
 30
0.0
 11
246.091999865
 21
295.81299952
 31
0.0
  0
LWPOLYLINE
  5
BC
330
1F
100
AcDbEntity
  8
0
  6
Continuous
 62
     7
100
AcDbPolyline
 90
        3
 70
   128
 43
0.0
 10
244.491999931
 20
295.81299952
 10
244.491999931
 20
293.31299952
 10
244.291999931
 20
293.01299952
  0
LINE
  5
BD
330
1F
100
AcDbEntity
  8
0
  6
Continuous
 62
     7
100
AcDbLine
 10
246.091999865
 20
247.813
 30
0.0
 11
246.091999865
 21
295.81299952
 31
0.0
  0
LWPOLYLINE
  5
BF
330
1F
100
AcDbEntity
  8
0
  6
Continuous
 62
     7
100
AcDbPolyline
 90
        3
 70
   128
 43
0.0
 10
244.491999931
 20
247.813
 10
244.491999931
 20
250.313
 10
244.291999931
 20
250.613
  0
LINE
  5
C0
330
1F
100
AcDbEntity
  8
0
  6
Continuous
 62
     7
100
AcDbLine
 10
244.291999931
 20
293.01299952
 30
0.0
 11
244.291999931
 21
250.613
 31
0.0
  0
LINE
  5
C1
330
1F
100
AcDbEntity
  8
0
  6
Continuous
 62
     7
100
AcDbLine
 10
246.091999865
 20
247.813
 30
0.0
 11
244.491999931
 21
247.813
 31
0.0
  0
LWPOLYLINE
  5
C3
330
1F
100
AcDbEntity
  8
0
  6
Continuous
 62
     7
100
AcDbPolyline
 90
        4
 70
   128
 43
0.0
 10
246.091999865
 20
290.41299982
 10
248.791999865
 20
290.41299982
 10
248.791999865
 20
288.11299982
 10
246.091999865
 20
288.11299982
  0
LWPOLYLINE
  5
C5
330
1F
100
AcDbEntity
  8
0
  6
Continuous
 62
     7
100
AcDbPolyline
 90
        4
 70
   128
 43
0.0
 10
246.091999865
 20
253.2129997
 10
248.791999865
 20
253.2129997
 10
248.791999865
 20
255.5129997
 10
246.091999865
 20
255.5129997
  0
LINE
  5
C6
330
1F
100
AcDbEntity
  8
0
  6
Continuous
 62
     7
100
AcDbLine
 10
255.991999855
 20
285.9129997
 30
0.0
 11
257.891999855
 21
285.9129997
 31
0.0
  0
LINE
  5
C7
330
1F
100
AcDbEntity
  8
0
  6
Continuous
 62
     7
100
AcDbLine
 10
259.591999855
 20
285.9129997
 30
0.0
 11
261.491999855
 21
285.9129997
 31
0.0
  0
LINE
  5
C8
330
1F
100
AcDbEntity
  8
0
  6
Continuous
 62
     7
100
AcDbLine
 10
263.191999855
 20
285.9129997
 30
0.0
 11
265.091999855
 21
285.9129997
 31
0.0
  0
LINE
  5
C9
330
1F
100
AcDbEntity
  8
0
  6
Continuous
 62
     7
100
AcDbLine
 10
266.791999855
 20
285.9129997
 30
0.0
 11
268.691999855
 21
285.9129997
 31
0.0
  0
LINE
  5
CA
330
1F
100
AcDbEntity
  8
0
  6
Continuous
 62
     7
100
AcDbLine
 10
270.391999855
 20
285.9129997
 30
0.0
 11
272.291999855
 21
285.9129997
 31
0.0
  0
LINE
  5
CB
330
1F
100
AcDbEntity
  8
0
  6
Continuous
 62
     7
100
AcDbLine
 10
255.991999855
 20
257.71299982
 30
0.0
 11
257.891999855
 21
257.71299982
 31
0.0
  0
LINE
  5
CC
330
1F
100
AcDbEntity
  8
0
  6
Continuous
 62
     7
100
AcDbLine
 10
259.591999855
 20
257.71299982
 30
0.0
 11
261.491999855
 21
257.71299982
 31
0.0
  0
LINE
  5
CD
330
1F
100
AcDbEntity
  8
0
  6
Continuous
 62
     7
100
AcDbLine
 10
263.191999855
 20
257.71299982
 30
0.0
 11
265.091999855
 21
257.71299982
 31
0.0
  0
LINE
  5
CE
330
1F
100
AcDbEntity
  8
0
  6
Continuous
 62
     7
100
AcDbLine
 10
266.791999855
 20
257.71299982
 30
0.0
 11
268.691999855
 21
257.71299982
 31
0.0
  0
LINE
  5
CF
330
1F
100
AcDbEntity
  8
0
  6
Continuous
 62
     7
100
AcDbLine
 10
270.391999855
 20
257.71299982
 30
0.0
 11
272.291999855
 21
257.71299982
 31
0.0
  0
LINE
  5
D0
330
1F
100
AcDbEntity
  8
0
  6
Continuous
 62
     7
100
AcDbLine
 10
121.381999933
 20
260.812769162
 30
0.0
 11
107.091999933
 21
260.812769162
 31
0.0
  0
LINE
  5
D1
330
1F
100
AcDbEntity
  8
0
  6
Continuous
 62
     7
100
AcDbLine
 10
236.091999865
 20
248.413
 30
0.0
 11
244.491999931
 21
247.813
 31
0.0
  0
LINE
  5
D2
330
1F
100
AcDbEntity
  8
0
  6
Continuous
 62
     7
100
AcDbLine
 10
244.491999931
 20
295.81299952
 30
0.0
 11
236.091999865
 21
295.51299952
 31
0.0
  0
LINE
  5
D3
330
1F
100
AcDbEntity
  8
0
  6
Continuous
 62
     7
100
AcDbLine
 10
236.091999865
 20
248.413
 30
0.0
 11
236.091999865
 21
295.51299952
 31
0.0
  0
LINE
  5
D4
330
1F
100
AcDbEntity
  8
0
  6
Continuous
 62
     7
100
AcDbLine
 10
255.991999855
 20
271.81299982
 30
0.0
 11
255.991999855
 21
257.71299982
 31
0.0
  0
LINE
  5
D5
330
1F
100
AcDbEntity
  8
0
  6
Continuous
 62
     7
100
AcDbLine
 10
257.891999855
 20
257.71299982
 30
0.0
 11
257.891999855
 21
271.81299982
 31
0.0
  0
LINE
  5
D6
330
1F
100
AcDbEntity
  8
0
  6
Continuous
 62
     7
100
AcDbLine
 10
259.591999855
 20
271.81299982
 30
0.0
 11
259.591999855
 21
257.71299982
 31
0.0
  0
LINE
  5
D7
330
1F
100
AcDbEntity
  8
0
  6
Continuous
 62
     7
100
AcDbLine
 10
261.491999855
 20
257.71299982
 30
0.0
 11
261.491999855
 21
271.81299982
 31
0.0
  0
LINE
  5
D8
330
1F
100
AcDbEntity
  8
0
  6
Continuous
 62
     7
100
AcDbLine
 10
263.191999855
 20
271.81299982
 30
0.0
 11
263.191999855
 21
257.71299982
 31
0.0
  0
LINE
  5
D9
330
1F
100
AcDbEntity
  8
0
  6
Continuous
 62
     7
100
AcDbLine
 10
265.091999855
 20
257.71299982
 30
0.0
 11
265.091999855
 21
271.81299982
 31
0.0
  0
LINE
  5
DA
330
1F
100
AcDbEntity
  8
0
  6
Continuous
 62
     7
100
AcDbLine
 10
266.791999855
 20
271.81299982
 30
0.0
 11
266.791999855
 21
257.71299982
 31
0.0
  0
LINE
  5
DB
330
1F
100
AcDbEntity
  8
0
  6
Continuous
 62
     7
100
AcDbLine
 10
268.691999855
 20
257.71299982
 30
0.0
 11
268.691999855
 21
271.81299982
 31
0.0
  0
LINE
  5
DC
330
1F
100
AcDbEntity
  8
0
  6
Continuous
 62
     7
100
AcDbLine
 10
270.391999855
 20
271.81299982
 30
0.0
 11
270.391999855
 21
257.71299982
 31
0.0
  0
LINE
  5
DD
330
1F
100
AcDbEntity
  8
0
  6
Continuous
 62
     7
100
AcDbLine
 10
272.291999855
 20
257.71299982
 30
0.0
 11
272.291999855
 21
271.81299982
 31
0.0
  0
LINE
  5
DE
330
1F
100
AcDbEntity
  8
0
  6
Continuous
 62
     7
100
AcDbLine
 10
255.991999855
 20
271.81299982
 30
0.0
 11
257.891999855
 21
271.81299982
 31
0.0
  0
LINE
  5
DF
330
1F
100
AcDbEntity
  8
0
  6
Continuous
 62
     7
100
AcDbLine
 10
259.591999855
 20
271.81299982
 30
0.0
 11
261.491999855
 21
271.81299982
 31
0.0
  0
LINE
  5
E0
330
1F
100
AcDbEntity
  8
0
  6
Continuous
 62
     7
100
AcDbLine
 10
263.191999855
 20
271.81299982
 30
0.0
 11
265.091999855
 21
271.81299982
 31
0.0
  0
LINE
  5
E1
330
1F
100
AcDbEntity
  8
0
  6
Continuous
 62
     7
100
AcDbLine
 10
266.791999855
 20
271.81299982
 30
0.0
 11
268.691999855
 21
271.81299982
 31
0.0
  0
LINE
  5
E2
330
1F
100
AcDbEntity
  8
0
  6
Continuous
 62
     7
100
AcDbLine
 10
270.391999855
 20
271.81299982
 30
0.0
 11
272.291999855
 21
271.81299982
 31
0.0
  0
LINE
  5
E3
330
1F
100
AcDbEntity
  8
0
  6
Continuous
 62
     7
100
AcDbLine
 10
274.891999855
 20
257.71299982
 30
0.0
 11
276.791999855
 21
257.71299982
 31
0.0
  0
LINE
  5
E4
330
1F
100
AcDbEntity
  8
0
  6
Continuous
 62
     7
100
AcDbLine
 10
278.491999855
 20
257.71299982
 30
0.0
 11
280.391999855
 21
257.71299982
 31
0.0
  0
LINE
  5
E5
330
1F
100
AcDbEntity
  8
0
  6
Continuous
 62
     7
100
AcDbLine
 10
282.091999855
 20
257.71299982
 30
0.0
 11
283.991999855
 21
257.71299982
 31
0.0
  0
LINE
  5
E6
330
1F
100
AcDbEntity
  8
0
  6
Continuous
 62
     7
100
AcDbLine
 10
285.691999855
 20
257.71299982
 30
0.0
 11
287.591999855
 21
257.71299982
 31
0.0
  0
LINE
  5
E7
330
1F
100
AcDbEntity
  8
0
  6
Continuous
 62
     7
100
AcDbLine
 10
289.291999855
 20
257.71299982
 30
0.0
 11
291.191999855
 21
257.71299982
 31
0.0
  0
LINE
  5
E8
330
1F
100
AcDbEntity
  8
0
  6
Continuous
 62
     7
100
AcDbLine
 10
274.891999855
 20
271.81299982
 30
0.0
 11
274.891999855
 21
257.71299982
 31
0.0
  0
LINE
  5
E9
330
1F
100
AcDbEntity
  8
0
  6
Continuous
 62
     7
100
AcDbLine
 10
276.791999855
 20
257.71299982
 30
0.0
 11
276.791999855
 21
271.81299982
 31
0.0
  0
LINE
  5
EA
330
1F
100
AcDbEntity
  8
0
  6
Continuous
 62
     7
100
AcDbLine
 10
278.491999855
 20
271.81299982
 30
0.0
 11
278.491999855
 21
257.71299982
 31
0.0
  0
LINE
  5
EB
330
1F
100
AcDbEntity
  8
0
  6
Continuous
 62
     7
100
AcDbLine
 10
280.391999855
 20
257.71299982
 30
0.0
 11
280.391999855
 21
271.81299982
 31
0.0
  0
LINE
  5
EC
330
1F
100
AcDbEntity
  8
0
  6
Continuous
 62
     7
100
AcDbLine
 10
282.091999855
 20
271.81299982
 30
0.0
 11
282.091999855
 21
257.71299982
 31
0.0
  0
LINE
  5
ED
330
1F
100
AcDbEntity
  8
0
  6
Continuous
 62
     7
100
AcDbLine
 10
283.991999855
 20
257.71299982
 30
0.0
 11
283.991999855
 21
271.81299982
 31
0.0
  0
LINE
  5
EE
330
1F
100
AcDbEntity
  8
0
  6
Continuous
 62
     7
100
AcDbLine
 10
285.691999855
 20
271.81299982
 30
0.0
 11
285.691999855
 21
257.71299982
 31
0.0
  0
LINE
  5
EF
330
1F
100
AcDbEntity
  8
0
  6
Continuous
 62
     7
100
AcDbLine
 10
287.591999855
 20
257.71299982
 30
0.0
 11
287.591999855
 21
271.81299982
 31
0.0
  0
LINE
  5
F0
330
1F
100
AcDbEntity
  8
0
  6
Continuous
 62
     7
100
AcDbLine
 10
289.291999855
 20
271.81299982
 30
0.0
 11
289.291999855
 21
257.71299982
 31
0.0
  0
LINE
  5
F1
330
1F
100
AcDbEntity
  8
0
  6
Continuous
 62
     7
100
AcDbLine
 10
291.191999855
 20
257.71299982
 30
0.0
 11
291.191999855
 21
271.81299982
 31
0.0
  0
LINE
  5
F2
330
1F
100
AcDbEntity
  8
0
  6
Continuous
 62
     7
100
AcDbLine
 10
274.891999855
 20
271.81299982
 30
0.0
 11
276.791999855
 21
271.81299982
 31
0.0
  0
LINE
  5
F3
330
1F
100
AcDbEntity
  8
0
  6
Continuous
 62
     7
100
AcDbLine
 10
278.491999855
 20
271.81299982
 30
0.0
 11
280.391999855
 21
271.81299982
 31
0.0
  0
LINE
  5
F4
330
1F
100
AcDbEntity
  8
0
  6
Continuous
 62
     7
100
AcDbLine
 10
282.091999855
 20
271.81299982
 30
0.0
 11
283.991999855
 21
271.81299982
 31
0.0
  0
LINE
  5
F5
330
1F
100
AcDbEntity
  8
0
  6
Continuous
 62
     7
100
AcDbLine
 10
285.691999855
 20
271.81299982
 30
0.0
 11
287.591999855
 21
271.81299982
 31
0.0
  0
LINE
  5
F6
330
1F
100
AcDbEntity
  8
0
  6
Continuous
 62
     7
100
AcDbLine
 10
289.291999855
 20
271.81299982
 30
0.0
 11
291.191999855
 21
271.81299982
 31
0.0
  0
LINE
  5
F7
330
1F
100
AcDbEntity
  8
0
  6
Continuous
 62
     7
100
AcDbLine
 10
255.991999855
 20
279.8129997
 30
0.0
 11
257.891999855
 21
279.8129997
 31
0.0
  0
LINE
  5
F8
330
1F
100
AcDbEntity
  8
0
  6
Continuous
 62
     7
100
AcDbLine
 10
259.591999855
 20
279.8129997
 30
0.0
 11
261.491999855
 21
279.8129997
 31
0.0
  0
LINE
  5
F9
330
1F
100
AcDbEntity
  8
0
  6
Continuous
 62
     7
100
AcDbLine
 10
263.191999855
 20
279.8129997
 30
0.0
 11
265.091999855
 21
279.8129997
 31
0.0
  0
LINE
  5
FA
330
1F
100
AcDbEntity
  8
0
  6
Continuous
 62
     7
100
AcDbLine
 10
270.391999855
 20
279.8129997
 30
0.0
 11
272.291999855
 21
279.8129997
 31
0.0
  0
LINE
  5
FB
330
1F
100
AcDbEntity
  8
0
  6
Continuous
 62
     7
100
AcDbLine
 10
266.791999855
 20
279.8129997
 30
0.0
 11
268.691999855
 21
279.8129997
 31
0.0
  0
LINE
  5
FC
330
1F
100
AcDbEntity
  8
0
  6
Continuous
 62
     7
100
AcDbLine
 10
285.691999855
 20
285.9129997
 30
0.0
 11
287.591999855
 21
285.9129997
 31
0.0
  0
LINE
  5
FD
330
1F
100
AcDbEntity
  8
0
  6
Continuous
 62
     7
100
AcDbLine
 10
289.291999855
 20
285.9129997
 30
0.0
 11
291.191999855
 21
285.9129997
 31
0.0
  0
LINE
  5
FE
330
1F
100
AcDbEntity
  8
0
  6
Continuous
 62
     7
100
AcDbLine
 10
285.691999855
 20
279.8129997
 30
0.0
 11
285.691999855
 21
285.9129997
 31
0.0
  0
LINE
  5
FF
330
1F
100
AcDbEntity
  8
0
  6
Continuous
 62
     7
100
AcDbLine
 10
289.291999855
 20
279.8129997
 30
0.0
 11
291.191999855
 21
279.8129997
 31
0.0
  0
LINE
  5
100
330
1F
100
AcDbEntity
  8
0
  6
Continuous
 62
     7
100
AcDbLine
 10
285.691999855
 20
279.8129997
 30
0.0
 11
287.591999855
 21
279.8129997
 31
0.0
  0
LINE
  5
101
330
1F
100
AcDbEntity
  8
0
  6
Continuous
 62
     7
100
AcDbLine
 10
246.091999865
 20
249.812999982
 30
0.0
 11
326.091998781
 21
249.812999982
 31
0.0
  0
LINE
  5
102
330
1F
100
AcDbEntity
  8
0
  6
Continuous
 62
     7
100
AcDbLine
 10
326.091998781
 20
293.812999538
 30
0.0
 11
326.091998781
 21
249.812999982
 31
0.0
  0
LWPOLYLINE
  5
104
330
1F
100
AcDbEntity
  8
0
  6
Continuous
 62
     7
100
AcDbPolyline
 90
        6
 70
   128
 43
0.0
 10
274.591999855
 20
277.8129997
 10
285.591999855
 20
277.8129997
 10
285.591999855
 20
287.7129997
 10
281.391999855
 20
287.7129997
 10
281.391999855
 20
296.3129997
 10
274.591999855
 20
296.3129997
  0
LINE
  5
105
330
1F
100
AcDbEntity
  8
0
  6
Continuous
 62
     7
100
AcDbLine
 10
274.591999855
 20
294.9129997
 30
0.0
 11
281.391999855
 21
294.9129997
 31
0.0
  0
LINE
  5
106
330
1F
100
AcDbEntity
  8
0
  6
Continuous
 62
     7
100
AcDbLine
 10
274.591999855
 20
293.812999538
 30
0.0
 11
246.091999865
 21
293.812999538
 31
0.0
  0
LINE
  5
107
330
1F
100
AcDbEntity
  8
0
  6
Continuous
 62
     7
100
AcDbLine
 10
326.091998781
 20
293.812999538
 30
0.0
 11
281.391999855
 21
293.812999538
 31
0.0
  0
LWPOLYLINE
  5
109
330
1F
100
AcDbEntity
  8
0
  6
Continuous
 62
     7
100
AcDbPolyline
 90
        4
 70
   128
 43
0.0
 10
274.591999855
 20
285.9129997
 10
279.091999855
 20
285.9129997
 10
279.091999855
 20
280.0129997
 10
274.591999855
 20
280.0129997
  0
LWPOLYLINE
  5
10B
330
1F
100
AcDbEntity
  8
0
  6
Continuous
 62
     7
100
AcDbPolyline
 90
        4
 70
   128
 43
0.0
 10
274.591999855
 20
285.2129997
 10
277.391999855
 20
285.2129997
 10
277.391999855
 20
280.8129997
 10
274.591999855
 20
280.8129997
  0
LWPOLYLINE
  5
10D
330
1F
100
AcDbEntity
  8
0
  6
Continuous
 62
     7
100
AcDbPolyline
 90
        3
 70
   128
 43
0.0
 10
277.391999855
 20
282.0129997
 10
246.691999855
 20
282.0129997
 10
246.691999855
 20
282.912999538
  0
LWPOLYLINE
  5
10F
330
1F
100
AcDbEntity
  8
0
  6
Continuous
 62
     7
100
AcDbPolyline
 90
        3
 70
   128
 43
0.0
 10
277.391999855
 20
283.812999376
 10
246.691999855
 20
283.812999376
 10
246.691999855
 20
282.912999538
  0
LINE
  5
110
330
1F
100
AcDbEntity
  8
0
  6
Continuous
 62
     7
100
AcDbLine
 10
279.091999855
 20
284.8129997
 30
0.0
 11
285.591999855
 21
284.8129997
 31
0.0
  0
LINE
  5
111
330
1F
100
AcDbEntity
  8
0
  6
Continuous
 62
     7
100
AcDbLine
 10
279.091999855
 20
281.012999376
 30
0.0
 11
285.591999855
 21
281.012999376
 31
0.0
  0
LWPOLYLINE
  5
113
330
1F
100
AcDbEntity
  8
0
  6
Continuous
 62
     7
100
AcDbPolyline
 90
        3
 70
   128
 43
0.0
 10
285.591999855
 20
282.0129997
 10
303.491999855
 20
282.0129997
 10
303.491999855
 20
282.912999538
  0
LWPOLYLINE
  5
115
330
1F
100
AcDbEntity
  8
0
  6
Continuous
 62
     7
100
AcDbPolyline
 90
        3
 70
   128
 43
0.0
 10
285.591999855
 20
283.812999376
 10
303.491999855
 20
283.812999376
 10
303.491999855
 20
282.912999538
  0
LWPOLYLINE
  5
117
330
1F
100
AcDbEntity
  8
0
  6
Continuous
 62
     7
100
AcDbPolyline
 90
        3
 70
   128
 43
0.0
 10
303.491999855
 20
282.0129997
 10
303.491999855
 20
280.7129997
 10
305.091999855
 20
280.7129997
  0
LINE
  5
118
330
1F
100
AcDbEntity
  8
0
  6
Continuous
 62
     7
100
AcDbLine
 10
303.491999855
 20
285.112999376
 30
0.0
 11
305.091999855
 21
285.112999376
 31
0.0
  0
LINE
  5
119
330
1F
100
AcDbEntity
  8
0
  6
Continuous
 62
     7
100
AcDbLine
 10
303.491999855
 20
283.812999376
 30
0.0
 11
303.491999855
 21
285.112999376
 31
0.0
  0
ARC
  5
11A
330
1F
100
AcDbEntity
  8
0
  6
Continuous
 62
     7
100
AcDbCircle
 10
301.358667116
 20
282.912999538
 30
0.0
 40
4.333332738999999
100
AcDbArc
 50
329.489760452
 51
30.510239548
  0
LINE
  5
11B
330
1F
100
AcDbEntity
  8
0
  6
Continuous
 62
     7
100
AcDbLine
 10
255.991999855
 20
283.812999376
 30
0.0
 11
255.991999855
 21
285.9129997
 31
0.0
  0
LINE
  5
11C
330
1F
100
AcDbEntity
  8
0
  6
Continuous
 62
     7
100
AcDbLine
 10
255.991999855
 20
279.8129997
 30
0.0
 11
255.991999855
 21
282.0129997
 31
0.0
  0
LINE
  5
11D
330
1F
100
AcDbEntity
  8
0
  6
Continuous
 62
     7
100
AcDbLine
 10
257.891999855
 20
282.0129997
 30
0.0
 11
257.891999855
 21
279.8129997
 31
0.0
  0
LINE
  5
11E
330
1F
100
AcDbEntity
  8
0
  6
Continuous
 62
     7
100
AcDbLine
 10
257.891999855
 20
285.9129997
 30
0.0
 11
257.891999855
 21
283.812999376
 31
0.0
  0
LINE
  5
11F
330
1F
100
AcDbEntity
  8
0
  6
Continuous
 62
     7
100
AcDbLine
 10
259.591999855
 20
283.812999376
 30
0.0
 11
259.591999855
 21
285.9129997
 31
0.0
  0
LINE
  5
120
330
1F
100
AcDbEntity
  8
0
  6
Continuous
 62
     7
100
AcDbLine
 10
259.591999855
 20
279.8129997
 30
0.0
 11
259.591999855
 21
282.0129997
 31
0.0
  0
LINE
  5
121
330
1F
100
AcDbEntity
  8
0
  6
Continuous
 62
     7
100
AcDbLine
 10
261.491999855
 20
282.0129997
 30
0.0
 11
261.491999855
 21
279.8129997
 31
0.0
  0
LINE
  5
122
330
1F
100
AcDbEntity
  8
0
  6
Continuous
 62
     7
100
AcDbLine
 10
261.491999855
 20
285.9129997
 30
0.0
 11
261.491999855
 21
283.812999376
 31
0.0
  0
LINE
  5
123
330
1F
100
AcDbEntity
  8
0
  6
Continuous
 62
     7
100
AcDbLine
 10
263.191999855
 20
283.812999376
 30
0.0
 11
263.191999855
 21
285.9129997
 31
0.0
  0
LINE
  5
124
330
1F
100
AcDbEntity
  8
0
  6
Continuous
 62
     7
100
AcDbLine
 10
263.191999855
 20
279.8129997
 30
0.0
 11
263.191999855
 21
282.0129997
 31
0.0
  0
LINE
  5
125
330
1F
100
AcDbEntity
  8
0
  6
Continuous
 62
     7
100
AcDbLine
 10
265.091999855
 20
282.0129997
 30
0.0
 11
265.091999855
 21
279.8129997
 31
0.0
  0
LINE
  5
126
330
1F
100
AcDbEntity
  8
0
  6
Continuous
 62
     7
100
AcDbLine
 10
265.091999855
 20
285.9129997
 30
0.0
 11
265.091999855
 21
283.812999376
 31
0.0
  0
LINE
  5
127
330
1F
100
AcDbEntity
  8
0
  6
Continuous
 62
     7
100
AcDbLine
 10
266.791999855
 20
283.812999376
 30
0.0
 11
266.791999855
 21
285.9129997
 31
0.0
  0
LINE
  5
128
330
1F
100
AcDbEntity
  8
0
  6
Continuous
 62
     7
100
AcDbLine
 10
266.791999855
 20
279.8129997
 30
0.0
 11
266.791999855
 21
282.0129997
 31
0.0
  0
LINE
  5
129
330
1F
100
AcDbEntity
  8
0
  6
Continuous
 62
     7
100
AcDbLine
 10
268.691999855
 20
282.0129997
 30
0.0
 11
268.691999855
 21
279.8129997
 31
0.0
  0
LINE
  5
12A
330
1F
100
AcDbEntity
  8
0
  6
Continuous
 62
     7
100
AcDbLine
 10
268.691999855
 20
285.9129997
 30
0.0
 11
268.691999855
 21
283.812999376
 31
0.0
  0
LINE
  5
12B
330
1F
100
AcDbEntity
  8
0
  6
Continuous
 62
     7
100
AcDbLine
 10
270.391999855
 20
283.812999376
 30
0.0
 11
270.391999855
 21
285.9129997
 31
0.0
  0
LINE
  5
12C
330
1F
100
AcDbEntity
  8
0
  6
Continuous
 62
     7
100
AcDbLine
 10
270.391999855
 20
279.8129997
 30
0.0
 11
270.391999855
 21
282.0129997
 31
0.0
  0
LINE
  5
12D
330
1F
100
AcDbEntity
  8
0
  6
Continuous
 62
     7
100
AcDbLine
 10
272.291999855
 20
282.0129997
 30
0.0
 11
272.291999855
 21
279.8129997
 31
0.0
  0
LINE
  5
12E
330
1F
100
AcDbEntity
  8
0
  6
Continuous
 62
     7
100
AcDbLine
 10
272.291999855
 20
285.9129997
 30
0.0
 11
272.291999855
 21
283.812999376
 31
0.0
  0
LINE
  5
12F
330
1F
100
AcDbEntity
  8
0
  6
Continuous
 62
     7
100
AcDbLine
 10
274.591999855
 20
282.0129997
 30
0.0
 11
274.591999855
 21
277.8129997
 31
0.0
  0
LINE
  5
130
330
1F
100
AcDbEntity
  8
0
  6
Continuous
 62
     7
100
AcDbLine
 10
274.591999855
 20
296.3129997
 30
0.0
 11
274.591999855
 21
283.812999376
 31
0.0
  0
LINE
  5
131
330
1F
100
AcDbEntity
  8
0
  6
Continuous
 62
     7
100
AcDbLine
 10
287.591999855
 20
282.0129997
 30
0.0
 11
287.591999855
 21
279.8129997
 31
0.0
  0
LINE
  5
132
330
1F
100
AcDbEntity
  8
0
  6
Continuous
 62
     7
100
AcDbLine
 10
287.591999855
 20
285.9129997
 30
0.0
 11
287.591999855
 21
283.812999376
 31
0.0
  0
LINE
  5
133
330
1F
100
AcDbEntity
  8
0
  6
Continuous
 62
     7
100
AcDbLine
 10
289.291999855
 20
283.812999376
 30
0.0
 11
289.291999855
 21
285.9129997
 31
0.0
  0
LINE
  5
134
330
1F
100
AcDbEntity
  8
0
  6
Continuous
 62
     7
100
AcDbLine
 10
289.291999855
 20
279.8129997
 30
0.0
 11
289.291999855
 21
282.0129997
 31
0.0
  0
LINE
  5
135
330
1F
100
AcDbEntity
  8
0
  6
Continuous
 62
     7
100
AcDbLine
 10
291.191999855
 20
282.0129997
 30
0.0
 11
291.191999855
 21
279.8129997
 31
0.0
  0
LINE
  5
136
330
1F
100
AcDbEntity
  8
0
  6
Continuous
 62
     7
100
AcDbLine
 10
291.191999855
 20
285.9129997
 30
0.0
 11
291.191999855
 21
283.812999376
 31
0.0
  0
LINE
  5
137
330
1F
100
AcDbEntity
  8
0
  6
Continuous
 62
     7
100
AcDbLine
 10
298.991999855
 20
257.71299982
 30
0.0
 11
300.891999855
 21
257.71299982
 31
0.0
  0
LINE
  5
138
330
1F
100
AcDbEntity
  8
0
  6
Continuous
 62
     7
100
AcDbLine
 10
302.591999855
 20
257.71299982
 30
0.0
 11
304.491999855
 21
257.71299982
 31
0.0
  0
LINE
  5
139
330
1F
100
AcDbEntity
  8
0
  6
Continuous
 62
     7
100
AcDbLine
 10
306.191999855
 20
257.71299982
 30
0.0
 11
308.091999855
 21
257.71299982
 31
0.0
  0
LINE
  5
13A
330
1F
100
AcDbEntity
  8
0
  6
Continuous
 62
     7
100
AcDbLine
 10
309.791999855
 20
257.71299982
 30
0.0
 11
311.691999855
 21
257.71299982
 31
0.0
  0
LINE
  5
13B
330
1F
100
AcDbEntity
  8
0
  6
Continuous
 62
     7
100
AcDbLine
 10
298.991999855
 20
271.81299982
 30
0.0
 11
298.991999855
 21
257.71299982
 31
0.0
  0
LINE
  5
13C
330
1F
100
AcDbEntity
  8
0
  6
Continuous
 62
     7
100
AcDbLine
 10
300.891999855
 20
257.71299982
 30
0.0
 11
300.891999855
 21
271.81299982
 31
0.0
  0
LINE
  5
13D
330
1F
100
AcDbEntity
  8
0
  6
Continuous
 62
     7
100
AcDbLine
 10
302.591999855
 20
271.81299982
 30
0.0
 11
302.591999855
 21
257.71299982
 31
0.0
  0
LINE
  5
13E
330
1F
100
AcDbEntity
  8
0
  6
Continuous
 62
     7
100
AcDbLine
 10
304.491999855
 20
257.71299982
 30
0.0
 11
304.491999855
 21
271.81299982
 31
0.0
  0
LINE
  5
13F
330
1F
100
AcDbEntity
  8
0
  6
Continuous
 62
     7
100
AcDbLine
 10
306.191999855
 20
271.81299982
 30
0.0
 11
306.191999855
 21
257.71299982
 31
0.0
  0
LINE
  5
140
330
1F
100
AcDbEntity
  8
0
  6
Continuous
 62
     7
100
AcDbLine
 10
308.091999855
 20
257.71299982
 30
0.0
 11
308.091999855
 21
271.81299982
 31
0.0
  0
LINE
  5
141
330
1F
100
AcDbEntity
  8
0
  6
Continuous
 62
     7
100
AcDbLine
 10
309.791999855
 20
271.81299982
 30
0.0
 11
309.791999855
 21
257.71299982
 31
0.0
  0
LINE
  5
142
330
1F
100
AcDbEntity
  8
0
  6
Continuous
 62
     7
100
AcDbLine
 10
311.691999855
 20
257.71299982
 30
0.0
 11
311.691999855
 21
271.81299982
 31
0.0
  0
LINE
  5
143
330
1F
100
AcDbEntity
  8
0
  6
Continuous
 62
     7
100
AcDbLine
 10
298.991999855
 20
271.81299982
 30
0.0
 11
300.891999855
 21
271.81299982
 31
0.0
  0
LINE
  5
144
330
1F
100
AcDbEntity
  8
0
  6
Continuous
 62
     7
100
AcDbLine
 10
302.591999855
 20
271.81299982
 30
0.0
 11
304.491999855
 21
271.81299982
 31
0.0
  0
LINE
  5
145
330
1F
100
AcDbEntity
  8
0
  6
Continuous
 62
     7
100
AcDbLine
 10
306.191999855
 20
271.81299982
 30
0.0
 11
308.091999855
 21
271.81299982
 31
0.0
  0
LINE
  5
146
330
1F
100
AcDbEntity
  8
0
  6
Continuous
 62
     7
100
AcDbLine
 10
309.791999855
 20
271.81299982
 30
0.0
 11
311.691999855
 21
271.81299982
 31
0.0
  0
LWPOLYLINE
  5
148
330
1F
100
AcDbEntity
  8
0
  6
Continuous
 62
     7
100
AcDbPolyline
 90
        4
 70
   129
 43
0.0
 10
314.891999855
 20
257.91299982
 10
318.591999855
 20
257.91299982
 10
318.591999855
 20
262.31299982
 10
314.891999855
 20
262.31299982
  0
LWPOLYLINE
  5
14A
330
1F
100
AcDbEntity
  8
0
  6
Continuous
 62
     7
100
AcDbPolyline
 90
        4
 70
   129
 43
0.0
 10
320.491999855
 20
267.61299982
 10
323.791999855
 20
267.61299982
 10
323.791999855
 20
275.81299982
 10
320.491999855
 20
275.81299982
  0
LINE
  5
14B
330
1F
100
AcDbEntity
  8
0
  6
Continuous
 62
     7
100
AcDbLine
 10
316.591999855
 20
262.31299982
 30
0.0
 11
316.591999855
 21
257.91299982
 31
0.0
  0
LWPOLYLINE
  5
14D
330
1F
100
AcDbEntity
  8
0
  6
Continuous
 62
     7
100
AcDbPolyline
 90
        4
 70
   129
 43
0.0
 10
314.891999855
 20
282.51299982
 10
318.591999855
 20
282.51299982
 10
318.591999855
 20
286.91299982
 10
314.891999855
 20
286.91299982
  0
LINE
  5
14E
330
1F
100
AcDbEntity
  8
0
  6
Continuous
 62
     7
100
AcDbLine
 10
316.591999855
 20
286.91299982
 30
0.0
 11
316.591999855
 21
282.51299982
 31
0.0
  0
LWPOLYLINE
  5
151
330
1F
100
AcDbEntity
  8
0
  6
Continuous
 62
     7
100
AcDbPolyline
 90
        3
 70
   128
 43
0.0
 10
112.638116113
 20
268.336076467
 10
111.33551798
 20
266.979357142
 42
0.155121009
 10
111.620418202
 20
266.888789844
  0
LINE
  5
152
330
1F
100
AcDbEntity
  8
0
  6
Continuous
 62
     7
100
AcDbLine
 10
112.160750265
 20
274.260022359
 30
0.0
 11
112.802161382
 21
273.676173778
 31
0.0
  0
LINE
  5
153
330
1F
100
AcDbEntity
  8
0
  6
Continuous
 62
     7
100
AcDbLine
 10
111.988062656
 20
274.317584895
 30
0.0
 11
111.502892709
 21
274.317584895
 31
0.0
  0
LINE
  5
154
330
1F
100
AcDbEntity
  8
0
  6
Continuous
 62
     7
100
AcDbLine
 10
113.303831293
 20
280.474002691
 30
0.0
 11
112.123979568
 21
281.828959852
 31
0.0
  0
LINE
  5
155
330
1F
100
AcDbEntity
  8
0
  6
Continuous
 62
     7
100
AcDbLine
 10
113.159977001
 20
280.397693616
 30
0.0
 11
111.993929977
 21
281.72764732
 31
0.0
  0
LINE
  5
156
330
1F
100
AcDbEntity
  8
0
  6
Continuous
 62
     7
100
AcDbLine
 10
113.159977001
 20
280.397693616
 30
0.0
 11
112.882692694
 21
275.129291779
 31
0.0
  0
LINE
  5
157
330
1F
100
AcDbEntity
  8
0
  6
Continuous
 62
     7
100
AcDbLine
 10
111.865199933
 20
281.420481117
 30
0.0
 11
111.502892709
 21
274.317584895
 31
0.0
  0
LINE
  5
158
330
1F
100
AcDbEntity
  8
0
  6
Continuous
 62
     7
100
AcDbLine
 10
111.988062656
 20
274.317584895
 30
0.0
 11
112.882692694
 21
275.129291779
 31
0.0
  0
LINE
  5
159
330
1F
100
AcDbEntity
  8
0
  6
Continuous
 62
     7
100
AcDbLine
 10
112.929561606
 20
274.97544245
 30
0.0
 11
112.160750265
 21
274.260022359
 31
0.0
  0
ARC
  5
15A
330
1F
100
AcDbEntity
  8
0
  6
Continuous
 62
     7
100
AcDbCircle
 10
112.357911145
 20
281.394548951
 30
0.0
 40
0.493393164
100
AcDbArc
 50
89.99999995000001
 51
118.30259773
  0
ARC
  5
15B
330
1F
100
AcDbEntity
  8
0
  6
Continuous
 62
     7
100
AcDbCircle
 10
112.357911145
 20
281.394548948
 30
0.0
 40
0.493393166
100
AcDbArc
 50
137.536722755
 51
176.987212508
  0
LINE
  5
15C
330
1F
100
AcDbEntity
  8
0
  6
Continuous
 62
     7
100
AcDbLine
 10
119.46795202
 20
274.300889229
 30
0.0
 11
118.941665975
 21
274.300889229
 31
0.0
  0
LINE
  5
15D
330
1F
100
AcDbEntity
  8
0
  6
Continuous
 62
     7
100
AcDbLine
 10
112.638074297
 20
268.335340516
 30
0.0
 11
117.627658617
 21
268.335340516
 31
0.0
  0
LINE
  5
15E
330
1F
100
AcDbEntity
  8
0
  6
Continuous
 62
     7
100
AcDbLine
 10
113.303831293
 20
280.474002691
 30
0.0
 11
118.278488125
 21
280.474002691
 31
0.0
  0
ARC
  5
15F
330
1F
100
AcDbEntity
  8
0
  6
Continuous
 62
     7
100
AcDbCircle
 10
119.354772897
 20
281.394548947
 30
0.0
 40
0.493393167
100
AcDbArc
 50
58.966247589
 51
90.0
  0
ARC
  5
160
330
1F
100
AcDbEntity
  8
0
  6
Continuous
 62
     7
100
AcDbCircle
 10
119.444883777
 20
281.409966384
 30
0.0
 40
0.4047181960000001
100
AcDbArc
 50
354.135921875
 51
47.933861473
  0
LINE
  5
161
330
1F
100
AcDbEntity
  8
0
  6
Continuous
 62
     7
100
AcDbLine
 10
117.627870881
 20
268.339055131
 30
0.0
 11
118.833623037
 21
266.938750392
 31
0.0
  0
LWPOLYLINE
  5
164
330
1F
100
AcDbEntity
  8
0
  6
Continuous
 62
     7
100
AcDbPolyline
 90
        3
 70
   128
 43
0.0
 10
117.750246489
 20
268.394583118
 10
118.973272015
 20
267.040559726
 42
0.179961097
 10
119.109991166
 20
267.356250842
  0
ARC
  5
165
330
1F
100
AcDbEntity
  8
0
  6
Continuous
 62
     7
100
AcDbCircle
 10
118.617279953
 20
267.382183011
 30
0.0
 40
0.493393167
100
AcDbArc
 50
270.0
 51
296.006945451
  0
LINE
  5
166
330
1F
100
AcDbEntity
  8
0
  6
Continuous
 62
     7
100
AcDbLine
 10
118.941665975
 20
274.300889229
 30
0.0
 11
118.048843186
 21
275.090567523
 31
0.0
  0
LINE
  5
167
330
1F
100
AcDbEntity
  8
0
  6
Continuous
 62
     7
100
AcDbLine
 10
118.065289625
 20
273.49526295
 30
0.0
 11
117.750246489
 21
268.394583118
 31
0.0
  0
LINE
  5
168
330
1F
100
AcDbEntity
  8
0
  6
Continuous
 62
     7
100
AcDbLine
 10
118.936950886
 20
274.153120506
 30
0.0
 11
118.065289625
 21
273.49526295
 31
0.0
  0
LINE
  5
169
330
1F
100
AcDbEntity
  8
0
  6
Continuous
 62
     7
100
AcDbLine
 10
119.47968337
 20
274.153120506
 30
0.0
 11
118.936950886
 21
274.153120506
 31
0.0
  0
LINE
  5
16A
330
1F
100
AcDbEntity
  8
0
  6
Continuous
 62
     7
100
AcDbLine
 10
111.620418202
 20
266.888789844
 30
0.0
 11
118.617279953
 21
266.888789844
 31
0.0
  0
LINE
  5
16B
330
1F
100
AcDbEntity
  8
0
  6
Continuous
 62
     7
100
AcDbLine
 10
112.802161382
 20
273.676173778
 30
0.0
 11
118.012043297
 21
273.676173778
 31
0.0
  0
LINE
  5
16C
330
1F
100
AcDbEntity
  8
0
  6
Continuous
 62
     7
100
AcDbLine
 10
118.805379375
 20
274.2353527
 30
0.0
 11
118.012043297
 21
273.676173778
 31
0.0
  0
LINE
  5
16D
330
1F
100
AcDbEntity
  8
0
  6
Continuous
 62
     7
100
AcDbLine
 10
119.47968337
 20
274.153120506
 30
0.0
 11
119.109991166
 21
267.356250842
 31
0.0
  0
LINE
  5
16E
330
1F
100
AcDbEntity
  8
0
  6
Continuous
 62
     7
100
AcDbLine
 10
119.847484111
 20
281.368616778
 30
0.0
 11
119.47549845
 21
274.300889229
 31
0.0
  0
LINE
  5
16F
330
1F
100
AcDbEntity
  8
0
  6
Continuous
 62
     7
100
AcDbLine
 10
112.357911146
 20
281.887942114
 30
0.0
 11
119.354772897
 21
281.887942114
 31
0.0
  0
LINE
  5
170
330
1F
100
AcDbEntity
  8
0
  6
Continuous
 62
     7
100
AcDbLine
 10
118.408548219
 20
280.394702701
 30
0.0
 11
118.048843186
 21
275.090567523
 31
0.0
  0
LINE
  5
171
330
1F
100
AcDbEntity
  8
0
  6
Continuous
 62
     7
100
AcDbLine
 10
118.278488125
 20
280.474002691
 30
0.0
 11
119.609138259
 21
281.817319666
 31
0.0
  0
LINE
  5
172
330
1F
100
AcDbEntity
  8
0
  6
Continuous
 62
     7
100
AcDbLine
 10
118.408548219
 20
280.394702701
 30
0.0
 11
119.716040111
 21
281.710417813
 31
0.0
  0
LINE
  5
173
330
1F
100
AcDbEntity
  8
0
  6
Continuous
 62
     7
100
AcDbLine
 10
118.805379375
 20
274.2353527
 30
0.0
 11
117.939316901
 21
274.97544245
 31
0.0
  0
LINE
  5
174
330
1F
100
AcDbEntity
  8
0
  6
Continuous
 62
     7
100
AcDbLine
 10
112.929561606
 20
274.97544245
 30
0.0
 11
117.939316901
 21
274.97544245
 31
0.0
  0
LWPOLYLINE
  5
177
330
1F
100
AcDbEntity
  8
0
  6
Continuous
 62
     7
100
AcDbPolyline
 90
        3
 70
   128
 43
0.0
 10
125.313716113
 20
268.336076467
 10
124.01111798
 20
266.979357142
 42
0.155121009
 10
124.296018202
 20
266.888789844
  0
LINE
  5
178
330
1F
100
AcDbEntity
  8
0
  6
Continuous
 62
     7
100
AcDbLine
 10
124.836350265
 20
274.260022359
 30
0.0
 11
125.477761382
 21
273.676173778
 31
0.0
  0
LINE
  5
179
330
1F
100
AcDbEntity
  8
0
  6
Continuous
 62
     7
100
AcDbLine
 10
124.663662656
 20
274.317584895
 30
0.0
 11
124.178492709
 21
274.317584895
 31
0.0
  0
LINE
  5
17A
330
1F
100
AcDbEntity
  8
0
  6
Continuous
 62
     7
100
AcDbLine
 10
125.979431293
 20
280.474002691
 30
0.0
 11
124.799579568
 21
281.828959852
 31
0.0
  0
LINE
  5
17B
330
1F
100
AcDbEntity
  8
0
  6
Continuous
 62
     7
100
AcDbLine
 10
125.835577001
 20
280.397693616
 30
0.0
 11
124.669529977
 21
281.72764732
 31
0.0
  0
LINE
  5
17C
330
1F
100
AcDbEntity
  8
0
  6
Continuous
 62
     7
100
AcDbLine
 10
125.835577001
 20
280.397693616
 30
0.0
 11
125.558292694
 21
275.129291779
 31
0.0
  0
LINE
  5
17D
330
1F
100
AcDbEntity
  8
0
  6
Continuous
 62
     7
100
AcDbLine
 10
124.540799933
 20
281.420481117
 30
0.0
 11
124.178492709
 21
274.317584895
 31
0.0
  0
LINE
  5
17E
330
1F
100
AcDbEntity
  8
0
  6
Continuous
 62
     7
100
AcDbLine
 10
124.663662656
 20
274.317584895
 30
0.0
 11
125.558292694
 21
275.129291779
 31
0.0
  0
LINE
  5
17F
330
1F
100
AcDbEntity
  8
0
  6
Continuous
 62
     7
100
AcDbLine
 10
125.605161606
 20
274.97544245
 30
0.0
 11
124.836350265
 21
274.260022359
 31
0.0
  0
ARC
  5
180
330
1F
100
AcDbEntity
  8
0
  6
Continuous
 62
     7
100
AcDbCircle
 10
125.033511145
 20
281.394548951
 30
0.0
 40
0.493393164
100
AcDbArc
 50
89.99999995000001
 51
118.30259773
  0
ARC
  5
181
330
1F
100
AcDbEntity
  8
0
  6
Continuous
 62
     7
100
AcDbCircle
 10
125.033511145
 20
281.394548948
 30
0.0
 40
0.493393166
100
AcDbArc
 50
137.536722755
 51
176.987212508
  0
LINE
  5
182
330
1F
100
AcDbEntity
  8
0
  6
Continuous
 62
     7
100
AcDbLine
 10
132.14355202
 20
274.300889229
 30
0.0
 11
131.617265975
 21
274.300889229
 31
0.0
  0
LINE
  5
183
330
1F
100
AcDbEntity
  8
0
  6
Continuous
 62
     7
100
AcDbLine
 10
125.313674297
 20
268.335340516
 30
0.0
 11
130.303258617
 21
268.335340516
 31
0.0
  0
LINE
  5
184
330
1F
100
AcDbEntity
  8
0
  6
Continuous
 62
     7
100
AcDbLine
 10
125.979431293
 20
280.474002691
 30
0.0
 11
130.954088125
 21
280.474002691
 31
0.0
  0
ARC
  5
185
330
1F
100
AcDbEntity
  8
0
  6
Continuous
 62
     7
100
AcDbCircle
 10
132.030372897
 20
281.394548947
 30
0.0
 40
0.493393167
100
AcDbArc
 50
58.966247589
 51
90.0
  0
ARC
  5
186
330
1F
100
AcDbEntity
  8
0
  6
Continuous
 62
     7
100
AcDbCircle
 10
132.120483777
 20
281.409966384
 30
0.0
 40
0.4047181960000001
100
AcDbArc
 50
354.135921875
 51
47.933861473
  0
LINE
  5
187
330
1F
100
AcDbEntity
  8
0
  6
Continuous
 62
     7
100
AcDbLine
 10
130.303470881
 20
268.339055131
 30
0.0
 11
131.509223037
 21
266.938750392
 31
0.0
  0
LWPOLYLINE
  5
18A
330
1F
100
AcDbEntity
  8
0
  6
Continuous
 62
     7
100
AcDbPolyline
 90
        3
 70
   128
 43
0.0
 10
130.425846489
 20
268.394583118
 10
131.648872015
 20
267.040559726
 42
0.179961097
 10
131.785591166
 20
267.356250842
  0
ARC
  5
18B
330
1F
100
AcDbEntity
  8
0
  6
Continuous
 62
     7
100
AcDbCircle
 10
131.292879953
 20
267.382183011
 30
0.0
 40
0.493393167
100
AcDbArc
 50
270.0
 51
296.006945451
  0
LINE
  5
18C
330
1F
100
AcDbEntity
  8
0
  6
Continuous
 62
     7
100
AcDbLine
 10
131.617265975
 20
274.300889229
 30
0.0
 11
130.724443186
 21
275.090567523
 31
0.0
  0
LINE
  5
18D
330
1F
100
AcDbEntity
  8
0
  6
Continuous
 62
     7
100
AcDbLine
 10
130.740889625
 20
273.49526295
 30
0.0
 11
130.425846489
 21
268.394583118
 31
0.0
  0
LINE
  5
18E
330
1F
100
AcDbEntity
  8
0
  6
Continuous
 62
     7
100
AcDbLine
 10
131.612550886
 20
274.153120506
 30
0.0
 11
130.740889625
 21
273.49526295
 31
0.0
  0
LINE
  5
18F
330
1F
100
AcDbEntity
  8
0
  6
Continuous
 62
     7
100
AcDbLine
 10
132.15528337
 20
274.153120506
 30
0.0
 11
131.612550886
 21
274.153120506
 31
0.0
  0
LINE
  5
190
330
1F
100
AcDbEntity
  8
0
  6
Continuous
 62
     7
100
AcDbLine
 10
124.296018202
 20
266.888789844
 30
0.0
 11
131.292879953
 21
266.888789844
 31
0.0
  0
LINE
  5
191
330
1F
100
AcDbEntity
  8
0
  6
Continuous
 62
     7
100
AcDbLine
 10
125.477761382
 20
273.676173778
 30
0.0
 11
130.687643297
 21
273.676173778
 31
0.0
  0
LINE
  5
192
330
1F
100
AcDbEntity
  8
0
  6
Continuous
 62
     7
100
AcDbLine
 10
131.480979375
 20
274.2353527
 30
0.0
 11
130.687643297
 21
273.676173778
 31
0.0
  0
LINE
  5
193
330
1F
100
AcDbEntity
  8
0
  6
Continuous
 62
     7
100
AcDbLine
 10
132.15528337
 20
274.153120506
 30
0.0
 11
131.785591166
 21
267.356250842
 31
0.0
  0
LINE
  5
194
330
1F
100
AcDbEntity
  8
0
  6
Continuous
 62
     7
100
AcDbLine
 10
132.523084111
 20
281.368616778
 30
0.0
 11
132.15109845
 21
274.300889229
 31
0.0
  0
LINE
  5
195
330
1F
100
AcDbEntity
  8
0
  6
Continuous
 62
     7
100
AcDbLine
 10
125.033511146
 20
281.887942114
 30
0.0
 11
132.030372897
 21
281.887942114
 31
0.0
  0
LINE
  5
196
330
1F
100
AcDbEntity
  8
0
  6
Continuous
 62
     7
100
AcDbLine
 10
131.084148219
 20
280.394702701
 30
0.0
 11
130.724443186
 21
275.090567523
 31
0.0
  0
LINE
  5
197
330
1F
100
AcDbEntity
  8
0
  6
Continuous
 62
     7
100
AcDbLine
 10
130.954088125
 20
280.474002691
 30
0.0
 11
132.284738259
 21
281.817319666
 31
0.0
  0
LINE
  5
198
330
1F
100
AcDbEntity
  8
0
  6
Continuous
 62
     7
100
AcDbLine
 10
131.084148219
 20
280.394702701
 30
0.0
 11
132.391640111
 21
281.710417813
 31
0.0
  0
LINE
  5
199
330
1F
100
AcDbEntity
  8
0
  6
Continuous
 62
     7
100
AcDbLine
 10
131.480979375
 20
274.2353527
 30
0.0
 11
130.614916901
 21
274.97544245
 31
0.0
  0
LINE
  5
19A
330
1F
100
AcDbEntity
  8
0
  6
Continuous
 62
     7
100
AcDbLine
 10
125.605161606
 20
274.97544245
 30
0.0
 11
130.614916901
 21
274.97544245
 31
0.0
  0
LWPOLYLINE
  5
19D
330
1F
100
AcDbEntity
  8
0
  6
Continuous
 62
     7
100
AcDbPolyline
 90
        3
 70
   128
 43
0.0
 10
137.989316113
 20
268.336076467
 10
136.68671798
 20
266.979357142
 42
0.155121009
 10
136.971618202
 20
266.888789844
  0
LINE
  5
19E
330
1F
100
AcDbEntity
  8
0
  6
Continuous
 62
     7
100
AcDbLine
 10
137.511950265
 20
274.260022359
 30
0.0
 11
138.153361382
 21
273.676173778
 31
0.0
  0
LINE
  5
19F
330
1F
100
AcDbEntity
  8
0
  6
Continuous
 62
     7
100
AcDbLine
 10
137.339262656
 20
274.317584895
 30
0.0
 11
136.854092709
 21
274.317584895
 31
0.0
  0
LINE
  5
1A0
330
1F
100
AcDbEntity
  8
0
  6
Continuous
 62
     7
100
AcDbLine
 10
138.655031293
 20
280.474002691
 30
0.0
 11
137.475179568
 21
281.828959852
 31
0.0
  0
LINE
  5
1A1
330
1F
100
AcDbEntity
  8
0
  6
Continuous
 62
     7
100
AcDbLine
 10
138.511177001
 20
280.397693616
 30
0.0
 11
137.345129977
 21
281.72764732
 31
0.0
  0
LINE
  5
1A2
330
1F
100
AcDbEntity
  8
0
  6
Continuous
 62
     7
100
AcDbLine
 10
138.511177001
 20
280.397693616
 30
0.0
 11
138.233892694
 21
275.129291779
 31
0.0
  0
LINE
  5
1A3
330
1F
100
AcDbEntity
  8
0
  6
Continuous
 62
     7
100
AcDbLine
 10
137.216399933
 20
281.420481117
 30
0.0
 11
136.854092709
 21
274.317584895
 31
0.0
  0
LINE
  5
1A4
330
1F
100
AcDbEntity
  8
0
  6
Continuous
 62
     7
100
AcDbLine
 10
137.339262656
 20
274.317584895
 30
0.0
 11
138.233892694
 21
275.129291779
 31
0.0
  0
LINE
  5
1A5
330
1F
100
AcDbEntity
  8
0
  6
Continuous
 62
     7
100
AcDbLine
 10
138.280761606
 20
274.97544245
 30
0.0
 11
137.511950265
 21
274.260022359
 31
0.0
  0
ARC
  5
1A6
330
1F
100
AcDbEntity
  8
0
  6
Continuous
 62
     7
100
AcDbCircle
 10
137.709111145
 20
281.394548951
 30
0.0
 40
0.493393164
100
AcDbArc
 50
89.99999995000001
 51
118.30259773
  0
ARC
  5
1A7
330
1F
100
AcDbEntity
  8
0
  6
Continuous
 62
     7
100
AcDbCircle
 10
137.709111145
 20
281.394548948
 30
0.0
 40
0.493393166
100
AcDbArc
 50
137.536722755
 51
176.987212508
  0
LINE
  5
1A8
330
1F
100
AcDbEntity
  8
0
  6
Continuous
 62
     7
100
AcDbLine
 10
144.81915202
 20
274.300889229
 30
0.0
 11
144.292865975
 21
274.300889229
 31
0.0
  0
LINE
  5
1A9
330
1F
100
AcDbEntity
  8
0
  6
Continuous
 62
     7
100
AcDbLine
 10
137.989274297
 20
268.335340516
 30
0.0
 11
142.978858617
 21
268.335340516
 31
0.0
  0
LINE
  5
1AA
330
1F
100
AcDbEntity
  8
0
  6
Continuous
 62
     7
100
AcDbLine
 10
138.655031293
 20
280.474002691
 30
0.0
 11
143.629688125
 21
280.474002691
 31
0.0
  0
ARC
  5
1AB
330
1F
100
AcDbEntity
  8
0
  6
Continuous
 62
     7
100
AcDbCircle
 10
144.705972897
 20
281.394548947
 30
0.0
 40
0.493393167
100
AcDbArc
 50
58.966247589
 51
90.0
  0
ARC
  5
1AC
330
1F
100
AcDbEntity
  8
0
  6
Continuous
 62
     7
100
AcDbCircle
 10
144.796083777
 20
281.409966384
 30
0.0
 40
0.4047181960000001
100
AcDbArc
 50
354.135921875
 51
47.933861473
  0
LINE
  5
1AD
330
1F
100
AcDbEntity
  8
0
  6
Continuous
 62
     7
100
AcDbLine
 10
142.979070881
 20
268.339055131
 30
0.0
 11
144.184823037
 21
266.938750392
 31
0.0
  0
LWPOLYLINE
  5
1B0
330
1F
100
AcDbEntity
  8
0
  6
Continuous
 62
     7
100
AcDbPolyline
 90
        3
 70
   128
 43
0.0
 10
143.101446489
 20
268.394583118
 10
144.324472015
 20
267.040559726
 42
0.179961097
 10
144.461191166
 20
267.356250842
  0
ARC
  5
1B1
330
1F
100
AcDbEntity
  8
0
  6
Continuous
 62
     7
100
AcDbCircle
 10
143.968479953
 20
267.382183011
 30
0.0
 40
0.493393167
100
AcDbArc
 50
270.0
 51
296.006945451
  0
LINE
  5
1B2
330
1F
100
AcDbEntity
  8
0
  6
Continuous
 62
     7
100
AcDbLine
 10
144.292865975
 20
274.300889229
 30
0.0
 11
143.400043186
 21
275.090567523
 31
0.0
  0
LINE
  5
1B3
330
1F
100
AcDbEntity
  8
0
  6
Continuous
 62
     7
100
AcDbLine
 10
143.416489625
 20
273.49526295
 30
0.0
 11
143.101446489
 21
268.394583118
 31
0.0
  0
LINE
  5
1B4
330
1F
100
AcDbEntity
  8
0
  6
Continuous
 62
     7
100
AcDbLine
 10
144.288150886
 20
274.153120506
 30
0.0
 11
143.416489625
 21
273.49526295
 31
0.0
  0
LINE
  5
1B5
330
1F
100
AcDbEntity
  8
0
  6
Continuous
 62
     7
100
AcDbLine
 10
144.83088337
 20
274.153120506
 30
0.0
 11
144.288150886
 21
274.153120506
 31
0.0
  0
LINE
  5
1B6
330
1F
100
AcDbEntity
  8
0
  6
Continuous
 62
     7
100
AcDbLine
 10
136.971618202
 20
266.888789844
 30
0.0
 11
143.968479953
 21
266.888789844
 31
0.0
  0
LINE
  5
1B7
330
1F
100
AcDbEntity
  8
0
  6
Continuous
 62
     7
100
AcDbLine
 10
138.153361382
 20
273.676173778
 30
0.0
 11
143.363243297
 21
273.676173778
 31
0.0
  0
LINE
  5
1B8
330
1F
100
AcDbEntity
  8
0
  6
Continuous
 62
     7
100
AcDbLine
 10
144.156579375
 20
274.2353527
 30
0.0
 11
143.363243297
 21
273.676173778
 31
0.0
  0
LINE
  5
1B9
330
1F
100
AcDbEntity
  8
0
  6
Continuous
 62
     7
100
AcDbLine
 10
144.83088337
 20
274.153120506
 30
0.0
 11
144.461191166
 21
267.356250842
 31
0.0
  0
LINE
  5
1BA
330
1F
100
AcDbEntity
  8
0
  6
Continuous
 62
     7
100
AcDbLine
 10
145.198684111
 20
281.368616778
 30
0.0
 11
144.82669845
 21
274.300889229
 31
0.0
  0
LINE
  5
1BB
330
1F
100
AcDbEntity
  8
0
  6
Continuous
 62
     7
100
AcDbLine
 10
137.709111146
 20
281.887942114
 30
0.0
 11
144.705972897
 21
281.887942114
 31
0.0
  0
LINE
  5
1BC
330
1F
100
AcDbEntity
  8
0
  6
Continuous
 62
     7
100
AcDbLine
 10
143.759748219
 20
280.394702701
 30
0.0
 11
143.400043186
 21
275.090567523
 31
0.0
  0
LINE
  5
1BD
330
1F
100
AcDbEntity
  8
0
  6
Continuous
 62
     7
100
AcDbLine
 10
143.629688125
 20
280.474002691
 30
0.0
 11
144.960338259
 21
281.817319666
 31
0.0
  0
LINE
  5
1BE
330
1F
100
AcDbEntity
  8
0
  6
Continuous
 62
     7
100
AcDbLine
 10
143.759748219
 20
280.394702701
 30
0.0
 11
145.067240111
 21
281.710417813
 31
0.0
  0
LINE
  5
1BF
330
1F
100
AcDbEntity
  8
0
  6
Continuous
 62
     7
100
AcDbLine
 10
144.156579375
 20
274.2353527
 30
0.0
 11
143.290516901
 21
274.97544245
 31
0.0
  0
LINE
  5
1C0
330
1F
100
AcDbEntity
  8
0
  6
Continuous
 62
     7
100
AcDbLine
 10
138.280761606
 20
274.97544245
 30
0.0
 11
143.290516901
 21
274.97544245
 31
0.0
  0
LWPOLYLINE
  5
1C3
330
1F
100
AcDbEntity
  8
0
  6
Continuous
 62
     7
100
AcDbPolyline
 90
        3
 70
   128
 43
0.0
 10
150.664916113
 20
268.336076467
 10
149.36231798
 20
266.979357142
 42
0.155121009
 10
149.647218202
 20
266.888789844
  0
LINE
  5
1C4
330
1F
100
AcDbEntity
  8
0
  6
Continuous
 62
     7
100
AcDbLine
 10
150.187550265
 20
274.260022359
 30
0.0
 11
150.828961382
 21
273.676173778
 31
0.0
  0
LINE
  5
1C5
330
1F
100
AcDbEntity
  8
0
  6
Continuous
 62
     7
100
AcDbLine
 10
150.014862656
 20
274.317584895
 30
0.0
 11
149.529692709
 21
274.317584895
 31
0.0
  0
LINE
  5
1C6
330
1F
100
AcDbEntity
  8
0
  6
Continuous
 62
     7
100
AcDbLine
 10
151.330631293
 20
280.474002691
 30
0.0
 11
150.150779568
 21
281.828959852
 31
0.0
  0
LINE
  5
1C7
330
1F
100
AcDbEntity
  8
0
  6
Continuous
 62
     7
100
AcDbLine
 10
151.186777001
 20
280.397693616
 30
0.0
 11
150.020729977
 21
281.72764732
 31
0.0
  0
LINE
  5
1C8
330
1F
100
AcDbEntity
  8
0
  6
Continuous
 62
     7
100
AcDbLine
 10
151.186777001
 20
280.397693616
 30
0.0
 11
150.909492694
 21
275.129291779
 31
0.0
  0
LINE
  5
1C9
330
1F
100
AcDbEntity
  8
0
  6
Continuous
 62
     7
100
AcDbLine
 10
149.891999933
 20
281.420481117
 30
0.0
 11
149.529692709
 21
274.317584895
 31
0.0
  0
LINE
  5
1CA
330
1F
100
AcDbEntity
  8
0
  6
Continuous
 62
     7
100
AcDbLine
 10
150.014862656
 20
274.317584895
 30
0.0
 11
150.909492694
 21
275.129291779
 31
0.0
  0
LINE
  5
1CB
330
1F
100
AcDbEntity
  8
0
  6
Continuous
 62
     7
100
AcDbLine
 10
150.956361606
 20
274.97544245
 30
0.0
 11
150.187550265
 21
274.260022359
 31
0.0
  0
ARC
  5
1CC
330
1F
100
AcDbEntity
  8
0
  6
Continuous
 62
     7
100
AcDbCircle
 10
150.384711145
 20
281.394548951
 30
0.0
 40
0.493393164
100
AcDbArc
 50
89.99999995000001
 51
118.30259773
  0
ARC
  5
1CD
330
1F
100
AcDbEntity
  8
0
  6
Continuous
 62
     7
100
AcDbCircle
 10
150.384711145
 20
281.394548948
 30
0.0
 40
0.493393166
100
AcDbArc
 50
137.536722755
 51
176.987212508
  0
LINE
  5
1CE
330
1F
100
AcDbEntity
  8
0
  6
Continuous
 62
     7
100
AcDbLine
 10
157.49475202
 20
274.300889229
 30
0.0
 11
156.968465975
 21
274.300889229
 31
0.0
  0
LINE
  5
1CF
330
1F
100
AcDbEntity
  8
0
  6
Continuous
 62
     7
100
AcDbLine
 10
150.664874297
 20
268.335340516
 30
0.0
 11
155.654458617
 21
268.335340516
 31
0.0
  0
LINE
  5
1D0
330
1F
100
AcDbEntity
  8
0
  6
Continuous
 62
     7
100
AcDbLine
 10
151.330631293
 20
280.474002691
 30
0.0
 11
156.305288125
 21
280.474002691
 31
0.0
  0
ARC
  5
1D1
330
1F
100
AcDbEntity
  8
0
  6
Continuous
 62
     7
100
AcDbCircle
 10
157.381572897
 20
281.394548947
 30
0.0
 40
0.493393167
100
AcDbArc
 50
58.966247589
 51
90.0
  0
ARC
  5
1D2
330
1F
100
AcDbEntity
  8
0
  6
Continuous
 62
     7
100
AcDbCircle
 10
157.471683777
 20
281.409966384
 30
0.0
 40
0.4047181960000001
100
AcDbArc
 50
354.135921875
 51
47.933861473
  0
LINE
  5
1D3
330
1F
100
AcDbEntity
  8
0
  6
Continuous
 62
     7
100
AcDbLine
 10
155.654670881
 20
268.339055131
 30
0.0
 11
156.860423037
 21
266.938750392
 31
0.0
  0
LWPOLYLINE
  5
1D6
330
1F
100
AcDbEntity
  8
0
  6
Continuous
 62
     7
100
AcDbPolyline
 90
        3
 70
   128
 43
0.0
 10
155.777046489
 20
268.394583118
 10
157.000072015
 20
267.040559726
 42
0.179961097
 10
157.136791166
 20
267.356250842
  0
ARC
  5
1D7
330
1F
100
AcDbEntity
  8
0
  6
Continuous
 62
     7
100
AcDbCircle
 10
156.644079953
 20
267.382183011
 30
0.0
 40
0.493393167
100
AcDbArc
 50
270.0
 51
296.006945451
  0
LINE
  5
1D8
330
1F
100
AcDbEntity
  8
0
  6
Continuous
 62
     7
100
AcDbLine
 10
156.968465975
 20
274.300889229
 30
0.0
 11
156.075643186
 21
275.090567523
 31
0.0
  0
LINE
  5
1D9
330
1F
100
AcDbEntity
  8
0
  6
Continuous
 62
     7
100
AcDbLine
 10
156.092089625
 20
273.49526295
 30
0.0
 11
155.777046489
 21
268.394583118
 31
0.0
  0
LINE
  5
1DA
330
1F
100
AcDbEntity
  8
0
  6
Continuous
 62
     7
100
AcDbLine
 10
156.963750886
 20
274.153120506
 30
0.0
 11
156.092089625
 21
273.49526295
 31
0.0
  0
LINE
  5
1DB
330
1F
100
AcDbEntity
  8
0
  6
Continuous
 62
     7
100
AcDbLine
 10
157.50648337
 20
274.153120506
 30
0.0
 11
156.963750886
 21
274.153120506
 31
0.0
  0
LINE
  5
1DC
330
1F
100
AcDbEntity
  8
0
  6
Continuous
 62
     7
100
AcDbLine
 10
149.647218202
 20
266.888789844
 30
0.0
 11
156.644079953
 21
266.888789844
 31
0.0
  0
LINE
  5
1DD
330
1F
100
AcDbEntity
  8
0
  6
Continuous
 62
     7
100
AcDbLine
 10
150.828961382
 20
273.676173778
 30
0.0
 11
156.038843297
 21
273.676173778
 31
0.0
  0
LINE
  5
1DE
330
1F
100
AcDbEntity
  8
0
  6
Continuous
 62
     7
100
AcDbLine
 10
156.832179375
 20
274.2353527
 30
0.0
 11
156.038843297
 21
273.676173778
 31
0.0
  0
LINE
  5
1DF
330
1F
100
AcDbEntity
  8
0
  6
Continuous
 62
     7
100
AcDbLine
 10
157.50648337
 20
274.153120506
 30
0.0
 11
157.136791166
 21
267.356250842
 31
0.0
  0
LINE
  5
1E0
330
1F
100
AcDbEntity
  8
0
  6
Continuous
 62
     7
100
AcDbLine
 10
157.874284111
 20
281.368616778
 30
0.0
 11
157.50229845
 21
274.300889229
 31
0.0
  0
LINE
  5
1E1
330
1F
100
AcDbEntity
  8
0
  6
Continuous
 62
     7
100
AcDbLine
 10
150.384711146
 20
281.887942114
 30
0.0
 11
157.381572897
 21
281.887942114
 31
0.0
  0
LINE
  5
1E2
330
1F
100
AcDbEntity
  8
0
  6
Continuous
 62
     7
100
AcDbLine
 10
156.435348219
 20
280.394702701
 30
0.0
 11
156.075643186
 21
275.090567523
 31
0.0
  0
LINE
  5
1E3
330
1F
100
AcDbEntity
  8
0
  6
Continuous
 62
     7
100
AcDbLine
 10
156.305288125
 20
280.474002691
 30
0.0
 11
157.635938259
 21
281.817319666
 31
0.0
  0
LINE
  5
1E4
330
1F
100
AcDbEntity
  8
0
  6
Continuous
 62
     7
100
AcDbLine
 10
156.435348219
 20
280.394702701
 30
0.0
 11
157.742840111
 21
281.710417813
 31
0.0
  0
LINE
  5
1E5
330
1F
100
AcDbEntity
  8
0
  6
Continuous
 62
     7
100
AcDbLine
 10
156.832179375
 20
274.2353527
 30
0.0
 11
155.966116901
 21
274.97544245
 31
0.0
  0
LINE
  5
1E6
330
1F
100
AcDbEntity
  8
0
  6
Continuous
 62
     7
100
AcDbLine
 10
150.956361606
 20
274.97544245
 30
0.0
 11
155.966116901
 21
274.97544245
 31
0.0
  0
LWPOLYLINE
  5
1E9
330
1F
100
AcDbEntity
  8
0
  6
Continuous
 62
     7
100
AcDbPolyline
 90
        3
 70
   128
 43
0.0
 10
163.764916113
 20
268.336076466
 10
162.46231798
 20
266.979357142
 42
0.155121009
 10
162.747218202
 20
266.888789844
  0
LINE
  5
1EA
330
1F
100
AcDbEntity
  8
0
  6
Continuous
 62
     7
100
AcDbLine
 10
163.287550265
 20
274.260022358
 30
0.0
 11
163.928961382
 21
273.676173778
 31
0.0
  0
LINE
  5
1EB
330
1F
100
AcDbEntity
  8
0
  6
Continuous
 62
     7
100
AcDbLine
 10
163.114862656
 20
274.317584895
 30
0.0
 11
162.629692709
 21
274.317584895
 31
0.0
  0
LINE
  5
1EC
330
1F
100
AcDbEntity
  8
0
  6
Continuous
 62
     7
100
AcDbLine
 10
164.430631293
 20
280.474002691
 30
0.0
 11
163.250779568
 21
281.828959852
 31
0.0
  0
LINE
  5
1ED
330
1F
100
AcDbEntity
  8
0
  6
Continuous
 62
     7
100
AcDbLine
 10
164.286777001
 20
280.397693615
 30
0.0
 11
163.120729977
 21
281.72764732
 31
0.0
  0
LINE
  5
1EE
330
1F
100
AcDbEntity
  8
0
  6
Continuous
 62
     7
100
AcDbLine
 10
164.286777001
 20
280.397693615
 30
0.0
 11
164.0094926939999
 21
275.129291779
 31
0.0
  0
LINE
  5
1EF
330
1F
100
AcDbEntity
  8
0
  6
Continuous
 62
     7
100
AcDbLine
 10
162.991999933
 20
281.420481116
 30
0.0
 11
162.629692709
 21
274.317584895
 31
0.0
  0
LINE
  5
1F0
330
1F
100
AcDbEntity
  8
0
  6
Continuous
 62
     7
100
AcDbLine
 10
163.114862656
 20
274.317584895
 30
0.0
 11
164.0094926939999
 21
275.129291779
 31
0.0
  0
LINE
  5
1F1
330
1F
100
AcDbEntity
  8
0
  6
Continuous
 62
     7
100
AcDbLine
 10
164.056361606
 20
274.97544245
 30
0.0
 11
163.287550265
 21
274.260022358
 31
0.0
  0
ARC
  5
1F2
330
1F
100
AcDbEntity
  8
0
  6
Continuous
 62
     7
100
AcDbCircle
 10
163.484711145
 20
281.39454895
 30
0.0
 40
0.493393164
100
AcDbArc
 50
89.99999995000001
 51
118.30259773
  0
ARC
  5
1F3
330
1F
100
AcDbEntity
  8
0
  6
Continuous
 62
     7
100
AcDbCircle
 10
163.484711145
 20
281.394548947
 30
0.0
 40
0.493393166
100
AcDbArc
 50
137.536722755
 51
176.987212508
  0
LINE
  5
1F4
330
1F
100
AcDbEntity
  8
0
  6
Continuous
 62
     7
100
AcDbLine
 10
170.59475202
 20
274.300889229
 30
0.0
 11
170.068465975
 21
274.300889229
 31
0.0
  0
LINE
  5
1F5
330
1F
100
AcDbEntity
  8
0
  6
Continuous
 62
     7
100
AcDbLine
 10
163.764874297
 20
268.335340516
 30
0.0
 11
168.754458617
 21
268.335340516
 31
0.0
  0
LINE
  5
1F6
330
1F
100
AcDbEntity
  8
0
  6
Continuous
 62
     7
100
AcDbLine
 10
164.430631293
 20
280.474002691
 30
0.0
 11
169.405288125
 21
280.474002691
 31
0.0
  0
ARC
  5
1F7
330
1F
100
AcDbEntity
  8
0
  6
Continuous
 62
     7
100
AcDbCircle
 10
170.481572897
 20
281.394548947
 30
0.0
 40
0.493393167
100
AcDbArc
 50
58.966247589
 51
90.0
  0
ARC
  5
1F8
330
1F
100
AcDbEntity
  8
0
  6
Continuous
 62
     7
100
AcDbCircle
 10
170.571683777
 20
281.409966384
 30
0.0
 40
0.4047181960000001
100
AcDbArc
 50
354.135921875
 51
47.933861473
  0
LINE
  5
1F9
330
1F
100
AcDbEntity
  8
0
  6
Continuous
 62
     7
100
AcDbLine
 10
168.754670881
 20
268.33905513
 30
0.0
 11
169.960423037
 21
266.938750392
 31
0.0
  0
LWPOLYLINE
  5
1FC
330
1F
100
AcDbEntity
  8
0
  6
Continuous
 62
     7
100
AcDbPolyline
 90
        3
 70
   128
 43
0.0
 10
168.877046489
 20
268.394583118
 10
170.100072015
 20
267.040559725
 42
0.179961097
 10
170.236791166
 20
267.356250842
  0
ARC
  5
1FD
330
1F
100
AcDbEntity
  8
0
  6
Continuous
 62
     7
100
AcDbCircle
 10
169.7440799529999
 20
267.382183011
 30
0.0
 40
0.493393167
100
AcDbArc
 50
270.0
 51
296.006945451
  0
LINE
  5
1FE
330
1F
100
AcDbEntity
  8
0
  6
Continuous
 62
     7
100
AcDbLine
 10
170.068465975
 20
274.300889229
 30
0.0
 11
169.175643186
 21
275.090567522
 31
0.0
  0
LINE
  5
1FF
330
1F
100
AcDbEntity
  8
0
  6
Continuous
 62
     7
100
AcDbLine
 10
169.192089625
 20
273.49526295
 30
0.0
 11
168.877046489
 21
268.394583118
 31
0.0
  0
LINE
  5
200
330
1F
100
AcDbEntity
  8
0
  6
Continuous
 62
     7
100
AcDbLine
 10
170.063750886
 20
274.153120506
 30
0.0
 11
169.192089625
 21
273.49526295
 31
0.0
  0
LINE
  5
201
330
1F
100
AcDbEntity
  8
0
  6
Continuous
 62
     7
100
AcDbLine
 10
170.60648337
 20
274.153120506
 30
0.0
 11
170.063750886
 21
274.153120506
 31
0.0
  0
LINE
  5
202
330
1F
100
AcDbEntity
  8
0
  6
Continuous
 62
     7
100
AcDbLine
 10
162.747218202
 20
266.888789844
 30
0.0
 11
169.7440799529999
 21
266.888789844
 31
0.0
  0
LINE
  5
203
330
1F
100
AcDbEntity
  8
0
  6
Continuous
 62
     7
100
AcDbLine
 10
163.928961382
 20
273.676173778
 30
0.0
 11
169.138843297
 21
273.676173778
 31
0.0
  0
LINE
  5
204
330
1F
100
AcDbEntity
  8
0
  6
Continuous
 62
     7
100
AcDbLine
 10
169.932179375
 20
274.2353527
 30
0.0
 11
169.138843297
 21
273.676173778
 31
0.0
  0
LINE
  5
205
330
1F
100
AcDbEntity
  8
0
  6
Continuous
 62
     7
100
AcDbLine
 10
170.60648337
 20
274.153120506
 30
0.0
 11
170.236791166
 21
267.356250842
 31
0.0
  0
LINE
  5
206
330
1F
100
AcDbEntity
  8
0
  6
Continuous
 62
     7
100
AcDbLine
 10
170.974284111
 20
281.368616778
 30
0.0
 11
170.60229845
 21
274.300889229
 31
0.0
  0
LINE
  5
207
330
1F
100
AcDbEntity
  8
0
  6
Continuous
 62
     7
100
AcDbLine
 10
163.484711146
 20
281.887942114
 30
0.0
 11
170.481572897
 21
281.887942114
 31
0.0
  0
LINE
  5
208
330
1F
100
AcDbEntity
  8
0
  6
Continuous
 62
     7
100
AcDbLine
 10
169.5353482189999
 20
280.394702701
 30
0.0
 11
169.175643186
 21
275.090567522
 31
0.0
  0
LINE
  5
209
330
1F
100
AcDbEntity
  8
0
  6
Continuous
 62
     7
100
AcDbLine
 10
169.405288125
 20
280.474002691
 30
0.0
 11
170.735938259
 21
281.817319665
 31
0.0
  0
LINE
  5
20A
330
1F
100
AcDbEntity
  8
0
  6
Continuous
 62
     7
100
AcDbLine
 10
169.5353482189999
 20
280.394702701
 30
0.0
 11
170.842840111
 21
281.710417813
 31
0.0
  0
LINE
  5
20B
330
1F
100
AcDbEntity
  8
0
  6
Continuous
 62
     7
100
AcDbLine
 10
169.932179375
 20
274.2353527
 30
0.0
 11
169.066116901
 21
274.97544245
 31
0.0
  0
LINE
  5
20C
330
1F
100
AcDbEntity
  8
0
  6
Continuous
 62
     7
100
AcDbLine
 10
164.056361606
 20
274.97544245
 30
0.0
 11
169.066116901
 21
274.97544245
 31
0.0
  0
LWPOLYLINE
  5
20E
330
1F
100
AcDbEntity
  8
0
  6
Continuous
 62
     7
100
AcDbPolyline
 90
        4
 70
   128
 43
0.0
 10
183.491999933
 20
282.722769162
 42
0.4142135620000001
 10
182.991999933
 20
283.222769162
 10
176.791999933
 20
283.222769162
 42
0.4142135620000001
 10
176.291999933
 20
282.722769162
  0
LWPOLYLINE
  5
211
330
1F
100
AcDbEntity
  8
0
  6
Continuous
 62
     7
100
AcDbPolyline
 90
        4
 70
   128
 43
0.0
 10
191.691999933
 20
282.722769162
 42
0.4142135620000001
 10
191.191999933
 20
283.222769162
 10
184.991999933
 20
283.222769162
 42
0.4142135620000001
 10
184.491999933
 20
282.722769162
  0
LWPOLYLINE
  5
214
330
1F
100
AcDbEntity
  8
0
  6
Continuous
 62
     7
100
AcDbPolyline
 90
        5
 70
   128
 43
0.0
 10
176.291999933
 20
278.822769162
 42
0.4142135620000001
 10
176.791999933
 20
278.322769162
 10
182.991999933
 20
278.322769162
 42
0.4142135620000001
 10
183.491999933
 20
278.822769162
 10
183.491999933
 20
282.722769162
  0
LINE
  5
216
330
1F
100
AcDbEntity
  8
0
  6
Continuous
 62
     7
100
AcDbLine
 10
176.291999933
 20
282.722769162
 30
0.0
 11
176.291999933
 21
278.822769162
 31
0.0
  0
LWPOLYLINE
  5
218
330
1F
100
AcDbEntity
  8
0
  6
Continuous
 62
     7
100
AcDbPolyline
 90
        5
 70
   128
 43
0.0
 10
184.491999933
 20
278.822769162
 42
0.4142135620000001
 10
184.991999933
 20
278.322769162
 10
191.191999933
 20
278.322769162
 42
0.4142135620000001
 10
191.691999933
 20
278.822769162
 10
191.691999933
 20
282.722769162
  0
LINE
  5
21A
330
1F
100
AcDbEntity
  8
0
  6
Continuous
 62
     7
100
AcDbLine
 10
184.491999933
 20
282.722769162
 30
0.0
 11
184.491999933
 21
278.822769162
 31
0.0
  0
LWPOLYLINE
  5
21C
330
1F
100
AcDbEntity
  8
0
  6
Continuous
 62
     7
100
AcDbPolyline
 90
        4
 70
   128
 43
0.0
 10
183.491999933
 20
275.822769162
 42
0.4142135620000001
 10
182.991999933
 20
276.322769162
 10
176.791999933
 20
276.322769162
 42
0.4142135620000001
 10
176.291999933
 20
275.822769162
  0
LWPOLYLINE
  5
21F
330
1F
100
AcDbEntity
  8
0
  6
Continuous
 62
     7
100
AcDbPolyline
 90
        4
 70
   128
 43
0.0
 10
191.691999933
 20
275.822769162
 42
0.4142135620000001
 10
191.191999933
 20
276.322769162
 10
184.991999933
 20
276.322769162
 42
0.4142135620000001
 10
184.491999933
 20
275.822769162
  0
LWPOLYLINE
  5
222
330
1F
100
AcDbEntity
  8
0
  6
Continuous
 62
     7
100
AcDbPolyline
 90
        5
 70
   128
 43
0.0
 10
176.291999933
 20
271.922769162
 42
0.4142135620000001
 10
176.791999933
 20
271.422769162
 10
182.991999933
 20
271.422769162
 42
0.4142135620000001
 10
183.491999933
 20
271.922769162
 10
183.491999933
 20
275.822769162
  0
LINE
  5
224
330
1F
100
AcDbEntity
  8
0
  6
Continuous
 62
     7
100
AcDbLine
 10
176.291999933
 20
275.822769162
 30
0.0
 11
176.291999933
 21
271.922769162
 31
0.0
  0
LWPOLYLINE
  5
226
330
1F
100
AcDbEntity
  8
0
  6
Continuous
 62
     7
100
AcDbPolyline
 90
        5
 70
   128
 43
0.0
 10
184.491999933
 20
271.922769162
 42
0.4142135620000001
 10
184.991999933
 20
271.422769162
 10
191.191999933
 20
271.422769162
 42
0.4142135620000001
 10
191.691999933
 20
271.922769162
 10
191.691999933
 20
275.822769162
  0
LINE
  5
228
330
1F
100
AcDbEntity
  8
0
  6
Continuous
 62
     7
100
AcDbLine
 10
184.491999933
 20
275.822769162
 30
0.0
 11
184.491999933
 21
271.922769162
 31
0.0
  0
LWPOLYLINE
  5
22A
330
1F
100
AcDbEntity
  8
0
  6
Continuous
 62
     7
100
AcDbPolyline
 90
        4
 70
   128
 43
0.0
 10
326.091998781
 20
293.812999538
 10
372.091999865
 20
293.812999538
 10
372.091999865
 20
249.812999982
 10
326.091998781
 20
249.812999982
  0
LINE
  5
22B
330
1F
100
AcDbEntity
  8
0
  6
Continuous
 62
     7
100
AcDbLine
 10
355.491999865
 20
293.812999538
 30
0.0
 11
355.491999865
 21
249.812999982
 31
0.0
  0
LINE
  5
22C
330
1F
100
AcDbEntity
  8
0
  6
Continuous
 62
     7
100
AcDbLine
 10
326.091998781
 20
266.912999982
 30
0.0
 11
355.491999865
 21
266.912999982
 31
0.0
  0
LINE
  5
22D
330
1F
100
AcDbEntity
  8
0
  6
Continuous
 62
     7
100
AcDbLine
 10
326.091998781
 20
273.612999982
 30
0.0
 11
355.491999865
 21
273.612999982
 31
0.0
  0
LINE
  5
22E
330
1F
100
AcDbEntity
  8
0
  6
Continuous
 62
     7
100
AcDbLine
 10
326.091998781
 20
275.812999982
 30
0.0
 11
340.491998781
 21
275.812999982
 31
0.0
  0
LINE
  5
22F
330
1F
100
AcDbEntity
  8
0
  6
Continuous
 62
     7
100
AcDbLine
 10
340.491998781
 20
265.312999982
 30
0.0
 11
326.091998781
 21
265.312999982
 31
0.0
  0
LINE
  5
230
330
1F
100
AcDbEntity
  8
0
  6
Continuous
 62
     7
100
AcDbLine
 10
340.491998781
 20
266.912999982
 30
0.0
 11
340.491998781
 21
265.312999982
 31
0.0
  0
LINE
  5
231
330
1F
100
AcDbEntity
  8
0
  6
Continuous
 62
     7
100
AcDbLine
 10
340.491998781
 20
275.812999982
 30
0.0
 11
340.491998781
 21
273.612999982
 31
0.0
  0
LWPOLYLINE
  5
233
330
1F
100
AcDbEntity
  8
0
  6
Continuous
 62
     7
100
AcDbPolyline
 90
        8
 70
   128
 43
0.0
 10
355.491999865
 20
269.812999982
 10
359.391999865
 20
269.812999982
 10
359.391999865
 20
264.212999982
 10
361.091999865
 20
264.212999982
 10
361.091999865
 20
267.412999982
 10
362.291999865
 20
267.412999982
 10
362.291999865
 20
261.512999982
 10
355.491999865
 20
258.312999982
  0
LWPOLYLINE
  5
235
330
1F
100
AcDbEntity
  8
0
  6
Continuous
 62
     7
100
AcDbPolyline
 90
        4
 70
   128
 43
0.0
 10
245.091999865
 20
177.4129999999999
 10
245.091999865
 20
225.413
 10
243.491999865
 20
225.413
 10
243.491999865
 20
177.4129999999999
  0
LWPOLYLINE
  5
237
330
1F
100
AcDbEntity
  8
0
  6
Continuous
 62
     7
100
AcDbPolyline
 90
        4
 70
   128
 43
0.0
 10
245.091999865
 20
177.4129999999999
 10
245.091999865
 20
129.413
 10
243.491999865
 20
129.413
 10
243.491999865
 20
177.4129999999999
  0
LWPOLYLINE
  5
239
330
1F
100
AcDbEntity
  8
0
  6
Continuous
 62
     7
100
AcDbPolyline
 90
        4
 70
   128
 43
0.0
 10
243.491999865
 20
225.413
 10
238.591999865
 20
225.413
 10
238.591999865
 20
129.413
 10
243.491999865
 20
129.413
  0
LWPOLYLINE
  5
23B
330
1F
100
AcDbEntity
  8
0
  6
Continuous
 62
     7
100
AcDbPolyline
 90
        4
 70
   128
 43
0.0
 10
238.591999865
 20
129.413
 10
236.091999865
 20
129.413
 10
236.091999865
 20
225.413
 10
238.591999865
 20
225.413
  0
LWPOLYLINE
  5
23D
330
1F
100
AcDbEntity
  8
0
  6
Continuous
 62
     7
100
AcDbPolyline
 90
        5
 70
   128
 43
0.0
 10
273.591999855
 20
222.913
 10
273.591999855
 20
225.613
 10
275.591999855
 20
228.113
 10
284.691999855
 20
228.113
 10
284.691999855
 20
222.913
  0
LWPOLYLINE
  5
23F
330
1F
100
AcDbEntity
  8
0
  6
Continuous
 62
     7
100
AcDbPolyline
 90
        3
 70
   128
 43
0.0
 10
277.691999855
 20
228.113
 10
277.691999855
 20
225.313
 10
284.691999855
 20
225.313
  0
LINE
  5
240
330
1F
100
AcDbEntity
  8
0
  6
Continuous
 62
     7
100
AcDbLine
 10
302.491999855
 20
224.5129997
 30
0.0
 11
302.491999855
 21
225.412999538
 31
0.0
  0
LINE
  5
241
330
1F
100
AcDbEntity
  8
0
  6
Continuous
 62
     7
100
AcDbLine
 10
302.491999855
 20
226.312999376
 30
0.0
 11
302.491999855
 21
225.412999538
 31
0.0
  0
LWPOLYLINE
  5
243
330
1F
100
AcDbEntity
  8
0
  6
Continuous
 62
     7
100
AcDbPolyline
 90
        3
 70
   128
 43
0.0
 10
302.491999855
 20
224.5129997
 10
302.491999855
 20
223.2129997
 10
304.091999855
 20
223.2129997
  0
LINE
  5
244
330
1F
100
AcDbEntity
  8
0
  6
Continuous
 62
     7
100
AcDbLine
 10
302.491999855
 20
227.612999376
 30
0.0
 11
304.091999855
 21
227.612999376
 31
0.0
  0
LINE
  5
245
330
1F
100
AcDbEntity
  8
0
  6
Continuous
 62
     7
100
AcDbLine
 10
302.491999855
 20
226.312999376
 30
0.0
 11
302.491999855
 21
227.612999376
 31
0.0
  0
ARC
  5
246
330
1F
100
AcDbEntity
  8
0
  6
Continuous
 62
     7
100
AcDbCircle
 10
300.358667116
 20
225.412999538
 30
0.0
 40
4.333332738999999
100
AcDbArc
 50
329.489760452
 51
30.510239548
  0
LWPOLYLINE
  5
248
330
1F
100
AcDbEntity
  8
0
  6
Continuous
 62
     7
100
AcDbPolyline
 90
        5
 70
   128
 43
0.0
 10
273.591999855
 20
131.913
 10
273.591999855
 20
129.213
 10
275.591999855
 20
126.713
 10
284.691999855
 20
126.713
 10
284.691999855
 20
131.913
  0
LWPOLYLINE
  5
24A
330
1F
100
AcDbEntity
  8
0
  6
Continuous
 62
     7
100
AcDbPolyline
 90
        3
 70
   128
 43
0.0
 10
277.691999855
 20
126.713
 10
277.691999855
 20
129.513
 10
284.691999855
 20
129.513
  0
LINE
  5
24B
330
1F
100
AcDbEntity
  8
0
  6
Continuous
 62
     7
100
AcDbLine
 10
302.491999855
 20
130.3130003
 30
0.0
 11
302.491999855
 21
129.413000462
 31
0.0
  0
LINE
  5
24C
330
1F
100
AcDbEntity
  8
0
  6
Continuous
 62
     7
100
AcDbLine
 10
302.491999855
 20
128.513000624
 30
0.0
 11
302.491999855
 21
129.413000462
 31
0.0
  0
LWPOLYLINE
  5
24E
330
1F
100
AcDbEntity
  8
0
  6
Continuous
 62
     7
100
AcDbPolyline
 90
        3
 70
   128
 43
0.0
 10
302.491999855
 20
130.3130003
 10
302.491999855
 20
131.6130003
 10
304.091999855
 20
131.6130003
  0
LINE
  5
24F
330
1F
100
AcDbEntity
  8
0
  6
Continuous
 62
     7
100
AcDbLine
 10
302.491999855
 20
127.213000624
 30
0.0
 11
304.091999855
 21
127.213000624
 31
0.0
  0
LINE
  5
250
330
1F
100
AcDbEntity
  8
0
  6
Continuous
 62
     7
100
AcDbLine
 10
302.491999855
 20
128.513000624
 30
0.0
 11
302.491999855
 21
127.213000624
 31
0.0
  0
ARC
  5
251
330
1F
100
AcDbEntity
  8
0
  6
Continuous
 62
     7
100
AcDbCircle
 10
300.358667116
 20
129.413000462
 30
0.0
 40
4.333332738999999
100
AcDbArc
 50
329.489760452
 51
30.510239548
  0
LINE
  5
252
330
1F
100
AcDbEntity
  8
0
  6
Continuous
 62
     7
100
AcDbLine
 10
284.691999855
 20
226.312999376
 30
0.0
 11
302.491999855
 21
226.312999376
 31
0.0
  0
LINE
  5
253
330
1F
100
AcDbEntity
  8
0
  6
Continuous
 62
     7
100
AcDbLine
 10
284.691999855
 20
224.5129997
 30
0.0
 11
302.491999855
 21
224.5129997
 31
0.0
  0
LINE
  5
254
330
1F
100
AcDbEntity
  8
0
  6
Continuous
 62
     7
100
AcDbLine
 10
284.691999855
 20
130.3130003
 30
0.0
 11
302.491999855
 21
130.3130003
 31
0.0
  0
LINE
  5
255
330
1F
100
AcDbEntity
  8
0
  6
Continuous
 62
     7
100
AcDbLine
 10
284.691999855
 20
128.513000624
 30
0.0
 11
302.491999855
 21
128.513000624
 31
0.0
  0
LINE
  5
256
330
1F
100
AcDbEntity
  8
0
  6
Continuous
 62
     7
100
AcDbLine
 10
325.091999865
 20
131.913
 30
0.0
 11
325.091999865
 21
177.4129999999999
 31
0.0
  0
LINE
  5
257
330
1F
100
AcDbEntity
  8
0
  6
Continuous
 62
     7
100
AcDbLine
 10
245.091999865
 20
131.913
 30
0.0
 11
325.091999865
 21
131.913
 31
0.0
  0
LWPOLYLINE
  5
259
330
1F
100
AcDbEntity
  8
0
  6
Continuous
 62
     7
100
AcDbPolyline
 90
        3
 70
   128
 43
0.0
 10
245.091999865
 20
222.913
 10
325.091999865
 20
222.913
 10
325.091999865
 20
177.4129999999999
  0
LWPOLYLINE
  5
25B
330
1F
100
AcDbEntity
  8
0
  6
Continuous
 62
     7
100
AcDbPolyline
 90
        3
 70
   128
 43
0.0
 10
333.249998707
 20
173.09300772
 10
333.249998707
 20
169.812011001
 10
332.091999865
 20
169.812011001
  0
LWPOLYLINE
  5
25D
330
1F
100
AcDbEntity
  8
0
  6
Continuous
 62
     7
100
AcDbPolyline
 90
        3
 70
   128
 43
0.0
 10
333.249998707
 20
173.09300772
 10
333.249998707
 20
176.374004439
 10
332.091999865
 20
176.374004439
  0
LINE
  5
25E
330
1F
100
AcDbEntity
  8
0
  6
Continuous
 62
     7
100
AcDbLine
 10
333.848298109
 20
175.40321541
 30
0.0
 11
333.848298109
 21
170.78280003
 31
0.0
  0
LINE
  5
25F
330
1F
100
AcDbEntity
  8
0
  6
Continuous
 62
     7
100
AcDbLine
 10
333.848298109
 20
175.40321541
 30
0.0
 11
334.673372284
 21
175.320707992
 31
0.0
  0
LINE
  5
260
330
1F
100
AcDbEntity
  8
0
  6
Continuous
 62
     7
100
AcDbLine
 10
333.848298109
 20
170.78280003
 30
0.0
 11
334.673372284
 21
170.865307448
 31
0.0
  0
ARC
  5
261
330
1F
100
AcDbEntity
  8
0
  6
Continuous
 62
     7
100
AcDbCircle
 10
334.508357449
 20
171.607874205
 30
0.0
 40
0.7425667570000001
100
AcDbArc
 50
282.6
 51
333.4
  0
ARC
  5
262
330
1F
100
AcDbEntity
  8
0
  6
Continuous
 62
     7
100
AcDbCircle
 10
334.508357449
 20
174.578141235
 30
0.0
 40
0.7425667570000001
100
AcDbArc
 50
26.6
 51
77.40000000000001
  0
ARC
  5
263
330
1F
100
AcDbEntity
  8
0
  6
Continuous
 62
     7
100
AcDbCircle
 10
330.300479157
 20
173.09300772
 30
0.0
 40
5.197967301999999
100
AcDbArc
 50
339.4
 51
20.6
  0
LINE
  5
264
330
1F
100
AcDbEntity
  8
0
  6
Continuous
 62
     7
100
AcDbLine
 10
336.736057721
 20
173.09300772
 30
0.0
 11
331.373075584
 21
173.09300772
 31
0.0
  0
LWPOLYLINE
  5
266
330
1F
100
AcDbEntity
  8
0
  6
Continuous
 62
     7
100
AcDbPolyline
 90
        3
 70
   128
 43
0.0
 10
333.848298109
 20
171.027909785
 10
333.249998707
 20
171.027909785
 10
333.249998707
 20
173.09300772
  0
LWPOLYLINE
  5
268
330
1F
100
AcDbEntity
  8
0
  6
Continuous
 62
     7
100
AcDbPolyline
 90
        3
 70
   128
 43
0.0
 10
333.848298109
 20
175.158105655
 10
333.249998707
 20
175.158105655
 10
333.249998707
 20
173.09300772
  0
LINE
  5
269
330
1F
100
AcDbEntity
  8
0
  6
Continuous
 62
     7
100
AcDbLine
 10
333.249998707
 20
173.36320745
 30
0.0
 11
333.848298109
 21
172.842107971
 31
0.0
  0
LWPOLYLINE
  5
26B
330
1F
100
AcDbEntity
  8
0
  6
Continuous
 62
     7
100
AcDbPolyline
 90
        3
 70
   128
 43
0.0
 10
333.249998707
 20
180.813
 10
333.249998707
 20
177.532003281
 10
332.091999865
 20
177.532003281
  0
LWPOLYLINE
  5
26D
330
1F
100
AcDbEntity
  8
0
  6
Continuous
 62
     7
100
AcDbPolyline
 90
        3
 70
   128
 43
0.0
 10
333.249998707
 20
180.813
 10
333.249998707
 20
184.093996719
 10
332.091999865
 20
184.093996719
  0
LINE
  5
26E
330
1F
100
AcDbEntity
  8
0
  6
Continuous
 62
     7
100
AcDbLine
 10
333.848298109
 20
183.12320769
 30
0.0
 11
333.848298109
 21
178.50279231
 31
0.0
  0
LINE
  5
26F
330
1F
100
AcDbEntity
  8
0
  6
Continuous
 62
     7
100
AcDbLine
 10
333.848298109
 20
183.12320769
 30
0.0
 11
334.673372284
 21
183.040700272
 31
0.0
  0
LINE
  5
270
330
1F
100
AcDbEntity
  8
0
  6
Continuous
 62
     7
100
AcDbLine
 10
333.848298109
 20
178.50279231
 30
0.0
 11
334.673372284
 21
178.585299728
 31
0.0
  0
ARC
  5
271
330
1F
100
AcDbEntity
  8
0
  6
Continuous
 62
     7
100
AcDbCircle
 10
334.508357449
 20
179.327866485
 30
0.0
 40
0.7425667570000001
100
AcDbArc
 50
282.6
 51
333.4
  0
ARC
  5
272
330
1F
100
AcDbEntity
  8
0
  6
Continuous
 62
     7
100
AcDbCircle
 10
334.508357449
 20
182.298133515
 30
0.0
 40
0.7425667570000001
100
AcDbArc
 50
26.6
 51
77.40000000000001
  0
ARC
  5
273
330
1F
100
AcDbEntity
  8
0
  6
Continuous
 62
     7
100
AcDbCircle
 10
330.300479157
 20
180.813
 30
0.0
 40
5.197967301999999
100
AcDbArc
 50
339.4
 51
20.6
  0
LINE
  5
274
330
1F
100
AcDbEntity
  8
0
  6
Continuous
 62
     7
100
AcDbLine
 10
336.736057721
 20
180.813
 30
0.0
 11
331.373075584
 21
180.813
 31
0.0
  0
LWPOLYLINE
  5
276
330
1F
100
AcDbEntity
  8
0
  6
Continuous
 62
     7
100
AcDbPolyline
 90
        3
 70
   128
 43
0.0
 10
333.848298109
 20
178.747902065
 10
333.249998707
 20
178.747902065
 10
333.249998707
 20
180.813
  0
LWPOLYLINE
  5
278
330
1F
100
AcDbEntity
  8
0
  6
Continuous
 62
     7
100
AcDbPolyline
 90
        3
 70
   128
 43
0.0
 10
333.848298109
 20
182.878097935
 10
333.249998707
 20
182.878097935
 10
333.249998707
 20
180.813
  0
LINE
  5
279
330
1F
100
AcDbEntity
  8
0
  6
Continuous
 62
     7
100
AcDbLine
 10
333.249998707
 20
181.08319973
 30
0.0
 11
333.848298109
 21
180.5621002509999
 31
0.0
  0
LWPOLYLINE
  5
27B
330
1F
100
AcDbEntity
  8
0
  6
Continuous
 62
     7
100
AcDbPolyline
 90
        3
 70
   128
 43
0.0
 10
333.249998707
 20
188.53299228
 10
333.249998707
 20
185.251995561
 10
332.091999865
 20
185.251995561
  0
LWPOLYLINE
  5
27D
330
1F
100
AcDbEntity
  8
0
  6
Continuous
 62
     7
100
AcDbPolyline
 90
        3
 70
   128
 43
0.0
 10
333.249998707
 20
188.53299228
 10
333.249998707
 20
191.813988999
 10
332.091999865
 20
191.813988999
  0
LINE
  5
27E
330
1F
100
AcDbEntity
  8
0
  6
Continuous
 62
     7
100
AcDbLine
 10
333.848298109
 20
190.84319997
 30
0.0
 11
333.848298109
 21
186.22278459
 31
0.0
  0
LINE
  5
27F
330
1F
100
AcDbEntity
  8
0
  6
Continuous
 62
     7
100
AcDbLine
 10
333.848298109
 20
190.84319997
 30
0.0
 11
334.673372284
 21
190.760692552
 31
0.0
  0
LINE
  5
280
330
1F
100
AcDbEntity
  8
0
  6
Continuous
 62
     7
100
AcDbLine
 10
333.848298109
 20
186.22278459
 30
0.0
 11
334.673372284
 21
186.305292008
 31
0.0
  0
ARC
  5
281
330
1F
100
AcDbEntity
  8
0
  6
Continuous
 62
     7
100
AcDbCircle
 10
334.508357449
 20
187.047858765
 30
0.0
 40
0.7425667570000001
100
AcDbArc
 50
282.6
 51
333.4
  0
ARC
  5
282
330
1F
100
AcDbEntity
  8
0
  6
Continuous
 62
     7
100
AcDbCircle
 10
334.508357449
 20
190.018125795
 30
0.0
 40
0.7425667570000001
100
AcDbArc
 50
26.6
 51
77.40000000000001
  0
ARC
  5
283
330
1F
100
AcDbEntity
  8
0
  6
Continuous
 62
     7
100
AcDbCircle
 10
330.300479157
 20
188.53299228
 30
0.0
 40
5.197967301999999
100
AcDbArc
 50
339.4
 51
20.6
  0
LINE
  5
284
330
1F
100
AcDbEntity
  8
0
  6
Continuous
 62
     7
100
AcDbLine
 10
336.736057721
 20
188.53299228
 30
0.0
 11
331.373075584
 21
188.53299228
 31
0.0
  0
LWPOLYLINE
  5
286
330
1F
100
AcDbEntity
  8
0
  6
Continuous
 62
     7
100
AcDbPolyline
 90
        3
 70
   128
 43
0.0
 10
333.848298109
 20
186.467894345
 10
333.249998707
 20
186.467894345
 10
333.249998707
 20
188.53299228
  0
LWPOLYLINE
  5
288
330
1F
100
AcDbEntity
  8
0
  6
Continuous
 62
     7
100
AcDbPolyline
 90
        3
 70
   128
 43
0.0
 10
333.848298109
 20
190.598090215
 10
333.249998707
 20
190.598090215
 10
333.249998707
 20
188.53299228
  0
LINE
  5
289
330
1F
100
AcDbEntity
  8
0
  6
Continuous
 62
     7
100
AcDbLine
 10
333.249998707
 20
188.80319201
 30
0.0
 11
333.848298109
 21
188.282092531
 31
0.0
  0
LWPOLYLINE
  5
28B
330
1F
100
AcDbEntity
  8
0
  6
Continuous
 62
     7
100
AcDbPolyline
 90
        3
 70
   128
 43
0.0
 10
333.249998707
 20
196.25298456
 10
333.249998707
 20
192.971987841
 10
332.091999865
 20
192.971987841
  0
LWPOLYLINE
  5
28D
330
1F
100
AcDbEntity
  8
0
  6
Continuous
 62
     7
100
AcDbPolyline
 90
        3
 70
   128
 43
0.0
 10
333.249998707
 20
196.25298456
 10
333.249998707
 20
199.533981279
 10
332.091999865
 20
199.533981279
  0
LINE
  5
28E
330
1F
100
AcDbEntity
  8
0
  6
Continuous
 62
     7
100
AcDbLine
 10
333.848298109
 20
198.56319225
 30
0.0
 11
333.848298109
 21
193.94277687
 31
0.0
  0
LINE
  5
28F
330
1F
100
AcDbEntity
  8
0
  6
Continuous
 62
     7
100
AcDbLine
 10
333.848298109
 20
198.56319225
 30
0.0
 11
334.673372284
 21
198.480684832
 31
0.0
  0
LINE
  5
290
330
1F
100
AcDbEntity
  8
0
  6
Continuous
 62
     7
100
AcDbLine
 10
333.848298109
 20
193.94277687
 30
0.0
 11
334.673372284
 21
194.025284288
 31
0.0
  0
ARC
  5
291
330
1F
100
AcDbEntity
  8
0
  6
Continuous
 62
     7
100
AcDbCircle
 10
334.508357449
 20
194.767851045
 30
0.0
 40
0.7425667570000001
100
AcDbArc
 50
282.6
 51
333.4
  0
ARC
  5
292
330
1F
100
AcDbEntity
  8
0
  6
Continuous
 62
     7
100
AcDbCircle
 10
334.508357449
 20
197.738118075
 30
0.0
 40
0.7425667570000001
100
AcDbArc
 50
26.6
 51
77.40000000000001
  0
ARC
  5
293
330
1F
100
AcDbEntity
  8
0
  6
Continuous
 62
     7
100
AcDbCircle
 10
330.300479157
 20
196.25298456
 30
0.0
 40
5.197967301999999
100
AcDbArc
 50
339.4
 51
20.6
  0
LINE
  5
294
330
1F
100
AcDbEntity
  8
0
  6
Continuous
 62
     7
100
AcDbLine
 10
336.736057721
 20
196.25298456
 30
0.0
 11
331.373075584
 21
196.25298456
 31
0.0
  0
LWPOLYLINE
  5
296
330
1F
100
AcDbEntity
  8
0
  6
Continuous
 62
     7
100
AcDbPolyline
 90
        3
 70
   128
 43
0.0
 10
333.848298109
 20
194.187886625
 10
333.249998707
 20
194.187886625
 10
333.249998707
 20
196.25298456
  0
LWPOLYLINE
  5
298
330
1F
100
AcDbEntity
  8
0
  6
Continuous
 62
     7
100
AcDbPolyline
 90
        3
 70
   128
 43
0.0
 10
333.848298109
 20
198.318082495
 10
333.249998707
 20
198.318082495
 10
333.249998707
 20
196.25298456
  0
LINE
  5
299
330
1F
100
AcDbEntity
  8
0
  6
Continuous
 62
     7
100
AcDbLine
 10
333.249998707
 20
196.52318429
 30
0.0
 11
333.848298109
 21
196.002084811
 31
0.0
  0
LWPOLYLINE
  5
29B
330
1F
100
AcDbEntity
  8
0
  6
Continuous
 62
     7
100
AcDbPolyline
 90
        3
 70
   128
 43
0.0
 10
333.249998707
 20
203.97297684
 10
333.249998707
 20
200.691980121
 10
332.091999865
 20
200.691980121
  0
LWPOLYLINE
  5
29D
330
1F
100
AcDbEntity
  8
0
  6
Continuous
 62
     7
100
AcDbPolyline
 90
        3
 70
   128
 43
0.0
 10
333.249998707
 20
203.97297684
 10
333.249998707
 20
207.253973559
 10
332.091999865
 20
207.253973559
  0
LINE
  5
29E
330
1F
100
AcDbEntity
  8
0
  6
Continuous
 62
     7
100
AcDbLine
 10
333.848298109
 20
206.28318453
 30
0.0
 11
333.848298109
 21
201.66276915
 31
0.0
  0
LINE
  5
29F
330
1F
100
AcDbEntity
  8
0
  6
Continuous
 62
     7
100
AcDbLine
 10
333.848298109
 20
206.28318453
 30
0.0
 11
334.673372284
 21
206.200677112
 31
0.0
  0
LINE
  5
2A0
330
1F
100
AcDbEntity
  8
0
  6
Continuous
 62
     7
100
AcDbLine
 10
333.848298109
 20
201.66276915
 30
0.0
 11
334.673372284
 21
201.745276568
 31
0.0
  0
ARC
  5
2A1
330
1F
100
AcDbEntity
  8
0
  6
Continuous
 62
     7
100
AcDbCircle
 10
334.508357449
 20
202.487843325
 30
0.0
 40
0.7425667570000001
100
AcDbArc
 50
282.6
 51
333.4
  0
ARC
  5
2A2
330
1F
100
AcDbEntity
  8
0
  6
Continuous
 62
     7
100
AcDbCircle
 10
334.508357449
 20
205.458110355
 30
0.0
 40
0.7425667570000001
100
AcDbArc
 50
26.6
 51
77.40000000000001
  0
ARC
  5
2A3
330
1F
100
AcDbEntity
  8
0
  6
Continuous
 62
     7
100
AcDbCircle
 10
330.300479157
 20
203.97297684
 30
0.0
 40
5.197967301999999
100
AcDbArc
 50
339.4
 51
20.6
  0
LINE
  5
2A4
330
1F
100
AcDbEntity
  8
0
  6
Continuous
 62
     7
100
AcDbLine
 10
336.736057721
 20
203.97297684
 30
0.0
 11
331.373075584
 21
203.97297684
 31
0.0
  0
LWPOLYLINE
  5
2A6
330
1F
100
AcDbEntity
  8
0
  6
Continuous
 62
     7
100
AcDbPolyline
 90
        3
 70
   128
 43
0.0
 10
333.848298109
 20
201.907878905
 10
333.249998707
 20
201.907878905
 10
333.249998707
 20
203.97297684
  0
LWPOLYLINE
  5
2A8
330
1F
100
AcDbEntity
  8
0
  6
Continuous
 62
     7
100
AcDbPolyline
 90
        3
 70
   128
 43
0.0
 10
333.848298109
 20
206.038074775
 10
333.249998707
 20
206.038074775
 10
333.249998707
 20
203.97297684
  0
LINE
  5
2A9
330
1F
100
AcDbEntity
  8
0
  6
Continuous
 62
     7
100
AcDbLine
 10
333.249998707
 20
204.24317657
 30
0.0
 11
333.848298109
 21
203.722077091
 31
0.0
  0
LWPOLYLINE
  5
2AB
330
1F
100
AcDbEntity
  8
0
  6
Continuous
 62
     7
100
AcDbPolyline
 90
        3
 70
   128
 43
0.0
 10
333.249998707
 20
211.69296912
 10
333.249998707
 20
208.411972401
 10
332.091999865
 20
208.411972401
  0
LWPOLYLINE
  5
2AD
330
1F
100
AcDbEntity
  8
0
  6
Continuous
 62
     7
100
AcDbPolyline
 90
        3
 70
   128
 43
0.0
 10
333.249998707
 20
211.69296912
 10
333.249998707
 20
214.973965839
 10
332.091999865
 20
214.973965839
  0
LINE
  5
2AE
330
1F
100
AcDbEntity
  8
0
  6
Continuous
 62
     7
100
AcDbLine
 10
333.848298109
 20
214.00317681
 30
0.0
 11
333.848298109
 21
209.38276143
 31
0.0
  0
LINE
  5
2AF
330
1F
100
AcDbEntity
  8
0
  6
Continuous
 62
     7
100
AcDbLine
 10
333.848298109
 20
214.00317681
 30
0.0
 11
334.673372284
 21
213.920669392
 31
0.0
  0
LINE
  5
2B0
330
1F
100
AcDbEntity
  8
0
  6
Continuous
 62
     7
100
AcDbLine
 10
333.848298109
 20
209.38276143
 30
0.0
 11
334.673372284
 21
209.465268848
 31
0.0
  0
ARC
  5
2B1
330
1F
100
AcDbEntity
  8
0
  6
Continuous
 62
     7
100
AcDbCircle
 10
334.508357449
 20
210.207835605
 30
0.0
 40
0.7425667570000001
100
AcDbArc
 50
282.6
 51
333.4
  0
ARC
  5
2B2
330
1F
100
AcDbEntity
  8
0
  6
Continuous
 62
     7
100
AcDbCircle
 10
334.508357449
 20
213.178102635
 30
0.0
 40
0.7425667570000001
100
AcDbArc
 50
26.6
 51
77.40000000000001
  0
ARC
  5
2B3
330
1F
100
AcDbEntity
  8
0
  6
Continuous
 62
     7
100
AcDbCircle
 10
330.300479157
 20
211.69296912
 30
0.0
 40
5.197967301999999
100
AcDbArc
 50
339.4
 51
20.6
  0
LINE
  5
2B4
330
1F
100
AcDbEntity
  8
0
  6
Continuous
 62
     7
100
AcDbLine
 10
336.736057721
 20
211.69296912
 30
0.0
 11
331.373075584
 21
211.69296912
 31
0.0
  0
LWPOLYLINE
  5
2B6
330
1F
100
AcDbEntity
  8
0
  6
Continuous
 62
     7
100
AcDbPolyline
 90
        3
 70
   128
 43
0.0
 10
333.848298109
 20
209.627871185
 10
333.249998707
 20
209.627871185
 10
333.249998707
 20
211.69296912
  0
LWPOLYLINE
  5
2B8
330
1F
100
AcDbEntity
  8
0
  6
Continuous
 62
     7
100
AcDbPolyline
 90
        3
 70
   128
 43
0.0
 10
333.848298109
 20
213.758067055
 10
333.249998707
 20
213.758067055
 10
333.249998707
 20
211.69296912
  0
LINE
  5
2B9
330
1F
100
AcDbEntity
  8
0
  6
Continuous
 62
     7
100
AcDbLine
 10
333.249998707
 20
211.96316885
 30
0.0
 11
333.848298109
 21
211.442069371
 31
0.0
  0
LWPOLYLINE
  5
2BB
330
1F
100
AcDbEntity
  8
0
  6
Continuous
 62
     7
100
AcDbPolyline
 90
        3
 70
   128
 43
0.0
 10
333.249998707
 20
149.93303088
 10
333.249998707
 20
146.652034161
 10
332.091999865
 20
146.652034161
  0
LWPOLYLINE
  5
2BD
330
1F
100
AcDbEntity
  8
0
  6
Continuous
 62
     7
100
AcDbPolyline
 90
        3
 70
   128
 43
0.0
 10
333.249998707
 20
149.93303088
 10
333.249998707
 20
153.214027599
 10
332.091999865
 20
153.214027599
  0
LINE
  5
2BE
330
1F
100
AcDbEntity
  8
0
  6
Continuous
 62
     7
100
AcDbLine
 10
333.848298109
 20
152.24323857
 30
0.0
 11
333.848298109
 21
147.62282319
 31
0.0
  0
LINE
  5
2BF
330
1F
100
AcDbEntity
  8
0
  6
Continuous
 62
     7
100
AcDbLine
 10
333.848298109
 20
152.24323857
 30
0.0
 11
334.673372284
 21
152.160731152
 31
0.0
  0
LINE
  5
2C0
330
1F
100
AcDbEntity
  8
0
  6
Continuous
 62
     7
100
AcDbLine
 10
333.848298109
 20
147.62282319
 30
0.0
 11
334.673372284
 21
147.705330608
 31
0.0
  0
ARC
  5
2C1
330
1F
100
AcDbEntity
  8
0
  6
Continuous
 62
     7
100
AcDbCircle
 10
334.508357449
 20
148.447897365
 30
0.0
 40
0.7425667570000001
100
AcDbArc
 50
282.6
 51
333.4
  0
ARC
  5
2C2
330
1F
100
AcDbEntity
  8
0
  6
Continuous
 62
     7
100
AcDbCircle
 10
334.508357449
 20
151.418164395
 30
0.0
 40
0.7425667570000001
100
AcDbArc
 50
26.6
 51
77.40000000000001
  0
ARC
  5
2C3
330
1F
100
AcDbEntity
  8
0
  6
Continuous
 62
     7
100
AcDbCircle
 10
330.300479157
 20
149.93303088
 30
0.0
 40
5.197967301999999
100
AcDbArc
 50
339.4
 51
20.6
  0
LINE
  5
2C4
330
1F
100
AcDbEntity
  8
0
  6
Continuous
 62
     7
100
AcDbLine
 10
336.736057721
 20
149.93303088
 30
0.0
 11
331.373075584
 21
149.93303088
 31
0.0
  0
LWPOLYLINE
  5
2C6
330
1F
100
AcDbEntity
  8
0
  6
Continuous
 62
     7
100
AcDbPolyline
 90
        3
 70
   128
 43
0.0
 10
333.848298109
 20
147.867932945
 10
333.249998707
 20
147.867932945
 10
333.249998707
 20
149.93303088
  0
LWPOLYLINE
  5
2C8
330
1F
100
AcDbEntity
  8
0
  6
Continuous
 62
     7
100
AcDbPolyline
 90
        3
 70
   128
 43
0.0
 10
333.848298109
 20
151.998128815
 10
333.249998707
 20
151.998128815
 10
333.249998707
 20
149.93303088
  0
LINE
  5
2C9
330
1F
100
AcDbEntity
  8
0
  6
Continuous
 62
     7
100
AcDbLine
 10
333.249998707
 20
150.20323061
 30
0.0
 11
333.848298109
 21
149.682131131
 31
0.0
  0
LWPOLYLINE
  5
2CB
330
1F
100
AcDbEntity
  8
0
  6
Continuous
 62
     7
100
AcDbPolyline
 90
        3
 70
   128
 43
0.0
 10
333.249998707
 20
157.65302316
 10
333.249998707
 20
154.372026441
 10
332.091999865
 20
154.372026441
  0
LWPOLYLINE
  5
2CD
330
1F
100
AcDbEntity
  8
0
  6
Continuous
 62
     7
100
AcDbPolyline
 90
        3
 70
   128
 43
0.0
 10
333.249998707
 20
157.65302316
 10
333.249998707
 20
160.934019879
 10
332.091999865
 20
160.934019879
  0
LINE
  5
2CE
330
1F
100
AcDbEntity
  8
0
  6
Continuous
 62
     7
100
AcDbLine
 10
333.848298109
 20
159.96323085
 30
0.0
 11
333.848298109
 21
155.34281547
 31
0.0
  0
LINE
  5
2CF
330
1F
100
AcDbEntity
  8
0
  6
Continuous
 62
     7
100
AcDbLine
 10
333.848298109
 20
159.96323085
 30
0.0
 11
334.673372284
 21
159.880723432
 31
0.0
  0
LINE
  5
2D0
330
1F
100
AcDbEntity
  8
0
  6
Continuous
 62
     7
100
AcDbLine
 10
333.848298109
 20
155.34281547
 30
0.0
 11
334.673372284
 21
155.425322888
 31
0.0
  0
ARC
  5
2D1
330
1F
100
AcDbEntity
  8
0
  6
Continuous
 62
     7
100
AcDbCircle
 10
334.508357449
 20
156.167889645
 30
0.0
 40
0.7425667570000001
100
AcDbArc
 50
282.6
 51
333.4
  0
ARC
  5
2D2
330
1F
100
AcDbEntity
  8
0
  6
Continuous
 62
     7
100
AcDbCircle
 10
334.508357449
 20
159.138156675
 30
0.0
 40
0.7425667570000001
100
AcDbArc
 50
26.6
 51
77.40000000000001
  0
ARC
  5
2D3
330
1F
100
AcDbEntity
  8
0
  6
Continuous
 62
     7
100
AcDbCircle
 10
330.300479157
 20
157.65302316
 30
0.0
 40
5.197967301999999
100
AcDbArc
 50
339.4
 51
20.6
  0
LINE
  5
2D4
330
1F
100
AcDbEntity
  8
0
  6
Continuous
 62
     7
100
AcDbLine
 10
336.736057721
 20
157.65302316
 30
0.0
 11
331.373075584
 21
157.65302316
 31
0.0
  0
LWPOLYLINE
  5
2D6
330
1F
100
AcDbEntity
  8
0
  6
Continuous
 62
     7
100
AcDbPolyline
 90
        3
 70
   128
 43
0.0
 10
333.848298109
 20
155.587925225
 10
333.249998707
 20
155.587925225
 10
333.249998707
 20
157.65302316
  0
LWPOLYLINE
  5
2D8
330
1F
100
AcDbEntity
  8
0
  6
Continuous
 62
     7
100
AcDbPolyline
 90
        3
 70
   128
 43
0.0
 10
333.848298109
 20
159.718121095
 10
333.249998707
 20
159.718121095
 10
333.249998707
 20
157.65302316
  0
LINE
  5
2D9
330
1F
100
AcDbEntity
  8
0
  6
Continuous
 62
     7
100
AcDbLine
 10
333.249998707
 20
157.92322289
 30
0.0
 11
333.848298109
 21
157.402123411
 31
0.0
  0
LWPOLYLINE
  5
2DB
330
1F
100
AcDbEntity
  8
0
  6
Continuous
 62
     7
100
AcDbPolyline
 90
        3
 70
   128
 43
0.0
 10
333.249998707
 20
165.3730154399999
 10
333.249998707
 20
162.092018721
 10
332.091999865
 20
162.092018721
  0
LWPOLYLINE
  5
2DD
330
1F
100
AcDbEntity
  8
0
  6
Continuous
 62
     7
100
AcDbPolyline
 90
        3
 70
   128
 43
0.0
 10
333.249998707
 20
165.3730154399999
 10
333.249998707
 20
168.654012159
 10
332.091999865
 20
168.654012159
  0
LINE
  5
2DE
330
1F
100
AcDbEntity
  8
0
  6
Continuous
 62
     7
100
AcDbLine
 10
333.848298109
 20
167.68322313
 30
0.0
 11
333.848298109
 21
163.06280775
 31
0.0
  0
LINE
  5
2DF
330
1F
100
AcDbEntity
  8
0
  6
Continuous
 62
     7
100
AcDbLine
 10
333.848298109
 20
167.68322313
 30
0.0
 11
334.673372284
 21
167.600715712
 31
0.0
  0
LINE
  5
2E0
330
1F
100
AcDbEntity
  8
0
  6
Continuous
 62
     7
100
AcDbLine
 10
333.848298109
 20
163.06280775
 30
0.0
 11
334.673372284
 21
163.145315168
 31
0.0
  0
ARC
  5
2E1
330
1F
100
AcDbEntity
  8
0
  6
Continuous
 62
     7
100
AcDbCircle
 10
334.508357449
 20
163.887881925
 30
0.0
 40
0.7425667570000001
100
AcDbArc
 50
282.6
 51
333.4
  0
ARC
  5
2E2
330
1F
100
AcDbEntity
  8
0
  6
Continuous
 62
     7
100
AcDbCircle
 10
334.508357449
 20
166.858148955
 30
0.0
 40
0.7425667570000001
100
AcDbArc
 50
26.6
 51
77.40000000000001
  0
ARC
  5
2E3
330
1F
100
AcDbEntity
  8
0
  6
Continuous
 62
     7
100
AcDbCircle
 10
330.300479157
 20
165.3730154399999
 30
0.0
 40
5.197967301999999
100
AcDbArc
 50
339.4
 51
20.6
  0
LINE
  5
2E4
330
1F
100
AcDbEntity
  8
0
  6
Continuous
 62
     7
100
AcDbLine
 10
336.736057721
 20
165.3730154399999
 30
0.0
 11
331.373075584
 21
165.3730154399999
 31
0.0
  0
LWPOLYLINE
  5
2E6
330
1F
100
AcDbEntity
  8
0
  6
Continuous
 62
     7
100
AcDbPolyline
 90
        3
 70
   128
 43
0.0
 10
333.848298109
 20
163.307917505
 10
333.249998707
 20
163.307917505
 10
333.249998707
 20
165.3730154399999
  0
LWPOLYLINE
  5
2E8
330
1F
100
AcDbEntity
  8
0
  6
Continuous
 62
     7
100
AcDbPolyline
 90
        3
 70
   128
 43
0.0
 10
333.848298109
 20
167.438113375
 10
333.249998707
 20
167.438113375
 10
333.249998707
 20
165.3730154399999
  0
LINE
  5
2E9
330
1F
100
AcDbEntity
  8
0
  6
Continuous
 62
     7
100
AcDbLine
 10
333.249998707
 20
165.64321517
 30
0.0
 11
333.848298109
 21
165.122115691
 31
0.0
  0
LWPOLYLINE
  5
2EB
330
1F
100
AcDbEntity
  8
0
  6
Continuous
 62
     7
100
AcDbPolyline
 90
        3
 70
   128
 43
0.0
 10
332.091999865
 20
215.186265627
 10
338.96279531
 20
215.186265627
 10
338.96279531
 20
215.958264855
  0
LWPOLYLINE
  5
2ED
330
1F
100
AcDbEntity
  8
0
  6
Continuous
 62
     7
100
AcDbPolyline
 90
        4
 70
   128
 43
0.0
 10
332.091999865
 20
207.466273347
 10
338.96279531
 20
207.466273347
 10
338.96279531
 20
208.238272575
 10
332.091999865
 20
208.238272575
  0
LWPOLYLINE
  5
2EF
330
1F
100
AcDbEntity
  8
0
  6
Continuous
 62
     7
100
AcDbPolyline
 90
        4
 70
   128
 43
0.0
 10
332.091999865
 20
199.746281067
 10
338.96279531
 20
199.746281067
 10
338.96279531
 20
200.518280295
 10
332.091999865
 20
200.518280295
  0
LWPOLYLINE
  5
2F1
330
1F
100
AcDbEntity
  8
0
  6
Continuous
 62
     7
100
AcDbPolyline
 90
        4
 70
   128
 43
0.0
 10
332.091999865
 20
192.026288787
 10
338.96279531
 20
192.026288787
 10
338.96279531
 20
192.798288015
 10
332.091999865
 20
192.798288015
  0
LWPOLYLINE
  5
2F3
330
1F
100
AcDbEntity
  8
0
  6
Continuous
 62
     7
100
AcDbPolyline
 90
        4
 70
   128
 43
0.0
 10
332.091999865
 20
184.306296507
 10
338.96279531
 20
184.306296507
 10
338.96279531
 20
185.078295735
 10
332.091999865
 20
185.078295735
  0
LWPOLYLINE
  5
2F5
330
1F
100
AcDbEntity
  8
0
  6
Continuous
 62
     7
100
AcDbPolyline
 90
        4
 70
   128
 43
0.0
 10
332.091999865
 20
176.586304227
 10
338.96279531
 20
176.586304227
 10
338.96279531
 20
177.358303455
 10
332.091999865
 20
177.358303455
  0
LWPOLYLINE
  5
2F7
330
1F
100
AcDbEntity
  8
0
  6
Continuous
 62
     7
100
AcDbPolyline
 90
        4
 70
   128
 43
0.0
 10
332.091999865
 20
168.866311947
 10
338.96279531
 20
168.866311947
 10
338.96279531
 20
169.638311175
 10
332.091999865
 20
169.638311175
  0
LINE
  5
2F8
330
1F
100
AcDbEntity
  8
0
  6
Continuous
 62
     7
100
AcDbLine
 10
332.091999865
 20
168.866311947
 30
0.0
 11
338.96279531
 21
168.866311947
 31
0.0
  0
LWPOLYLINE
  5
2FA
330
1F
100
AcDbEntity
  8
0
  6
Continuous
 62
     7
100
AcDbPolyline
 90
        4
 70
   128
 43
0.0
 10
332.091999865
 20
161.146319667
 10
338.96279531
 20
161.146319667
 10
338.96279531
 20
161.918318895
 10
332.091999865
 20
161.918318895
  0
LWPOLYLINE
  5
2FC
330
1F
100
AcDbEntity
  8
0
  6
Continuous
 62
     7
100
AcDbPolyline
 90
        4
 70
   128
 43
0.0
 10
332.091999865
 20
153.426327387
 10
338.96279531
 20
153.426327387
 10
338.96279531
 20
154.198326615
 10
332.091999865
 20
154.198326615
  0
LWPOLYLINE
  5
2FE
330
1F
100
AcDbEntity
  8
0
  6
Continuous
 62
     7
100
AcDbPolyline
 90
        3
 70
   128
 43
0.0
 10
338.96279531
 20
145.706335107
 10
338.96279531
 20
146.478334335
 10
332.091999865
 20
146.478334335
  0
LINE
  5
2FF
330
1F
100
AcDbEntity
  8
0
  6
Continuous
 62
     7
100
AcDbLine
 10
336.662998781
 20
215.958264855
 30
0.0
 11
336.662998781
 21
215.186265627
 31
0.0
  0
LINE
  5
300
330
1F
100
AcDbEntity
  8
0
  6
Continuous
 62
     7
100
AcDbLine
 10
337.862998781
 20
215.958264855
 30
0.0
 11
337.862998781
 21
215.186265627
 31
0.0
  0
LINE
  5
301
330
1F
100
AcDbEntity
  8
0
  6
Continuous
 62
     7
100
AcDbLine
 10
336.662998781
 20
208.238272575
 30
0.0
 11
336.662998781
 21
207.466273347
 31
0.0
  0
LINE
  5
302
330
1F
100
AcDbEntity
  8
0
  6
Continuous
 62
     7
100
AcDbLine
 10
337.862998781
 20
208.238272575
 30
0.0
 11
337.862998781
 21
207.466273347
 31
0.0
  0
LINE
  5
303
330
1F
100
AcDbEntity
  8
0
  6
Continuous
 62
     7
100
AcDbLine
 10
336.662998781
 20
200.518280295
 30
0.0
 11
336.662998781
 21
199.746281067
 31
0.0
  0
LINE
  5
304
330
1F
100
AcDbEntity
  8
0
  6
Continuous
 62
     7
100
AcDbLine
 10
337.862998781
 20
200.518280295
 30
0.0
 11
337.862998781
 21
199.746281067
 31
0.0
  0
LINE
  5
305
330
1F
100
AcDbEntity
  8
0
  6
Continuous
 62
     7
100
AcDbLine
 10
336.662998781
 20
192.798288015
 30
0.0
 11
336.662998781
 21
192.026288787
 31
0.0
  0
LINE
  5
306
330
1F
100
AcDbEntity
  8
0
  6
Continuous
 62
     7
100
AcDbLine
 10
337.862998781
 20
192.798288015
 30
0.0
 11
337.862998781
 21
192.026288787
 31
0.0
  0
LINE
  5
307
330
1F
100
AcDbEntity
  8
0
  6
Continuous
 62
     7
100
AcDbLine
 10
336.662998781
 20
185.078295735
 30
0.0
 11
336.662998781
 21
184.306296507
 31
0.0
  0
LINE
  5
308
330
1F
100
AcDbEntity
  8
0
  6
Continuous
 62
     7
100
AcDbLine
 10
337.862998781
 20
185.078295735
 30
0.0
 11
337.862998781
 21
184.306296507
 31
0.0
  0
LINE
  5
309
330
1F
100
AcDbEntity
  8
0
  6
Continuous
 62
     7
100
AcDbLine
 10
336.662998781
 20
177.358303455
 30
0.0
 11
336.662998781
 21
176.586304227
 31
0.0
  0
LINE
  5
30A
330
1F
100
AcDbEntity
  8
0
  6
Continuous
 62
     7
100
AcDbLine
 10
337.862998781
 20
177.358303455
 30
0.0
 11
337.862998781
 21
176.586304227
 31
0.0
  0
LINE
  5
30B
330
1F
100
AcDbEntity
  8
0
  6
Continuous
 62
     7
100
AcDbLine
 10
336.662998781
 20
169.638311175
 30
0.0
 11
336.662998781
 21
168.866311947
 31
0.0
  0
LINE
  5
30C
330
1F
100
AcDbEntity
  8
0
  6
Continuous
 62
     7
100
AcDbLine
 10
337.862998781
 20
169.638311175
 30
0.0
 11
337.862998781
 21
168.866311947
 31
0.0
  0
LINE
  5
30D
330
1F
100
AcDbEntity
  8
0
  6
Continuous
 62
     7
100
AcDbLine
 10
336.662998781
 20
161.918318895
 30
0.0
 11
336.662998781
 21
161.146319667
 31
0.0
  0
LINE
  5
30E
330
1F
100
AcDbEntity
  8
0
  6
Continuous
 62
     7
100
AcDbLine
 10
337.862998781
 20
161.918318895
 30
0.0
 11
337.862998781
 21
161.146319667
 31
0.0
  0
LINE
  5
30F
330
1F
100
AcDbEntity
  8
0
  6
Continuous
 62
     7
100
AcDbLine
 10
336.662998781
 20
154.198326615
 30
0.0
 11
336.662998781
 21
153.426327387
 31
0.0
  0
LINE
  5
310
330
1F
100
AcDbEntity
  8
0
  6
Continuous
 62
     7
100
AcDbLine
 10
337.862998781
 20
154.198326615
 30
0.0
 11
337.862998781
 21
153.426327387
 31
0.0
  0
LINE
  5
311
330
1F
100
AcDbEntity
  8
0
  6
Continuous
 62
     7
100
AcDbLine
 10
336.662998781
 20
146.478334335
 30
0.0
 11
336.662998781
 21
145.706335107
 31
0.0
  0
LINE
  5
312
330
1F
100
AcDbEntity
  8
0
  6
Continuous
 62
     7
100
AcDbLine
 10
337.862998781
 20
146.478334335
 30
0.0
 11
337.862998781
 21
145.706335107
 31
0.0
  0
LINE
  5
313
330
1F
100
AcDbEntity
  8
0
  6
Continuous
 62
     7
100
AcDbLine
 10
338.96279531
 20
215.958264855
 30
0.0
 11
325.091999865
 21
215.958264855
 31
0.0
  0
LINE
  5
314
330
1F
100
AcDbEntity
  8
0
  6
Continuous
 62
     7
100
AcDbLine
 10
332.091999865
 20
146.478334335
 30
0.0
 11
332.091999865
 21
215.186265627
 31
0.0
  0
LWPOLYLINE
  5
316
330
1F
100
AcDbEntity
  8
0
  6
Continuous
 62
     7
100
AcDbPolyline
 90
        3
 70
   128
 43
0.0
 10
333.249998707
 20
142.2130386
 10
333.249998707
 20
138.932041881
 10
332.091999865
 20
138.932041881
  0
LWPOLYLINE
  5
318
330
1F
100
AcDbEntity
  8
0
  6
Continuous
 62
     7
100
AcDbPolyline
 90
        3
 70
   128
 43
0.0
 10
333.249998707
 20
142.2130386
 10
333.249998707
 20
145.494035319
 10
332.091999865
 20
145.494035319
  0
LINE
  5
319
330
1F
100
AcDbEntity
  8
0
  6
Continuous
 62
     7
100
AcDbLine
 10
333.848298109
 20
144.52324629
 30
0.0
 11
333.848298109
 21
139.90283091
 31
0.0
  0
LINE
  5
31A
330
1F
100
AcDbEntity
  8
0
  6
Continuous
 62
     7
100
AcDbLine
 10
333.848298109
 20
144.52324629
 30
0.0
 11
334.673372284
 21
144.440738872
 31
0.0
  0
LINE
  5
31B
330
1F
100
AcDbEntity
  8
0
  6
Continuous
 62
     7
100
AcDbLine
 10
333.848298109
 20
139.90283091
 30
0.0
 11
334.673372284
 21
139.9853383279999
 31
0.0
  0
ARC
  5
31C
330
1F
100
AcDbEntity
  8
0
  6
Continuous
 62
     7
100
AcDbCircle
 10
334.508357449
 20
140.727905085
 30
0.0
 40
0.7425667570000001
100
AcDbArc
 50
282.6
 51
333.4
  0
ARC
  5
31D
330
1F
100
AcDbEntity
  8
0
  6
Continuous
 62
     7
100
AcDbCircle
 10
334.508357449
 20
143.698172115
 30
0.0
 40
0.7425667570000001
100
AcDbArc
 50
26.6
 51
77.40000000000001
  0
ARC
  5
31E
330
1F
100
AcDbEntity
  8
0
  6
Continuous
 62
     7
100
AcDbCircle
 10
330.300479157
 20
142.2130386
 30
0.0
 40
5.197967301999999
100
AcDbArc
 50
339.4
 51
20.6
  0
LINE
  5
31F
330
1F
100
AcDbEntity
  8
0
  6
Continuous
 62
     7
100
AcDbLine
 10
336.736057721
 20
142.2130386
 30
0.0
 11
331.373075584
 21
142.2130386
 31
0.0
  0
LWPOLYLINE
  5
321
330
1F
100
AcDbEntity
  8
0
  6
Continuous
 62
     7
100
AcDbPolyline
 90
        3
 70
   128
 43
0.0
 10
333.848298109
 20
140.147940665
 10
333.249998707
 20
140.147940665
 10
333.249998707
 20
142.2130386
  0
LWPOLYLINE
  5
323
330
1F
100
AcDbEntity
  8
0
  6
Continuous
 62
     7
100
AcDbPolyline
 90
        3
 70
   128
 43
0.0
 10
333.848298109
 20
144.278136535
 10
333.249998707
 20
144.278136535
 10
333.249998707
 20
142.2130386
  0
LINE
  5
324
330
1F
100
AcDbEntity
  8
0
  6
Continuous
 62
     7
100
AcDbLine
 10
333.249998707
 20
142.48323833
 30
0.0
 11
333.848298109
 21
141.962138851
 31
0.0
  0
LWPOLYLINE
  5
326
330
1F
100
AcDbEntity
  8
0
  6
Continuous
 62
     7
100
AcDbPolyline
 90
        4
 70
   128
 43
0.0
 10
332.091999865
 20
145.706335107
 10
338.96279531
 20
145.706335107
 10
338.96279531
 20
146.478334335
 10
332.091999865
 20
146.478334335
  0
LWPOLYLINE
  5
328
330
1F
100
AcDbEntity
  8
0
  6
Continuous
 62
     7
100
AcDbPolyline
 90
        3
 70
   128
 43
0.0
 10
338.96279531
 20
137.986342827
 10
338.96279531
 20
138.758342055
 10
332.091999865
 20
138.758342055
  0
LINE
  5
329
330
1F
100
AcDbEntity
  8
0
  6
Continuous
 62
     7
100
AcDbLine
 10
336.662998781
 20
146.478334335
 30
0.0
 11
336.662998781
 21
145.706335107
 31
0.0
  0
LINE
  5
32A
330
1F
100
AcDbEntity
  8
0
  6
Continuous
 62
     7
100
AcDbLine
 10
337.862998781
 20
146.478334335
 30
0.0
 11
337.862998781
 21
145.706335107
 31
0.0
  0
LINE
  5
32B
330
1F
100
AcDbEntity
  8
0
  6
Continuous
 62
     7
100
AcDbLine
 10
336.662998781
 20
138.758342055
 30
0.0
 11
336.662998781
 21
137.986342827
 31
0.0
  0
LINE
  5
32C
330
1F
100
AcDbEntity
  8
0
  6
Continuous
 62
     7
100
AcDbLine
 10
337.862998781
 20
138.758342055
 30
0.0
 11
337.862998781
 21
137.986342827
 31
0.0
  0
LINE
  5
32D
330
1F
100
AcDbEntity
  8
0
  6
Continuous
 62
     7
100
AcDbLine
 10
338.96279531
 20
137.986342827
 30
0.0
 11
325.091999865
 21
137.986342827
 31
0.0
  0
LINE
  5
32E
330
1F
100
AcDbEntity
  8
0
  6
Continuous
 62
     7
100
AcDbLine
 10
332.091999865
 20
138.758342055
 30
0.0
 11
332.091999865
 21
146.478334335
 31
0.0
  0
LINE
  5
32F
330
1F
100
AcDbEntity
  8
0
  6
Continuous
 62
     7
100
AcDbLine
 10
332.091999865
 20
145.706335107
 30
0.0
 11
338.96279531
 21
145.706335107
 31
0.0
  0
LINE
  5
330
330
1F
100
AcDbEntity
  8
0
  6
Continuous
 62
     7
100
AcDbLine
 10
371.091999865
 20
131.913
 30
0.0
 11
325.091999865
 21
131.913
 31
0.0
  0
LWPOLYLINE
  5
332
330
1F
100
AcDbEntity
  8
0
  6
Continuous
 62
     7
100
AcDbPolyline
 90
        4
 70
   128
 43
0.0
 10
354.491999865
 20
222.913
 10
354.491999865
 20
195.613
 10
371.091999865
 20
195.613
 10
371.091999865
 20
131.913
  0
LINE
  5
333
330
1F
100
AcDbEntity
  8
0
  6
Continuous
 62
     7
100
AcDbLine
 10
325.091999865
 20
222.913
 30
0.0
 11
354.491999865
 21
222.913
 31
0.0
  0
LWPOLYLINE
  5
335
330
1F
100
AcDbEntity
  8
0
  6
Continuous
 62
     7
100
AcDbPolyline
 90
        4
 70
   128
 43
0.0
 10
371.091999865
 20
190.813
 10
350.391999865
 20
190.813
 10
350.391999865
 20
188.813
 10
371.091999865
 20
188.813
  0
LINE
  5
336
330
1F
100
AcDbEntity
  8
0
  6
Continuous
 62
     7
100
AcDbLine
 10
369.091999865
 20
188.813
 30
0.0
 11
369.091999865
 21
190.813
 31
0.0
  0
LWPOLYLINE
  5
338
330
1F
100
AcDbEntity
  8
0
  6
Continuous
 62
     7
100
AcDbPolyline
 90
        4
 70
   128
 43
0.0
 10
371.091999865
 20
187.713
 10
350.391999865
 20
187.713
 10
350.391999865
 20
185.713
 10
371.091999865
 20
185.713
  0
LINE
  5
339
330
1F
100
AcDbEntity
  8
0
  6
Continuous
 62
     7
100
AcDbLine
 10
369.091999865
 20
185.713
 30
0.0
 11
369.091999865
 21
187.713
 31
0.0
  0
LWPOLYLINE
  5
33B
330
1F
100
AcDbEntity
  8
0
  6
Continuous
 62
     7
100
AcDbPolyline
 90
        4
 70
   128
 43
0.0
 10
371.091999865
 20
184.613
 10
350.391999865
 20
184.613
 10
350.391999865
 20
182.613
 10
371.091999865
 20
182.613
  0
LINE
  5
33C
330
1F
100
AcDbEntity
  8
0
  6
Continuous
 62
     7
100
AcDbLine
 10
369.091999865
 20
182.613
 30
0.0
 11
369.091999865
 21
184.613
 31
0.0
  0
LWPOLYLINE
  5
33E
330
1F
100
AcDbEntity
  8
0
  6
Continuous
 62
     7
100
AcDbPolyline
 90
        4
 70
   128
 43
0.0
 10
371.091999865
 20
181.513
 10
350.391999865
 20
181.513
 10
350.391999865
 20
179.513
 10
371.091999865
 20
179.513
  0
LINE
  5
33F
330
1F
100
AcDbEntity
  8
0
  6
Continuous
 62
     7
100
AcDbLine
 10
369.091999865
 20
179.513
 30
0.0
 11
369.091999865
 21
181.513
 31
0.0
  0
LWPOLYLINE
  5
341
330
1F
100
AcDbEntity
  8
0
  6
Continuous
 62
     7
100
AcDbPolyline
 90
        4
 70
   128
 43
0.0
 10
371.091999865
 20
173.213
 10
350.391999865
 20
173.213
 10
350.391999865
 20
171.213
 10
371.091999865
 20
171.213
  0
LINE
  5
342
330
1F
100
AcDbEntity
  8
0
  6
Continuous
 62
     7
100
AcDbLine
 10
369.091999865
 20
171.213
 30
0.0
 11
369.091999865
 21
173.213
 31
0.0
  0
LWPOLYLINE
  5
344
330
1F
100
AcDbEntity
  8
0
  6
Continuous
 62
     7
100
AcDbPolyline
 90
        4
 70
   128
 43
0.0
 10
371.091999865
 20
170.113
 10
350.391999865
 20
170.113
 10
350.391999865
 20
168.113
 10
371.091999865
 20
168.113
  0
LINE
  5
345
330
1F
100
AcDbEntity
  8
0
  6
Continuous
 62
     7
100
AcDbLine
 10
369.091999865
 20
168.113
 30
0.0
 11
369.091999865
 21
170.113
 31
0.0
  0
LWPOLYLINE
  5
347
330
1F
100
AcDbEntity
  8
0
  6
Continuous
 62
     7
100
AcDbPolyline
 90
        4
 70
   128
 43
0.0
 10
371.091999865
 20
167.013
 10
350.391999865
 20
167.013
 10
350.391999865
 20
165.013
 10
371.091999865
 20
165.013
  0
LINE
  5
348
330
1F
100
AcDbEntity
  8
0
  6
Continuous
 62
     7
100
AcDbLine
 10
369.091999865
 20
165.013
 30
0.0
 11
369.091999865
 21
167.013
 31
0.0
  0
LWPOLYLINE
  5
34A
330
1F
100
AcDbEntity
  8
0
  6
Continuous
 62
     7
100
AcDbPolyline
 90
        4
 70
   128
 43
0.0
 10
371.091999865
 20
163.9129999999999
 10
350.391999865
 20
163.9129999999999
 10
350.391999865
 20
161.913
 10
371.091999865
 20
161.913
  0
LINE
  5
34B
330
1F
100
AcDbEntity
  8
0
  6
Continuous
 62
     7
100
AcDbLine
 10
369.091999865
 20
161.913
 30
0.0
 11
369.091999865
 21
163.9129999999999
 31
0.0
  0
LWPOLYLINE
  5
34D
330
1F
100
AcDbEntity
  8
0
  6
Continuous
 62
     7
100
AcDbPolyline
 90
        4
 70
   128
 43
0.0
 10
371.091999865
 20
155.013
 10
350.391999865
 20
155.013
 10
350.391999865
 20
153.013
 10
371.091999865
 20
153.013
  0
LINE
  5
34E
330
1F
100
AcDbEntity
  8
0
  6
Continuous
 62
     7
100
AcDbLine
 10
369.091999865
 20
153.013
 30
0.0
 11
369.091999865
 21
155.013
 31
0.0
  0
LWPOLYLINE
  5
350
330
1F
100
AcDbEntity
  8
0
  6
Continuous
 62
     7
100
AcDbPolyline
 90
        4
 70
   128
 43
0.0
 10
371.091999865
 20
151.913
 10
350.391999865
 20
151.913
 10
350.391999865
 20
149.913
 10
371.091999865
 20
149.913
  0
LINE
  5
351
330
1F
100
AcDbEntity
  8
0
  6
Continuous
 62
     7
100
AcDbLine
 10
369.091999865
 20
149.913
 30
0.0
 11
369.091999865
 21
151.913
 31
0.0
  0
LWPOLYLINE
  5
353
330
1F
100
AcDbEntity
  8
0
  6
Continuous
 62
     7
100
AcDbPolyline
 90
        4
 70
   128
 43
0.0
 10
371.091999865
 20
148.813
 10
350.391999865
 20
148.813
 10
350.391999865
 20
146.813
 10
371.091999865
 20
146.813
  0
LINE
  5
354
330
1F
100
AcDbEntity
  8
0
  6
Continuous
 62
     7
100
AcDbLine
 10
369.091999865
 20
146.813
 30
0.0
 11
369.091999865
 21
148.813
 31
0.0
  0
LWPOLYLINE
  5
356
330
1F
100
AcDbEntity
  8
0
  6
Continuous
 62
     7
100
AcDbPolyline
 90
        4
 70
   128
 43
0.0
 10
371.091999865
 20
145.713
 10
350.391999865
 20
145.713
 10
350.391999865
 20
143.713
 10
371.091999865
 20
143.713
  0
LINE
  5
357
330
1F
100
AcDbEntity
  8
0
  6
Continuous
 62
     7
100
AcDbLine
 10
369.091999865
 20
143.713
 30
0.0
 11
369.091999865
 21
145.713
 31
0.0
  0
LWPOLYLINE
  5
359
330
1F
100
AcDbEntity
  8
0
  6
Continuous
 62
     7
100
AcDbPolyline
 90
        4
 70
   128
 43
0.0
 10
354.491999865
 20
213.713
 10
361.791999865
 20
213.713
 10
361.791999865
 20
203.713
 10
354.491999865
 20
203.713
  0
LINE
  5
35A
330
1F
100
AcDbEntity
  8
0
  6
Continuous
 62
     7
100
AcDbLine
 10
354.491999865
 20
208.613
 30
0.0
 11
361.791999865
 21
208.613
 31
0.0
  0
CIRCLE
  5
35B
330
1F
100
AcDbEntity
  8
0
  6
Continuous
 62
     7
100
AcDbCircle
 10
358.091999865
 20
206.013
 30
0.0
 40
1.655294535999999
  0
CIRCLE
  5
35C
330
1F
100
AcDbEntity
  8
0
  6
Continuous
 62
     7
100
AcDbCircle
 10
358.091999865
 20
210.913
 30
0.0
 40
1.655294535999999
  0
LINE
  5
35D
330
1F
100
AcDbEntity
  8
0
  6
Continuous
 62
     7
100
AcDbLine
 10
247.091999855
 20
224.5129997
 30
0.0
 11
247.091999855
 21
225.412999538
 31
0.0
  0
LINE
  5
35E
330
1F
100
AcDbEntity
  8
0
  6
Continuous
 62
     7
100
AcDbLine
 10
247.091999855
 20
226.312999376
 30
0.0
 11
247.091999855
 21
225.412999538
 31
0.0
  0
LINE
  5
35F
330
1F
100
AcDbEntity
  8
0
  6
Continuous
 62
     7
100
AcDbLine
 10
274.151999356
 20
226.312999376
 30
0.0
 11
247.091999855
 21
226.312999376
 31
0.0
  0
LINE
  5
360
330
1F
100
AcDbEntity
  8
0
  6
Continuous
 62
     7
100
AcDbLine
 10
273.591999855
 20
224.5129997
 30
0.0
 11
247.091999855
 21
224.5129997
 31
0.0
  0
LINE
  5
361
330
1F
100
AcDbEntity
  8
0
  6
Continuous
 62
     7
100
AcDbLine
 10
247.091999855
 20
130.3130003
 30
0.0
 11
247.091999855
 21
129.413000462
 31
0.0
  0
LINE
  5
362
330
1F
100
AcDbEntity
  8
0
  6
Continuous
 62
     7
100
AcDbLine
 10
247.091999855
 20
128.513000624
 30
0.0
 11
247.091999855
 21
129.413000462
 31
0.0
  0
LINE
  5
363
330
1F
100
AcDbEntity
  8
0
  6
Continuous
 62
     7
100
AcDbLine
 10
274.151999356
 20
128.513000624
 30
0.0
 11
247.091999855
 21
128.513000624
 31
0.0
  0
LINE
  5
364
330
1F
100
AcDbEntity
  8
0
  6
Continuous
 62
     7
100
AcDbLine
 10
273.591999855
 20
130.3130003
 30
0.0
 11
247.091999855
 21
130.3130003
 31
0.0
  0
MTEXT
  5
365
330
1F
100
AcDbEntity
  8
0
  6
Continuous
 62
     7
100
AcDbMText
 10
177.191999933
 20
280.922769162
 30
0.0
 40
1.8
 41
11.2032
 71
     7
 72
     1
  1
\W0.778;ＭＯＤＥ
  7
KANJI0
 73
     1
 44
1.0
1001
ACAD
1000
MTEXTBEGIN
1070
    73
1070
     1
1070
    44
1040
1.0
1070
    74
1070
     0
1000
MTEXTEND
  0
MTEXT
  5
367
330
1F
100
AcDbEntity
  8
0
  6
Continuous
 62
     7
100
AcDbMText
 10
185.791999933
 20
280.922769162
 30
0.0
 40
1.7
 41
10.2
 71
     7
 72
     1
  1
\W1.000;Ｐ・Ｂ
  7
KANJI1
 73
     1
 44
1.0
1001
ACAD
1000
MTEXTBEGIN
1070
    73
1070
     1
1070
    44
1040
1.0
1070
    74
1070
     0
1000
MTEXTEND
  0
MTEXT
  5
369
330
1F
100
AcDbEntity
  8
0
  6
Continuous
 62
     7
100
AcDbMText
 10
176.791999933
 20
273.822769162
 30
0.0
 40
1.7
 41
12.597
 71
     7
 72
     1
  1
\W0.741;ＳＨＩＦＴ
  7
KANJI2
 73
     1
 44
1.0
1001
ACAD
1000
MTEXTBEGIN
1070
    73
1070
     1
1070
    44
1040
1.0
1070
    74
1070
     0
1000
MTEXTEND
  0
MTEXT
  5
36B
330
1F
100
AcDbEntity
  8
0
  6
Continuous
 62
     7
100
AcDbMText
 10
186.091999933
 20
274.122769162
 30
0.0
 40
1.8
 41
8.200799999999999
 71
     7
 72
     1
  1
\T1.278;\W1.000;Ｍｙ
  7
KANJI3
 73
     1
 44
1.0
1001
ACAD
1000
MTEXTBEGIN
1070
    73
1070
     1
1070
    44
1040
1.0
1070
    74
1070
     0
1000
MTEXTEND
  0
MTEXT
  5
36D
330
1F
100
AcDbEntity
  8
0
  6
Continuous
 62
     7
100
AcDbMText
 10
175.0919999329999
 20
262.422769162
 30
0.0
 40
3.299999999999999
 41
25.0008
 71
     7
 72
     1
  1
\W0.947;ＵＮＩＴ
  7
KANJI4
 73
     1
 44
1.0
1001
ACAD
1000
MTEXTBEGIN
1070
    73
1070
     1
1070
    44
1040
1.0
1070
    74
1070
     0
1000
MTEXTEND
  0
MTEXT
  5
36F
330
1F
100
AcDbEntity
  8
4
  6
Continuous
 62
     7
100
AcDbMText
 10
98.84299999999999
 20
363.69575
 30
0.0
 40
4.987499999999999
 41
32.029725
 71
     7
 72
     1
  1
\T2.211;\W1.000;形名
  7
KANJI5
 73
     1
 44
1.0
1001
ACAD
1000
MTEXTBEGIN
1070
    73
1070
     1
1070
    44
1040
1.0
1070
    74
1070
     0
1000
MTEXTEND
  0
MTEXT
  5
371
330
1F
100
AcDbEntity
  8
4
  6
Continuous
 62
     7
100
AcDbMText
 10
98.84299999999999
 20
354.24575
 30
0.0
 40
5.5125
 41
137.6802
 71
     7
 72
     1
  1
\W0.892;４５１Ａ－４９－Ａ－５－２９
  7
KANJI6
 73
     1
 44
1.0
1001
ACAD
1000
MTEXTBEGIN
1070
    73
1070
     1
1070
    44
1040
1.0
1070
    74
1070
     0
1000
MTEXTEND
  0
LINE
  5
373
330
1F
100
AcDbEntity
  8
0
  6
Continuous
 62
     7
100
AcDbLine
 10
196.891999933
 20
197.012769162
 30
0.0
 11
104.491999933
 21
197.012769162
 31
0.0
  0
LINE
  5
374
330
1F
100
AcDbEntity
  8
0
  6
Continuous
 62
     7
100
AcDbLine
 10
196.891999933
 20
151.812769162
 30
0.0
 11
196.891999933
 21
197.012769162
 31
0.0
  0
LINE
  5
375
330
1F
100
AcDbEntity
  8
0
  6
Continuous
 62
     7
100
AcDbLine
 10
104.491999933
 20
151.812769162
 30
0.0
 11
196.891999933
 21
151.812769162
 31
0.0
  0
LINE
  5
376
330
1F
100
AcDbEntity
  8
0
  6
Continuous
 62
     7
100
AcDbLine
 10
104.491999933
 20
197.012769162
 30
0.0
 11
104.491999933
 21
151.812769162
 31
0.0
  0
LINE
  5
377
330
1F
100
AcDbEntity
  8
0
  6
Continuous
 62
     7
100
AcDbLine
 10
196.891999933
 20
151.812769162
 30
0.0
 11
104.491999933
 21
197.012769162
 31
0.0
  0
LINE
  5
378
330
1F
100
AcDbEntity
  8
0
  6
Continuous
 62
     7
100
AcDbLine
 10
196.891999933
 20
197.012769162
 30
0.0
 11
104.491999933
 21
151.812769162
 31
0.0
  0
MTEXT
  5
379
330
1F
100
AcDbEntity
  8
4
  6
Continuous
 62
     7
100
AcDbMText
 10
135.592986438
 20
154.860360282
 30
0.0
 40
4.41
 41
51.54408
 71
     7
 72
     1
  1
\W0.974;パネルカット
  7
KANJI7
 73
     1
 44
1.0
1001
ACAD
1000
MTEXTBEGIN
1070
    73
1070
     1
1070
    44
1040
1.0
1070
    74
1070
     0
1000
MTEXTEND
  0
LINE
  5
37B
330
1F
100
AcDbEntity
  8
0
  6
Continuous
 62
     7
100
AcDbLine
 10
423.25866666
 20
247.813
 30
0.0
 11
423.463794865
 21
247.813
 31
0.0
  0
LINE
  5
37C
330
1F
100
AcDbEntity
  8
0
  6
Continuous
 62
     7
100
AcDbLine
 10
509.7202049999999
 20
247.813
 30
0.0
 11
509.9253332049999
 21
247.813
 31
0.0
  0
CIRCLE
  5
37D
330
1F
100
AcDbEntity
  8
0
  6
Continuous
 62
     7
100
AcDbCircle
 10
462.691999933
 20
256.932984581
 30
0.0
 40
2.371599999999999
  0
LINE
  5
37E
330
1F
100
AcDbEntity
  8
0
  6
Continuous
 62
     7
100
AcDbLine
 10
461.167399933
 20
257.187084581
 30
0.0
 11
461.167399933
 21
256.678884581
 31
0.0
  0
LINE
  5
37F
330
1F
100
AcDbEntity
  8
0
  6
Continuous
 62
     7
100
AcDbLine
 10
462.437899933
 20
255.408384581
 30
0.0
 11
462.9460999329999
 21
255.408384581
 31
0.0
  0
LINE
  5
380
330
1F
100
AcDbEntity
  8
0
  6
Continuous
 62
     7
100
AcDbLine
 10
464.216599933
 20
257.187084581
 30
0.0
 11
464.216599933
 21
256.678884581
 31
0.0
  0
LINE
  5
381
330
1F
100
AcDbEntity
  8
0
  6
Continuous
 62
     7
100
AcDbLine
 10
462.437899933
 20
258.457584581
 30
0.0
 11
462.9460999329999
 21
258.457584581
 31
0.0
  0
LINE
  5
382
330
1F
100
AcDbEntity
  8
0
  6
Continuous
 62
     7
100
AcDbLine
 10
464.216599933
 20
257.187084581
 30
0.0
 11
463.708399933
 21
257.187084581
 31
0.0
  0
LINE
  5
383
330
1F
100
AcDbEntity
  8
0
  6
Continuous
 62
     7
100
AcDbLine
 10
462.9460999329999
 20
258.457584581
 30
0.0
 11
462.9460999329999
 21
257.949384581
 31
0.0
  0
LINE
  5
384
330
1F
100
AcDbEntity
  8
0
  6
Continuous
 62
     7
100
AcDbLine
 10
462.437899933
 20
258.457584581
 30
0.0
 11
462.437899933
 21
257.949384581
 31
0.0
  0
LINE
  5
385
330
1F
100
AcDbEntity
  8
0
  6
Continuous
 62
     7
100
AcDbLine
 10
461.167399933
 20
256.678884581
 30
0.0
 11
461.675599933
 21
256.678884581
 31
0.0
  0
LINE
  5
386
330
1F
100
AcDbEntity
  8
0
  6
Continuous
 62
     7
100
AcDbLine
 10
462.9460999329999
 20
255.408384581
 30
0.0
 11
462.9460999329999
 21
255.916584581
 31
0.0
  0
LINE
  5
387
330
1F
100
AcDbEntity
  8
0
  6
Continuous
 62
     7
100
AcDbLine
 10
464.216599933
 20
257.187084581
 30
0.0
 11
463.708399933
 21
257.187084581
 31
0.0
  0
LINE
  5
388
330
1F
100
AcDbEntity
  8
0
  6
Continuous
 62
     7
100
AcDbLine
 10
464.216599933
 20
256.678884581
 30
0.0
 11
463.708399933
 21
256.678884581
 31
0.0
  0
LINE
  5
389
330
1F
100
AcDbEntity
  8
0
  6
Continuous
 62
     7
100
AcDbLine
 10
462.437899933
 20
255.408384581
 30
0.0
 11
462.437899933
 21
255.916584581
 31
0.0
  0
LINE
  5
38A
330
1F
100
AcDbEntity
  8
0
  6
Continuous
 62
     7
100
AcDbLine
 10
461.167399933
 20
257.187084581
 30
0.0
 11
461.675599933
 21
257.187084581
 31
0.0
  0
ARC
  5
38B
330
1F
100
AcDbEntity
  8
0
  6
Continuous
 62
     7
100
AcDbCircle
 10
463.623699933
 20
256.001284581
 30
0.0
 40
0.6776
100
AcDbArc
 50
82.3
 51
187.7
  0
ARC
  5
38C
330
1F
100
AcDbEntity
  8
0
  6
Continuous
 62
     7
100
AcDbCircle
 10
461.760299933
 20
256.001284581
 30
0.0
 40
0.6776
100
AcDbArc
 50
352.3
 51
97.70000000000001
  0
ARC
  5
38D
330
1F
100
AcDbEntity
  8
0
  6
Continuous
 62
     7
100
AcDbCircle
 10
461.760299933
 20
257.864684581
 30
0.0
 40
0.6776
100
AcDbArc
 50
262.3
 51
7.699999999999999
  0
ARC
  5
38E
330
1F
100
AcDbEntity
  8
0
  6
Continuous
 62
     7
100
AcDbCircle
 10
463.623699933
 20
257.864684581
 30
0.0
 40
0.6776
100
AcDbArc
 50
172.3
 51
277.7
  0
ARC
  5
38F
330
1F
100
AcDbEntity
  8
0
  6
Continuous
 62
     7
100
AcDbCircle
 10
462.691999933
 20
262.002884581
 30
0.0
 40
0.880893297
100
AcDbArc
 50
180.0
 51
0.0
  0
ARC
  5
390
330
1F
100
AcDbEntity
  8
0
  6
Continuous
 62
     7
100
AcDbCircle
 10
462.691999933
 20
251.863084581
 30
0.0
 40
0.880893297
100
AcDbArc
 50
0.0
 51
180.0
  0
LINE
  5
391
330
1F
100
AcDbEntity
  8
0
  6
Continuous
 62
     7
100
AcDbLine
 10
466.0799999329999
 20
251.863084581
 30
0.0
 11
466.0799999329999
 21
262.002884581
 31
0.0
  0
LINE
  5
392
330
1F
100
AcDbEntity
  8
0
  6
Continuous
 62
     7
100
AcDbLine
 10
467.047999933
 20
251.863084581
 30
0.0
 11
467.047999933
 21
262.002884581
 31
0.0
  0
LINE
  5
393
330
1F
100
AcDbEntity
  8
0
  6
Continuous
 62
     7
100
AcDbLine
 10
459.3039999330001
 20
251.863084581
 30
0.0
 11
459.3039999330001
 21
262.002884581
 31
0.0
  0
LINE
  5
394
330
1F
100
AcDbEntity
  8
0
  6
Continuous
 62
     7
100
AcDbLine
 10
458.335999933
 20
251.863084581
 30
0.0
 11
458.335999933
 21
262.002884581
 31
0.0
  0
ARC
  5
395
330
1F
100
AcDbEntity
  8
0
  6
Continuous
 62
     7
100
AcDbCircle
 10
465.266893229
 20
254.283084581
 30
0.0
 40
0.6516049420000001
100
AcDbArc
 50
82.31768865200001
 51
277.682311338
  0
LINE
  5
396
330
1F
100
AcDbEntity
  8
0
  6
Continuous
 62
     7
100
AcDbLine
 10
465.3539999319999
 20
253.637328108
 30
0.0
 11
466.0799999329999
 21
253.637328108
 31
0.0
  0
LINE
  5
397
330
1F
100
AcDbEntity
  8
0
  6
Continuous
 62
     7
100
AcDbLine
 10
465.353999933
 20
254.928841054
 30
0.0
 11
466.0799999329999
 21
254.928841054
 31
0.0
  0
ARC
  5
398
330
1F
100
AcDbEntity
  8
0
  6
Continuous
 62
     7
100
AcDbCircle
 10
465.266893229
 20
259.582884581
 30
0.0
 40
0.6516049420000001
100
AcDbArc
 50
82.31768866199999
 51
277.682311348
  0
LINE
  5
399
330
1F
100
AcDbEntity
  8
0
  6
Continuous
 62
     7
100
AcDbLine
 10
465.3539999319999
 20
260.228641054
 30
0.0
 11
466.0799999329999
 21
260.228641054
 31
0.0
  0
LINE
  5
39A
330
1F
100
AcDbEntity
  8
0
  6
Continuous
 62
     7
100
AcDbLine
 10
465.353999933
 20
258.937128108
 30
0.0
 11
466.0799999329999
 21
258.937128108
 31
0.0
  0
ARC
  5
39B
330
1F
100
AcDbEntity
  8
0
  6
Continuous
 62
     7
100
AcDbCircle
 10
460.117106636
 20
259.582884581
 30
0.0
 40
0.6516049420000001
100
AcDbArc
 50
262.317688652
 51
97.682311338
  0
LINE
  5
39C
330
1F
100
AcDbEntity
  8
0
  6
Continuous
 62
     7
100
AcDbLine
 10
460.029999933
 20
260.228641054
 30
0.0
 11
459.3039999330001
 21
260.228641054
 31
0.0
  0
LINE
  5
39D
330
1F
100
AcDbEntity
  8
0
  6
Continuous
 62
     7
100
AcDbLine
 10
460.029999933
 20
258.937128108
 30
0.0
 11
459.3039999330001
 21
258.937128108
 31
0.0
  0
ARC
  5
39E
330
1F
100
AcDbEntity
  8
0
  6
Continuous
 62
     7
100
AcDbCircle
 10
460.117106636
 20
254.283084581
 30
0.0
 40
0.6516049420000001
100
AcDbArc
 50
262.317688662
 51
97.682311348
  0
LINE
  5
39F
330
1F
100
AcDbEntity
  8
0
  6
Continuous
 62
     7
100
AcDbLine
 10
460.029999933
 20
253.637328108
 30
0.0
 11
459.3039999330001
 21
253.637328108
 31
0.0
  0
LINE
  5
3A0
330
1F
100
AcDbEntity
  8
0
  6
Continuous
 62
     7
100
AcDbLine
 10
460.029999933
 20
254.928841054
 30
0.0
 11
459.3039999330001
 21
254.928841054
 31
0.0
  0
CIRCLE
  5
3A1
330
1F
100
AcDbEntity
  8
0
  6
Continuous
 62
     7
100
AcDbCircle
 10
470.435999933
 20
256.932984581
 30
0.0
 40
2.371599999999999
  0
LINE
  5
3A2
330
1F
100
AcDbEntity
  8
0
  6
Continuous
 62
     7
100
AcDbLine
 10
468.911399933
 20
257.187084581
 30
0.0
 11
468.911399933
 21
256.678884581
 31
0.0
  0
LINE
  5
3A3
330
1F
100
AcDbEntity
  8
0
  6
Continuous
 62
     7
100
AcDbLine
 10
470.181899933
 20
255.408384581
 30
0.0
 11
470.6900999330001
 21
255.408384581
 31
0.0
  0
LINE
  5
3A4
330
1F
100
AcDbEntity
  8
0
  6
Continuous
 62
     7
100
AcDbLine
 10
471.960599933
 20
257.187084581
 30
0.0
 11
471.960599933
 21
256.678884581
 31
0.0
  0
LINE
  5
3A5
330
1F
100
AcDbEntity
  8
0
  6
Continuous
 62
     7
100
AcDbLine
 10
470.181899933
 20
258.457584581
 30
0.0
 11
470.6900999330001
 21
258.457584581
 31
0.0
  0
LINE
  5
3A6
330
1F
100
AcDbEntity
  8
0
  6
Continuous
 62
     7
100
AcDbLine
 10
471.960599933
 20
257.187084581
 30
0.0
 11
471.452399933
 21
257.187084581
 31
0.0
  0
LINE
  5
3A7
330
1F
100
AcDbEntity
  8
0
  6
Continuous
 62
     7
100
AcDbLine
 10
470.6900999330001
 20
258.457584581
 30
0.0
 11
470.6900999330001
 21
257.949384581
 31
0.0
  0
LINE
  5
3A8
330
1F
100
AcDbEntity
  8
0
  6
Continuous
 62
     7
100
AcDbLine
 10
470.181899933
 20
258.457584581
 30
0.0
 11
470.181899933
 21
257.949384581
 31
0.0
  0
LINE
  5
3A9
330
1F
100
AcDbEntity
  8
0
  6
Continuous
 62
     7
100
AcDbLine
 10
468.911399933
 20
256.678884581
 30
0.0
 11
469.419599933
 21
256.678884581
 31
0.0
  0
LINE
  5
3AA
330
1F
100
AcDbEntity
  8
0
  6
Continuous
 62
     7
100
AcDbLine
 10
470.6900999330001
 20
255.408384581
 30
0.0
 11
470.6900999330001
 21
255.916584581
 31
0.0
  0
LINE
  5
3AB
330
1F
100
AcDbEntity
  8
0
  6
Continuous
 62
     7
100
AcDbLine
 10
471.960599933
 20
257.187084581
 30
0.0
 11
471.452399933
 21
257.187084581
 31
0.0
  0
LINE
  5
3AC
330
1F
100
AcDbEntity
  8
0
  6
Continuous
 62
     7
100
AcDbLine
 10
471.960599933
 20
256.678884581
 30
0.0
 11
471.452399933
 21
256.678884581
 31
0.0
  0
LINE
  5
3AD
330
1F
100
AcDbEntity
  8
0
  6
Continuous
 62
     7
100
AcDbLine
 10
470.181899933
 20
255.408384581
 30
0.0
 11
470.181899933
 21
255.916584581
 31
0.0
  0
LINE
  5
3AE
330
1F
100
AcDbEntity
  8
0
  6
Continuous
 62
     7
100
AcDbLine
 10
468.911399933
 20
257.187084581
 30
0.0
 11
469.419599933
 21
257.187084581
 31
0.0
  0
ARC
  5
3AF
330
1F
100
AcDbEntity
  8
0
  6
Continuous
 62
     7
100
AcDbCircle
 10
471.367699933
 20
256.001284581
 30
0.0
 40
0.6776
100
AcDbArc
 50
82.3
 51
187.7
  0
ARC
  5
3B0
330
1F
100
AcDbEntity
  8
0
  6
Continuous
 62
     7
100
AcDbCircle
 10
469.504299933
 20
256.001284581
 30
0.0
 40
0.6776
100
AcDbArc
 50
352.3
 51
97.70000000000001
  0
ARC
  5
3B1
330
1F
100
AcDbEntity
  8
0
  6
Continuous
 62
     7
100
AcDbCircle
 10
469.504299933
 20
257.864684581
 30
0.0
 40
0.6776
100
AcDbArc
 50
262.3
 51
7.699999999999999
  0
ARC
  5
3B2
330
1F
100
AcDbEntity
  8
0
  6
Continuous
 62
     7
100
AcDbCircle
 10
471.367699933
 20
257.864684581
 30
0.0
 40
0.6776
100
AcDbArc
 50
172.3
 51
277.7
  0
ARC
  5
3B3
330
1F
100
AcDbEntity
  8
0
  6
Continuous
 62
     7
100
AcDbCircle
 10
470.435999933
 20
262.002884581
 30
0.0
 40
0.880893297
100
AcDbArc
 50
180.0
 51
0.0
  0
ARC
  5
3B4
330
1F
100
AcDbEntity
  8
0
  6
Continuous
 62
     7
100
AcDbCircle
 10
470.435999933
 20
251.863084581
 30
0.0
 40
0.880893297
100
AcDbArc
 50
0.0
 51
180.0
  0
LINE
  5
3B5
330
1F
100
AcDbEntity
  8
0
  6
Continuous
 62
     7
100
AcDbLine
 10
473.823999933
 20
251.863084581
 30
0.0
 11
473.823999933
 21
262.002884581
 31
0.0
  0
LINE
  5
3B6
330
1F
100
AcDbEntity
  8
0
  6
Continuous
 62
     7
100
AcDbLine
 10
474.791999933
 20
251.863084581
 30
0.0
 11
474.791999933
 21
262.002884581
 31
0.0
  0
ARC
  5
3B7
330
1F
100
AcDbEntity
  8
0
  6
Continuous
 62
     7
100
AcDbCircle
 10
473.010893229
 20
254.283084581
 30
0.0
 40
0.6516049420000001
100
AcDbArc
 50
82.31768865200001
 51
277.682311338
  0
LINE
  5
3B8
330
1F
100
AcDbEntity
  8
0
  6
Continuous
 62
     7
100
AcDbLine
 10
473.0979999319999
 20
253.637328108
 30
0.0
 11
473.823999933
 21
253.637328108
 31
0.0
  0
LINE
  5
3B9
330
1F
100
AcDbEntity
  8
0
  6
Continuous
 62
     7
100
AcDbLine
 10
473.097999933
 20
254.928841054
 30
0.0
 11
473.823999933
 21
254.928841054
 31
0.0
  0
ARC
  5
3BA
330
1F
100
AcDbEntity
  8
0
  6
Continuous
 62
     7
100
AcDbCircle
 10
473.010893229
 20
259.582884581
 30
0.0
 40
0.6516049420000001
100
AcDbArc
 50
82.31768866199999
 51
277.682311348
  0
LINE
  5
3BB
330
1F
100
AcDbEntity
  8
0
  6
Continuous
 62
     7
100
AcDbLine
 10
473.0979999319999
 20
260.228641054
 30
0.0
 11
473.823999933
 21
260.228641054
 31
0.0
  0
LINE
  5
3BC
330
1F
100
AcDbEntity
  8
0
  6
Continuous
 62
     7
100
AcDbLine
 10
473.097999933
 20
258.937128108
 30
0.0
 11
473.823999933
 21
258.937128108
 31
0.0
  0
ARC
  5
3BD
330
1F
100
AcDbEntity
  8
0
  6
Continuous
 62
     7
100
AcDbCircle
 10
467.861106636
 20
259.582884581
 30
0.0
 40
0.6516049420000001
100
AcDbArc
 50
262.317688652
 51
97.682311338
  0
LINE
  5
3BE
330
1F
100
AcDbEntity
  8
0
  6
Continuous
 62
     7
100
AcDbLine
 10
467.7739999329999
 20
260.228641054
 30
0.0
 11
467.047999933
 21
260.228641054
 31
0.0
  0
LINE
  5
3BF
330
1F
100
AcDbEntity
  8
0
  6
Continuous
 62
     7
100
AcDbLine
 10
467.7739999329999
 20
258.937128108
 30
0.0
 11
467.047999933
 21
258.937128108
 31
0.0
  0
ARC
  5
3C0
330
1F
100
AcDbEntity
  8
0
  6
Continuous
 62
     7
100
AcDbCircle
 10
467.861106636
 20
254.283084581
 30
0.0
 40
0.6516049420000001
100
AcDbArc
 50
262.317688662
 51
97.682311348
  0
LINE
  5
3C1
330
1F
100
AcDbEntity
  8
0
  6
Continuous
 62
     7
100
AcDbLine
 10
467.7739999329999
 20
253.637328108
 30
0.0
 11
467.047999933
 21
253.637328108
 31
0.0
  0
LINE
  5
3C2
330
1F
100
AcDbEntity
  8
0
  6
Continuous
 62
     7
100
AcDbLine
 10
467.7739999329999
 20
254.928841054
 30
0.0
 11
467.047999933
 21
254.928841054
 31
0.0
  0
CIRCLE
  5
3C3
330
1F
100
AcDbEntity
  8
0
  6
Continuous
 62
     7
100
AcDbCircle
 10
478.179999933
 20
256.932984581
 30
0.0
 40
2.371599999999999
  0
LINE
  5
3C4
330
1F
100
AcDbEntity
  8
0
  6
Continuous
 62
     7
100
AcDbLine
 10
476.655399933
 20
257.187084581
 30
0.0
 11
476.655399933
 21
256.678884581
 31
0.0
  0
LINE
  5
3C5
330
1F
100
AcDbEntity
  8
0
  6
Continuous
 62
     7
100
AcDbLine
 10
477.925899933
 20
255.408384581
 30
0.0
 11
478.434099933
 21
255.408384581
 31
0.0
  0
LINE
  5
3C6
330
1F
100
AcDbEntity
  8
0
  6
Continuous
 62
     7
100
AcDbLine
 10
479.704599933
 20
257.187084581
 30
0.0
 11
479.704599933
 21
256.678884581
 31
0.0
  0
LINE
  5
3C7
330
1F
100
AcDbEntity
  8
0
  6
Continuous
 62
     7
100
AcDbLine
 10
477.925899933
 20
258.457584581
 30
0.0
 11
478.434099933
 21
258.457584581
 31
0.0
  0
LINE
  5
3C8
330
1F
100
AcDbEntity
  8
0
  6
Continuous
 62
     7
100
AcDbLine
 10
479.704599933
 20
257.187084581
 30
0.0
 11
479.196399933
 21
257.187084581
 31
0.0
  0
LINE
  5
3C9
330
1F
100
AcDbEntity
  8
0
  6
Continuous
 62
     7
100
AcDbLine
 10
478.434099933
 20
258.457584581
 30
0.0
 11
478.434099933
 21
257.949384581
 31
0.0
  0
LINE
  5
3CA
330
1F
100
AcDbEntity
  8
0
  6
Continuous
 62
     7
100
AcDbLine
 10
477.925899933
 20
258.457584581
 30
0.0
 11
477.925899933
 21
257.949384581
 31
0.0
  0
LINE
  5
3CB
330
1F
100
AcDbEntity
  8
0
  6
Continuous
 62
     7
100
AcDbLine
 10
476.655399933
 20
256.678884581
 30
0.0
 11
477.163599933
 21
256.678884581
 31
0.0
  0
LINE
  5
3CC
330
1F
100
AcDbEntity
  8
0
  6
Continuous
 62
     7
100
AcDbLine
 10
478.434099933
 20
255.408384581
 30
0.0
 11
478.434099933
 21
255.916584581
 31
0.0
  0
LINE
  5
3CD
330
1F
100
AcDbEntity
  8
0
  6
Continuous
 62
     7
100
AcDbLine
 10
479.704599933
 20
257.187084581
 30
0.0
 11
479.196399933
 21
257.187084581
 31
0.0
  0
LINE
  5
3CE
330
1F
100
AcDbEntity
  8
0
  6
Continuous
 62
     7
100
AcDbLine
 10
479.704599933
 20
256.678884581
 30
0.0
 11
479.196399933
 21
256.678884581
 31
0.0
  0
LINE
  5
3CF
330
1F
100
AcDbEntity
  8
0
  6
Continuous
 62
     7
100
AcDbLine
 10
477.925899933
 20
255.408384581
 30
0.0
 11
477.925899933
 21
255.916584581
 31
0.0
  0
LINE
  5
3D0
330
1F
100
AcDbEntity
  8
0
  6
Continuous
 62
     7
100
AcDbLine
 10
476.655399933
 20
257.187084581
 30
0.0
 11
477.163599933
 21
257.187084581
 31
0.0
  0
ARC
  5
3D1
330
1F
100
AcDbEntity
  8
0
  6
Continuous
 62
     7
100
AcDbCircle
 10
479.1116999329999
 20
256.001284581
 30
0.0
 40
0.6776
100
AcDbArc
 50
82.3
 51
187.7
  0
ARC
  5
3D2
330
1F
100
AcDbEntity
  8
0
  6
Continuous
 62
     7
100
AcDbCircle
 10
477.2482999330001
 20
256.001284581
 30
0.0
 40
0.6776
100
AcDbArc
 50
352.3
 51
97.70000000000001
  0
ARC
  5
3D3
330
1F
100
AcDbEntity
  8
0
  6
Continuous
 62
     7
100
AcDbCircle
 10
477.2482999330001
 20
257.864684581
 30
0.0
 40
0.6776
100
AcDbArc
 50
262.3
 51
7.699999999999999
  0
ARC
  5
3D4
330
1F
100
AcDbEntity
  8
0
  6
Continuous
 62
     7
100
AcDbCircle
 10
479.1116999329999
 20
257.864684581
 30
0.0
 40
0.6776
100
AcDbArc
 50
172.3
 51
277.7
  0
ARC
  5
3D5
330
1F
100
AcDbEntity
  8
0
  6
Continuous
 62
     7
100
AcDbCircle
 10
478.179999933
 20
262.002884581
 30
0.0
 40
0.880893297
100
AcDbArc
 50
180.0
 51
0.0
  0
ARC
  5
3D6
330
1F
100
AcDbEntity
  8
0
  6
Continuous
 62
     7
100
AcDbCircle
 10
478.179999933
 20
251.863084581
 30
0.0
 40
0.880893297
100
AcDbArc
 50
0.0
 51
180.0
  0
LINE
  5
3D7
330
1F
100
AcDbEntity
  8
0
  6
Continuous
 62
     7
100
AcDbLine
 10
481.567999933
 20
251.863084581
 30
0.0
 11
481.567999933
 21
262.002884581
 31
0.0
  0
LINE
  5
3D8
330
1F
100
AcDbEntity
  8
0
  6
Continuous
 62
     7
100
AcDbLine
 10
482.535999933
 20
251.863084581
 30
0.0
 11
482.535999933
 21
262.002884581
 31
0.0
  0
ARC
  5
3D9
330
1F
100
AcDbEntity
  8
0
  6
Continuous
 62
     7
100
AcDbCircle
 10
480.754893229
 20
254.283084581
 30
0.0
 40
0.6516049420000001
100
AcDbArc
 50
82.31768865200001
 51
277.682311338
  0
LINE
  5
3DA
330
1F
100
AcDbEntity
  8
0
  6
Continuous
 62
     7
100
AcDbLine
 10
480.8419999319999
 20
253.637328108
 30
0.0
 11
481.567999933
 21
253.637328108
 31
0.0
  0
LINE
  5
3DB
330
1F
100
AcDbEntity
  8
0
  6
Continuous
 62
     7
100
AcDbLine
 10
480.8419999329999
 20
254.928841054
 30
0.0
 11
481.567999933
 21
254.928841054
 31
0.0
  0
ARC
  5
3DC
330
1F
100
AcDbEntity
  8
0
  6
Continuous
 62
     7
100
AcDbCircle
 10
480.754893229
 20
259.582884581
 30
0.0
 40
0.6516049420000001
100
AcDbArc
 50
82.31768866199999
 51
277.682311348
  0
LINE
  5
3DD
330
1F
100
AcDbEntity
  8
0
  6
Continuous
 62
     7
100
AcDbLine
 10
480.8419999319999
 20
260.228641054
 30
0.0
 11
481.567999933
 21
260.228641054
 31
0.0
  0
LINE
  5
3DE
330
1F
100
AcDbEntity
  8
0
  6
Continuous
 62
     7
100
AcDbLine
 10
480.8419999329999
 20
258.937128108
 30
0.0
 11
481.567999933
 21
258.937128108
 31
0.0
  0
ARC
  5
3DF
330
1F
100
AcDbEntity
  8
0
  6
Continuous
 62
     7
100
AcDbCircle
 10
475.6051066359999
 20
259.582884581
 30
0.0
 40
0.6516049420000001
100
AcDbArc
 50
262.317688652
 51
97.682311338
  0
LINE
  5
3E0
330
1F
100
AcDbEntity
  8
0
  6
Continuous
 62
     7
100
AcDbLine
 10
475.5179999330001
 20
260.228641054
 30
0.0
 11
474.791999933
 21
260.228641054
 31
0.0
  0
LINE
  5
3E1
330
1F
100
AcDbEntity
  8
0
  6
Continuous
 62
     7
100
AcDbLine
 10
475.5179999330001
 20
258.937128108
 30
0.0
 11
474.791999933
 21
258.937128108
 31
0.0
  0
ARC
  5
3E2
330
1F
100
AcDbEntity
  8
0
  6
Continuous
 62
     7
100
AcDbCircle
 10
475.6051066359999
 20
254.283084581
 30
0.0
 40
0.6516049420000001
100
AcDbArc
 50
262.317688662
 51
97.682311348
  0
LINE
  5
3E3
330
1F
100
AcDbEntity
  8
0
  6
Continuous
 62
     7
100
AcDbLine
 10
475.5179999330001
 20
253.637328108
 30
0.0
 11
474.791999933
 21
253.637328108
 31
0.0
  0
LINE
  5
3E4
330
1F
100
AcDbEntity
  8
0
  6
Continuous
 62
     7
100
AcDbLine
 10
475.5179999330001
 20
254.928841054
 30
0.0
 11
474.791999933
 21
254.928841054
 31
0.0
  0
CIRCLE
  5
3E5
330
1F
100
AcDbEntity
  8
0
  6
Continuous
 62
     7
100
AcDbCircle
 10
485.9239999329999
 20
256.932984581
 30
0.0
 40
2.371599999999999
  0
LINE
  5
3E6
330
1F
100
AcDbEntity
  8
0
  6
Continuous
 62
     7
100
AcDbLine
 10
484.399399933
 20
257.187084581
 30
0.0
 11
484.399399933
 21
256.678884581
 31
0.0
  0
LINE
  5
3E7
330
1F
100
AcDbEntity
  8
0
  6
Continuous
 62
     7
100
AcDbLine
 10
485.6698999329999
 20
255.408384581
 30
0.0
 11
486.178099933
 21
255.408384581
 31
0.0
  0
LINE
  5
3E8
330
1F
100
AcDbEntity
  8
0
  6
Continuous
 62
     7
100
AcDbLine
 10
487.448599933
 20
257.187084581
 30
0.0
 11
487.448599933
 21
256.678884581
 31
0.0
  0
LINE
  5
3E9
330
1F
100
AcDbEntity
  8
0
  6
Continuous
 62
     7
100
AcDbLine
 10
485.6698999329999
 20
258.457584581
 30
0.0
 11
486.178099933
 21
258.457584581
 31
0.0
  0
LINE
  5
3EA
330
1F
100
AcDbEntity
  8
0
  6
Continuous
 62
     7
100
AcDbLine
 10
487.448599933
 20
257.187084581
 30
0.0
 11
486.940399933
 21
257.187084581
 31
0.0
  0
LINE
  5
3EB
330
1F
100
AcDbEntity
  8
0
  6
Continuous
 62
     7
100
AcDbLine
 10
486.178099933
 20
258.457584581
 30
0.0
 11
486.178099933
 21
257.949384581
 31
0.0
  0
LINE
  5
3EC
330
1F
100
AcDbEntity
  8
0
  6
Continuous
 62
     7
100
AcDbLine
 10
485.6698999329999
 20
258.457584581
 30
0.0
 11
485.6698999329999
 21
257.949384581
 31
0.0
  0
LINE
  5
3ED
330
1F
100
AcDbEntity
  8
0
  6
Continuous
 62
     7
100
AcDbLine
 10
484.399399933
 20
256.678884581
 30
0.0
 11
484.907599933
 21
256.678884581
 31
0.0
  0
LINE
  5
3EE
330
1F
100
AcDbEntity
  8
0
  6
Continuous
 62
     7
100
AcDbLine
 10
486.178099933
 20
255.408384581
 30
0.0
 11
486.178099933
 21
255.916584581
 31
0.0
  0
LINE
  5
3EF
330
1F
100
AcDbEntity
  8
0
  6
Continuous
 62
     7
100
AcDbLine
 10
487.448599933
 20
257.187084581
 30
0.0
 11
486.940399933
 21
257.187084581
 31
0.0
  0
LINE
  5
3F0
330
1F
100
AcDbEntity
  8
0
  6
Continuous
 62
     7
100
AcDbLine
 10
487.448599933
 20
256.678884581
 30
0.0
 11
486.940399933
 21
256.678884581
 31
0.0
  0
LINE
  5
3F1
330
1F
100
AcDbEntity
  8
0
  6
Continuous
 62
     7
100
AcDbLine
 10
485.6698999329999
 20
255.408384581
 30
0.0
 11
485.6698999329999
 21
255.916584581
 31
0.0
  0
LINE
  5
3F2
330
1F
100
AcDbEntity
  8
0
  6
Continuous
 62
     7
100
AcDbLine
 10
484.399399933
 20
257.187084581
 30
0.0
 11
484.907599933
 21
257.187084581
 31
0.0
  0
ARC
  5
3F3
330
1F
100
AcDbEntity
  8
0
  6
Continuous
 62
     7
100
AcDbCircle
 10
486.855699933
 20
256.001284581
 30
0.0
 40
0.6776
100
AcDbArc
 50
82.3
 51
187.7
  0
ARC
  5
3F4
330
1F
100
AcDbEntity
  8
0
  6
Continuous
 62
     7
100
AcDbCircle
 10
484.992299933
 20
256.001284581
 30
0.0
 40
0.6776
100
AcDbArc
 50
352.3
 51
97.70000000000001
  0
ARC
  5
3F5
330
1F
100
AcDbEntity
  8
0
  6
Continuous
 62
     7
100
AcDbCircle
 10
484.992299933
 20
257.864684581
 30
0.0
 40
0.6776
100
AcDbArc
 50
262.3
 51
7.699999999999999
  0
ARC
  5
3F6
330
1F
100
AcDbEntity
  8
0
  6
Continuous
 62
     7
100
AcDbCircle
 10
486.855699933
 20
257.864684581
 30
0.0
 40
0.6776
100
AcDbArc
 50
172.3
 51
277.7
  0
ARC
  5
3F7
330
1F
100
AcDbEntity
  8
0
  6
Continuous
 62
     7
100
AcDbCircle
 10
485.9239999329999
 20
262.002884581
 30
0.0
 40
0.880893297
100
AcDbArc
 50
180.0
 51
0.0
  0
ARC
  5
3F8
330
1F
100
AcDbEntity
  8
0
  6
Continuous
 62
     7
100
AcDbCircle
 10
485.9239999329999
 20
251.863084581
 30
0.0
 40
0.880893297
100
AcDbArc
 50
0.0
 51
180.0
  0
LINE
  5
3F9
330
1F
100
AcDbEntity
  8
0
  6
Continuous
 62
     7
100
AcDbLine
 10
489.311999933
 20
251.863084581
 30
0.0
 11
489.311999933
 21
262.002884581
 31
0.0
  0
LINE
  5
3FA
330
1F
100
AcDbEntity
  8
0
  6
Continuous
 62
     7
100
AcDbLine
 10
490.279999933
 20
251.863084581
 30
0.0
 11
490.279999933
 21
262.002884581
 31
0.0
  0
ARC
  5
3FB
330
1F
100
AcDbEntity
  8
0
  6
Continuous
 62
     7
100
AcDbCircle
 10
488.498893229
 20
254.283084581
 30
0.0
 40
0.6516049420000001
100
AcDbArc
 50
82.31768865200001
 51
277.682311338
  0
LINE
  5
3FC
330
1F
100
AcDbEntity
  8
0
  6
Continuous
 62
     7
100
AcDbLine
 10
488.585999932
 20
253.637328108
 30
0.0
 11
489.311999933
 21
253.637328108
 31
0.0
  0
LINE
  5
3FD
330
1F
100
AcDbEntity
  8
0
  6
Continuous
 62
     7
100
AcDbLine
 10
488.585999933
 20
254.928841054
 30
0.0
 11
489.311999933
 21
254.928841054
 31
0.0
  0
ARC
  5
3FE
330
1F
100
AcDbEntity
  8
0
  6
Continuous
 62
     7
100
AcDbCircle
 10
488.498893229
 20
259.582884581
 30
0.0
 40
0.6516049420000001
100
AcDbArc
 50
82.31768866199999
 51
277.682311348
  0
LINE
  5
3FF
330
1F
100
AcDbEntity
  8
0
  6
Continuous
 62
     7
100
AcDbLine
 10
488.585999932
 20
260.228641054
 30
0.0
 11
489.311999933
 21
260.228641054
 31
0.0
  0
LINE
  5
400
330
1F
100
AcDbEntity
  8
0
  6
Continuous
 62
     7
100
AcDbLine
 10
488.585999933
 20
258.937128108
 30
0.0
 11
489.311999933
 21
258.937128108
 31
0.0
  0
ARC
  5
401
330
1F
100
AcDbEntity
  8
0
  6
Continuous
 62
     7
100
AcDbCircle
 10
483.3491066359999
 20
259.582884581
 30
0.0
 40
0.6516049420000001
100
AcDbArc
 50
262.317688652
 51
97.682311338
  0
LINE
  5
402
330
1F
100
AcDbEntity
  8
0
  6
Continuous
 62
     7
100
AcDbLine
 10
483.261999933
 20
260.228641054
 30
0.0
 11
482.535999933
 21
260.228641054
 31
0.0
  0
LINE
  5
403
330
1F
100
AcDbEntity
  8
0
  6
Continuous
 62
     7
100
AcDbLine
 10
483.261999933
 20
258.937128108
 30
0.0
 11
482.535999933
 21
258.937128108
 31
0.0
  0
ARC
  5
404
330
1F
100
AcDbEntity
  8
0
  6
Continuous
 62
     7
100
AcDbCircle
 10
483.3491066359999
 20
254.283084581
 30
0.0
 40
0.6516049420000001
100
AcDbArc
 50
262.317688662
 51
97.682311348
  0
LINE
  5
405
330
1F
100
AcDbEntity
  8
0
  6
Continuous
 62
     7
100
AcDbLine
 10
483.261999933
 20
253.637328108
 30
0.0
 11
482.535999933
 21
253.637328108
 31
0.0
  0
LINE
  5
406
330
1F
100
AcDbEntity
  8
0
  6
Continuous
 62
     7
100
AcDbLine
 10
483.261999933
 20
254.928841054
 30
0.0
 11
482.535999933
 21
254.928841054
 31
0.0
  0
CIRCLE
  5
407
330
1F
100
AcDbEntity
  8
0
  6
Continuous
 62
     7
100
AcDbCircle
 10
493.667999933
 20
256.932984581
 30
0.0
 40
2.371599999999999
  0
LINE
  5
408
330
1F
100
AcDbEntity
  8
0
  6
Continuous
 62
     7
100
AcDbLine
 10
492.143399933
 20
257.187084581
 30
0.0
 11
492.143399933
 21
256.678884581
 31
0.0
  0
LINE
  5
409
330
1F
100
AcDbEntity
  8
0
  6
Continuous
 62
     7
100
AcDbLine
 10
493.413899933
 20
255.408384581
 30
0.0
 11
493.922099933
 21
255.408384581
 31
0.0
  0
LINE
  5
40A
330
1F
100
AcDbEntity
  8
0
  6
Continuous
 62
     7
100
AcDbLine
 10
495.192599933
 20
257.187084581
 30
0.0
 11
495.192599933
 21
256.678884581
 31
0.0
  0
LINE
  5
40B
330
1F
100
AcDbEntity
  8
0
  6
Continuous
 62
     7
100
AcDbLine
 10
493.413899933
 20
258.457584581
 30
0.0
 11
493.922099933
 21
258.457584581
 31
0.0
  0
LINE
  5
40C
330
1F
100
AcDbEntity
  8
0
  6
Continuous
 62
     7
100
AcDbLine
 10
495.192599933
 20
257.187084581
 30
0.0
 11
494.684399933
 21
257.187084581
 31
0.0
  0
LINE
  5
40D
330
1F
100
AcDbEntity
  8
0
  6
Continuous
 62
     7
100
AcDbLine
 10
493.922099933
 20
258.457584581
 30
0.0
 11
493.922099933
 21
257.949384581
 31
0.0
  0
LINE
  5
40E
330
1F
100
AcDbEntity
  8
0
  6
Continuous
 62
     7
100
AcDbLine
 10
493.413899933
 20
258.457584581
 30
0.0
 11
493.413899933
 21
257.949384581
 31
0.0
  0
LINE
  5
40F
330
1F
100
AcDbEntity
  8
0
  6
Continuous
 62
     7
100
AcDbLine
 10
492.143399933
 20
256.678884581
 30
0.0
 11
492.651599933
 21
256.678884581
 31
0.0
  0
LINE
  5
410
330
1F
100
AcDbEntity
  8
0
  6
Continuous
 62
     7
100
AcDbLine
 10
493.922099933
 20
255.408384581
 30
0.0
 11
493.922099933
 21
255.916584581
 31
0.0
  0
LINE
  5
411
330
1F
100
AcDbEntity
  8
0
  6
Continuous
 62
     7
100
AcDbLine
 10
495.192599933
 20
257.187084581
 30
0.0
 11
494.684399933
 21
257.187084581
 31
0.0
  0
LINE
  5
412
330
1F
100
AcDbEntity
  8
0
  6
Continuous
 62
     7
100
AcDbLine
 10
495.192599933
 20
256.678884581
 30
0.0
 11
494.684399933
 21
256.678884581
 31
0.0
  0
LINE
  5
413
330
1F
100
AcDbEntity
  8
0
  6
Continuous
 62
     7
100
AcDbLine
 10
493.413899933
 20
255.408384581
 30
0.0
 11
493.413899933
 21
255.916584581
 31
0.0
  0
LINE
  5
414
330
1F
100
AcDbEntity
  8
0
  6
Continuous
 62
     7
100
AcDbLine
 10
492.143399933
 20
257.187084581
 30
0.0
 11
492.651599933
 21
257.187084581
 31
0.0
  0
ARC
  5
415
330
1F
100
AcDbEntity
  8
0
  6
Continuous
 62
     7
100
AcDbCircle
 10
494.599699933
 20
256.001284581
 30
0.0
 40
0.6776
100
AcDbArc
 50
82.3
 51
187.7
  0
ARC
  5
416
330
1F
100
AcDbEntity
  8
0
  6
Continuous
 62
     7
100
AcDbCircle
 10
492.736299933
 20
256.001284581
 30
0.0
 40
0.6776
100
AcDbArc
 50
352.3
 51
97.70000000000001
  0
ARC
  5
417
330
1F
100
AcDbEntity
  8
0
  6
Continuous
 62
     7
100
AcDbCircle
 10
492.736299933
 20
257.864684581
 30
0.0
 40
0.6776
100
AcDbArc
 50
262.3
 51
7.699999999999999
  0
ARC
  5
418
330
1F
100
AcDbEntity
  8
0
  6
Continuous
 62
     7
100
AcDbCircle
 10
494.599699933
 20
257.864684581
 30
0.0
 40
0.6776
100
AcDbArc
 50
172.3
 51
277.7
  0
ARC
  5
419
330
1F
100
AcDbEntity
  8
0
  6
Continuous
 62
     7
100
AcDbCircle
 10
493.667999933
 20
262.002884581
 30
0.0
 40
0.880893297
100
AcDbArc
 50
180.0
 51
0.0
  0
ARC
  5
41A
330
1F
100
AcDbEntity
  8
0
  6
Continuous
 62
     7
100
AcDbCircle
 10
493.667999933
 20
251.863084581
 30
0.0
 40
0.880893297
100
AcDbArc
 50
0.0
 51
180.0
  0
LINE
  5
41B
330
1F
100
AcDbEntity
  8
0
  6
Continuous
 62
     7
100
AcDbLine
 10
497.0559999329999
 20
251.863084581
 30
0.0
 11
497.0559999329999
 21
262.002884581
 31
0.0
  0
LINE
  5
41C
330
1F
100
AcDbEntity
  8
0
  6
Continuous
 62
     7
100
AcDbLine
 10
498.023999933
 20
251.863084581
 30
0.0
 11
498.023999933
 21
262.002884581
 31
0.0
  0
ARC
  5
41D
330
1F
100
AcDbEntity
  8
0
  6
Continuous
 62
     7
100
AcDbCircle
 10
496.2428932289999
 20
254.283084581
 30
0.0
 40
0.6516049420000001
100
AcDbArc
 50
82.31768865200001
 51
277.682311338
  0
LINE
  5
41E
330
1F
100
AcDbEntity
  8
0
  6
Continuous
 62
     7
100
AcDbLine
 10
496.3299999319999
 20
253.637328108
 30
0.0
 11
497.0559999329999
 21
253.637328108
 31
0.0
  0
LINE
  5
41F
330
1F
100
AcDbEntity
  8
0
  6
Continuous
 62
     7
100
AcDbLine
 10
496.329999933
 20
254.928841054
 30
0.0
 11
497.0559999329999
 21
254.928841054
 31
0.0
  0
ARC
  5
420
330
1F
100
AcDbEntity
  8
0
  6
Continuous
 62
     7
100
AcDbCircle
 10
496.2428932289999
 20
259.582884581
 30
0.0
 40
0.6516049420000001
100
AcDbArc
 50
82.31768866199999
 51
277.682311348
  0
LINE
  5
421
330
1F
100
AcDbEntity
  8
0
  6
Continuous
 62
     7
100
AcDbLine
 10
496.3299999319999
 20
260.228641054
 30
0.0
 11
497.0559999329999
 21
260.228641054
 31
0.0
  0
LINE
  5
422
330
1F
100
AcDbEntity
  8
0
  6
Continuous
 62
     7
100
AcDbLine
 10
496.329999933
 20
258.937128108
 30
0.0
 11
497.0559999329999
 21
258.937128108
 31
0.0
  0
ARC
  5
423
330
1F
100
AcDbEntity
  8
0
  6
Continuous
 62
     7
100
AcDbCircle
 10
491.0931066359999
 20
259.582884581
 30
0.0
 40
0.6516049420000001
100
AcDbArc
 50
262.317688652
 51
97.682311338
  0
LINE
  5
424
330
1F
100
AcDbEntity
  8
0
  6
Continuous
 62
     7
100
AcDbLine
 10
491.005999933
 20
260.228641054
 30
0.0
 11
490.279999933
 21
260.228641054
 31
0.0
  0
LINE
  5
425
330
1F
100
AcDbEntity
  8
0
  6
Continuous
 62
     7
100
AcDbLine
 10
491.005999933
 20
258.937128108
 30
0.0
 11
490.279999933
 21
258.937128108
 31
0.0
  0
ARC
  5
426
330
1F
100
AcDbEntity
  8
0
  6
Continuous
 62
     7
100
AcDbCircle
 10
491.0931066359999
 20
254.283084581
 30
0.0
 40
0.6516049420000001
100
AcDbArc
 50
262.317688662
 51
97.682311348
  0
LINE
  5
427
330
1F
100
AcDbEntity
  8
0
  6
Continuous
 62
     7
100
AcDbLine
 10
491.005999933
 20
253.637328108
 30
0.0
 11
490.279999933
 21
253.637328108
 31
0.0
  0
LINE
  5
428
330
1F
100
AcDbEntity
  8
0
  6
Continuous
 62
     7
100
AcDbLine
 10
491.005999933
 20
254.928841054
 30
0.0
 11
490.279999933
 21
254.928841054
 31
0.0
  0
CIRCLE
  5
429
330
1F
100
AcDbEntity
  8
0
  6
Continuous
 62
     7
100
AcDbCircle
 10
454.9479999329999
 20
256.932984581
 30
0.0
 40
2.371599999999999
  0
LINE
  5
42A
330
1F
100
AcDbEntity
  8
0
  6
Continuous
 62
     7
100
AcDbLine
 10
453.423399933
 20
257.187084581
 30
0.0
 11
453.423399933
 21
256.678884581
 31
0.0
  0
LINE
  5
42B
330
1F
100
AcDbEntity
  8
0
  6
Continuous
 62
     7
100
AcDbLine
 10
454.693899933
 20
255.408384581
 30
0.0
 11
455.202099933
 21
255.408384581
 31
0.0
  0
LINE
  5
42C
330
1F
100
AcDbEntity
  8
0
  6
Continuous
 62
     7
100
AcDbLine
 10
456.472599933
 20
257.187084581
 30
0.0
 11
456.472599933
 21
256.678884581
 31
0.0
  0
LINE
  5
42D
330
1F
100
AcDbEntity
  8
0
  6
Continuous
 62
     7
100
AcDbLine
 10
454.693899933
 20
258.457584581
 30
0.0
 11
455.202099933
 21
258.457584581
 31
0.0
  0
LINE
  5
42E
330
1F
100
AcDbEntity
  8
0
  6
Continuous
 62
     7
100
AcDbLine
 10
456.472599933
 20
257.187084581
 30
0.0
 11
455.964399933
 21
257.187084581
 31
0.0
  0
LINE
  5
42F
330
1F
100
AcDbEntity
  8
0
  6
Continuous
 62
     7
100
AcDbLine
 10
455.202099933
 20
258.457584581
 30
0.0
 11
455.202099933
 21
257.949384581
 31
0.0
  0
LINE
  5
430
330
1F
100
AcDbEntity
  8
0
  6
Continuous
 62
     7
100
AcDbLine
 10
454.693899933
 20
258.457584581
 30
0.0
 11
454.693899933
 21
257.949384581
 31
0.0
  0
LINE
  5
431
330
1F
100
AcDbEntity
  8
0
  6
Continuous
 62
     7
100
AcDbLine
 10
453.423399933
 20
256.678884581
 30
0.0
 11
453.931599933
 21
256.678884581
 31
0.0
  0
LINE
  5
432
330
1F
100
AcDbEntity
  8
0
  6
Continuous
 62
     7
100
AcDbLine
 10
455.202099933
 20
255.408384581
 30
0.0
 11
455.202099933
 21
255.916584581
 31
0.0
  0
LINE
  5
433
330
1F
100
AcDbEntity
  8
0
  6
Continuous
 62
     7
100
AcDbLine
 10
456.472599933
 20
257.187084581
 30
0.0
 11
455.964399933
 21
257.187084581
 31
0.0
  0
LINE
  5
434
330
1F
100
AcDbEntity
  8
0
  6
Continuous
 62
     7
100
AcDbLine
 10
456.472599933
 20
256.678884581
 30
0.0
 11
455.964399933
 21
256.678884581
 31
0.0
  0
LINE
  5
435
330
1F
100
AcDbEntity
  8
0
  6
Continuous
 62
     7
100
AcDbLine
 10
454.693899933
 20
255.408384581
 30
0.0
 11
454.693899933
 21
255.916584581
 31
0.0
  0
LINE
  5
436
330
1F
100
AcDbEntity
  8
0
  6
Continuous
 62
     7
100
AcDbLine
 10
453.423399933
 20
257.187084581
 30
0.0
 11
453.931599933
 21
257.187084581
 31
0.0
  0
ARC
  5
437
330
1F
100
AcDbEntity
  8
0
  6
Continuous
 62
     7
100
AcDbCircle
 10
455.879699933
 20
256.001284581
 30
0.0
 40
0.6776
100
AcDbArc
 50
82.3
 51
187.7
  0
ARC
  5
438
330
1F
100
AcDbEntity
  8
0
  6
Continuous
 62
     7
100
AcDbCircle
 10
454.016299933
 20
256.001284581
 30
0.0
 40
0.6776
100
AcDbArc
 50
352.3
 51
97.70000000000001
  0
ARC
  5
439
330
1F
100
AcDbEntity
  8
0
  6
Continuous
 62
     7
100
AcDbCircle
 10
454.016299933
 20
257.864684581
 30
0.0
 40
0.6776
100
AcDbArc
 50
262.3
 51
7.699999999999999
  0
ARC
  5
43A
330
1F
100
AcDbEntity
  8
0
  6
Continuous
 62
     7
100
AcDbCircle
 10
455.879699933
 20
257.864684581
 30
0.0
 40
0.6776
100
AcDbArc
 50
172.3
 51
277.7
  0
ARC
  5
43B
330
1F
100
AcDbEntity
  8
0
  6
Continuous
 62
     7
100
AcDbCircle
 10
454.9479999329999
 20
262.002884581
 30
0.0
 40
0.880893297
100
AcDbArc
 50
180.0
 51
0.0
  0
ARC
  5
43C
330
1F
100
AcDbEntity
  8
0
  6
Continuous
 62
     7
100
AcDbCircle
 10
454.9479999329999
 20
251.863084581
 30
0.0
 40
0.880893297
100
AcDbArc
 50
0.0
 51
180.0
  0
LINE
  5
43D
330
1F
100
AcDbEntity
  8
0
  6
Continuous
 62
     7
100
AcDbLine
 10
451.559999933
 20
251.863084581
 30
0.0
 11
451.559999933
 21
262.002884581
 31
0.0
  0
LINE
  5
43E
330
1F
100
AcDbEntity
  8
0
  6
Continuous
 62
     7
100
AcDbLine
 10
450.591999933
 20
251.863084581
 30
0.0
 11
450.591999933
 21
262.002884581
 31
0.0
  0
ARC
  5
43F
330
1F
100
AcDbEntity
  8
0
  6
Continuous
 62
     7
100
AcDbCircle
 10
457.522893229
 20
254.283084581
 30
0.0
 40
0.6516049420000001
100
AcDbArc
 50
82.31768865200001
 51
277.682311338
  0
LINE
  5
440
330
1F
100
AcDbEntity
  8
0
  6
Continuous
 62
     7
100
AcDbLine
 10
457.609999932
 20
253.637328108
 30
0.0
 11
458.335999933
 21
253.637328108
 31
0.0
  0
LINE
  5
441
330
1F
100
AcDbEntity
  8
0
  6
Continuous
 62
     7
100
AcDbLine
 10
457.609999933
 20
254.928841054
 30
0.0
 11
458.335999933
 21
254.928841054
 31
0.0
  0
ARC
  5
442
330
1F
100
AcDbEntity
  8
0
  6
Continuous
 62
     7
100
AcDbCircle
 10
457.522893229
 20
259.582884581
 30
0.0
 40
0.6516049420000001
100
AcDbArc
 50
82.31768866199999
 51
277.682311348
  0
LINE
  5
443
330
1F
100
AcDbEntity
  8
0
  6
Continuous
 62
     7
100
AcDbLine
 10
457.609999932
 20
260.228641054
 30
0.0
 11
458.335999933
 21
260.228641054
 31
0.0
  0
LINE
  5
444
330
1F
100
AcDbEntity
  8
0
  6
Continuous
 62
     7
100
AcDbLine
 10
457.609999933
 20
258.937128108
 30
0.0
 11
458.335999933
 21
258.937128108
 31
0.0
  0
ARC
  5
445
330
1F
100
AcDbEntity
  8
0
  6
Continuous
 62
     7
100
AcDbCircle
 10
452.3731066359999
 20
259.582884581
 30
0.0
 40
0.6516049420000001
100
AcDbArc
 50
262.317688652
 51
97.682311338
  0
LINE
  5
446
330
1F
100
AcDbEntity
  8
0
  6
Continuous
 62
     7
100
AcDbLine
 10
452.285999933
 20
260.228641054
 30
0.0
 11
451.559999933
 21
260.228641054
 31
0.0
  0
LINE
  5
447
330
1F
100
AcDbEntity
  8
0
  6
Continuous
 62
     7
100
AcDbLine
 10
452.285999933
 20
258.937128108
 30
0.0
 11
451.559999933
 21
258.937128108
 31
0.0
  0
ARC
  5
448
330
1F
100
AcDbEntity
  8
0
  6
Continuous
 62
     7
100
AcDbCircle
 10
452.3731066359999
 20
254.283084581
 30
0.0
 40
0.6516049420000001
100
AcDbArc
 50
262.317688662
 51
97.682311348
  0
LINE
  5
449
330
1F
100
AcDbEntity
  8
0
  6
Continuous
 62
     7
100
AcDbLine
 10
452.285999933
 20
253.637328108
 30
0.0
 11
451.559999933
 21
253.637328108
 31
0.0
  0
LINE
  5
44A
330
1F
100
AcDbEntity
  8
0
  6
Continuous
 62
     7
100
AcDbLine
 10
452.285999933
 20
254.928841054
 30
0.0
 11
451.559999933
 21
254.928841054
 31
0.0
  0
CIRCLE
  5
44B
330
1F
100
AcDbEntity
  8
0
  6
Continuous
 62
     7
100
AcDbCircle
 10
447.203999933
 20
256.932984581
 30
0.0
 40
2.371599999999999
  0
LINE
  5
44C
330
1F
100
AcDbEntity
  8
0
  6
Continuous
 62
     7
100
AcDbLine
 10
445.679399933
 20
257.187084581
 30
0.0
 11
445.679399933
 21
256.678884581
 31
0.0
  0
LINE
  5
44D
330
1F
100
AcDbEntity
  8
0
  6
Continuous
 62
     7
100
AcDbLine
 10
446.949899933
 20
255.408384581
 30
0.0
 11
447.458099933
 21
255.408384581
 31
0.0
  0
LINE
  5
44E
330
1F
100
AcDbEntity
  8
0
  6
Continuous
 62
     7
100
AcDbLine
 10
448.728599933
 20
257.187084581
 30
0.0
 11
448.728599933
 21
256.678884581
 31
0.0
  0
LINE
  5
44F
330
1F
100
AcDbEntity
  8
0
  6
Continuous
 62
     7
100
AcDbLine
 10
446.949899933
 20
258.457584581
 30
0.0
 11
447.458099933
 21
258.457584581
 31
0.0
  0
LINE
  5
450
330
1F
100
AcDbEntity
  8
0
  6
Continuous
 62
     7
100
AcDbLine
 10
448.728599933
 20
257.187084581
 30
0.0
 11
448.220399933
 21
257.187084581
 31
0.0
  0
LINE
  5
451
330
1F
100
AcDbEntity
  8
0
  6
Continuous
 62
     7
100
AcDbLine
 10
447.458099933
 20
258.457584581
 30
0.0
 11
447.458099933
 21
257.949384581
 31
0.0
  0
LINE
  5
452
330
1F
100
AcDbEntity
  8
0
  6
Continuous
 62
     7
100
AcDbLine
 10
446.949899933
 20
258.457584581
 30
0.0
 11
446.949899933
 21
257.949384581
 31
0.0
  0
LINE
  5
453
330
1F
100
AcDbEntity
  8
0
  6
Continuous
 62
     7
100
AcDbLine
 10
445.679399933
 20
256.678884581
 30
0.0
 11
446.1875999330001
 21
256.678884581
 31
0.0
  0
LINE
  5
454
330
1F
100
AcDbEntity
  8
0
  6
Continuous
 62
     7
100
AcDbLine
 10
447.458099933
 20
255.408384581
 30
0.0
 11
447.458099933
 21
255.916584581
 31
0.0
  0
LINE
  5
455
330
1F
100
AcDbEntity
  8
0
  6
Continuous
 62
     7
100
AcDbLine
 10
448.728599933
 20
257.187084581
 30
0.0
 11
448.220399933
 21
257.187084581
 31
0.0
  0
LINE
  5
456
330
1F
100
AcDbEntity
  8
0
  6
Continuous
 62
     7
100
AcDbLine
 10
448.728599933
 20
256.678884581
 30
0.0
 11
448.220399933
 21
256.678884581
 31
0.0
  0
LINE
  5
457
330
1F
100
AcDbEntity
  8
0
  6
Continuous
 62
     7
100
AcDbLine
 10
446.949899933
 20
255.408384581
 30
0.0
 11
446.949899933
 21
255.916584581
 31
0.0
  0
LINE
  5
458
330
1F
100
AcDbEntity
  8
0
  6
Continuous
 62
     7
100
AcDbLine
 10
445.679399933
 20
257.187084581
 30
0.0
 11
446.1875999330001
 21
257.187084581
 31
0.0
  0
ARC
  5
459
330
1F
100
AcDbEntity
  8
0
  6
Continuous
 62
     7
100
AcDbCircle
 10
448.1356999329999
 20
256.001284581
 30
0.0
 40
0.6776
100
AcDbArc
 50
82.3
 51
187.7
  0
ARC
  5
45A
330
1F
100
AcDbEntity
  8
0
  6
Continuous
 62
     7
100
AcDbCircle
 10
446.272299933
 20
256.001284581
 30
0.0
 40
0.6776
100
AcDbArc
 50
352.3
 51
97.70000000000001
  0
ARC
  5
45B
330
1F
100
AcDbEntity
  8
0
  6
Continuous
 62
     7
100
AcDbCircle
 10
446.272299933
 20
257.864684581
 30
0.0
 40
0.6776
100
AcDbArc
 50
262.3
 51
7.699999999999999
  0
ARC
  5
45C
330
1F
100
AcDbEntity
  8
0
  6
Continuous
 62
     7
100
AcDbCircle
 10
448.1356999329999
 20
257.864684581
 30
0.0
 40
0.6776
100
AcDbArc
 50
172.3
 51
277.7
  0
ARC
  5
45D
330
1F
100
AcDbEntity
  8
0
  6
Continuous
 62
     7
100
AcDbCircle
 10
447.203999933
 20
262.002884581
 30
0.0
 40
0.880893297
100
AcDbArc
 50
180.0
 51
0.0
  0
ARC
  5
45E
330
1F
100
AcDbEntity
  8
0
  6
Continuous
 62
     7
100
AcDbCircle
 10
447.203999933
 20
251.863084581
 30
0.0
 40
0.880893297
100
AcDbArc
 50
0.0
 51
180.0
  0
LINE
  5
45F
330
1F
100
AcDbEntity
  8
0
  6
Continuous
 62
     7
100
AcDbLine
 10
443.815999933
 20
251.863084581
 30
0.0
 11
443.815999933
 21
262.002884581
 31
0.0
  0
LINE
  5
460
330
1F
100
AcDbEntity
  8
0
  6
Continuous
 62
     7
100
AcDbLine
 10
442.847999933
 20
251.863084581
 30
0.0
 11
442.847999933
 21
262.002884581
 31
0.0
  0
ARC
  5
461
330
1F
100
AcDbEntity
  8
0
  6
Continuous
 62
     7
100
AcDbCircle
 10
449.7788932289999
 20
254.283084581
 30
0.0
 40
0.6516049420000001
100
AcDbArc
 50
82.31768865200001
 51
277.682311338
  0
LINE
  5
462
330
1F
100
AcDbEntity
  8
0
  6
Continuous
 62
     7
100
AcDbLine
 10
449.865999932
 20
253.637328108
 30
0.0
 11
450.591999933
 21
253.637328108
 31
0.0
  0
LINE
  5
463
330
1F
100
AcDbEntity
  8
0
  6
Continuous
 62
     7
100
AcDbLine
 10
449.865999933
 20
254.928841054
 30
0.0
 11
450.591999933
 21
254.928841054
 31
0.0
  0
ARC
  5
464
330
1F
100
AcDbEntity
  8
0
  6
Continuous
 62
     7
100
AcDbCircle
 10
449.7788932289999
 20
259.582884581
 30
0.0
 40
0.6516049420000001
100
AcDbArc
 50
82.31768866199999
 51
277.682311348
  0
LINE
  5
465
330
1F
100
AcDbEntity
  8
0
  6
Continuous
 62
     7
100
AcDbLine
 10
449.865999932
 20
260.228641054
 30
0.0
 11
450.591999933
 21
260.228641054
 31
0.0
  0
LINE
  5
466
330
1F
100
AcDbEntity
  8
0
  6
Continuous
 62
     7
100
AcDbLine
 10
449.865999933
 20
258.937128108
 30
0.0
 11
450.591999933
 21
258.937128108
 31
0.0
  0
ARC
  5
467
330
1F
100
AcDbEntity
  8
0
  6
Continuous
 62
     7
100
AcDbCircle
 10
444.6291066359999
 20
259.582884581
 30
0.0
 40
0.6516049420000001
100
AcDbArc
 50
262.317688652
 51
97.682311338
  0
LINE
  5
468
330
1F
100
AcDbEntity
  8
0
  6
Continuous
 62
     7
100
AcDbLine
 10
444.541999933
 20
260.228641054
 30
0.0
 11
443.815999933
 21
260.228641054
 31
0.0
  0
LINE
  5
469
330
1F
100
AcDbEntity
  8
0
  6
Continuous
 62
     7
100
AcDbLine
 10
444.541999933
 20
258.937128108
 30
0.0
 11
443.815999933
 21
258.937128108
 31
0.0
  0
ARC
  5
46A
330
1F
100
AcDbEntity
  8
0
  6
Continuous
 62
     7
100
AcDbCircle
 10
444.6291066359999
 20
254.283084581
 30
0.0
 40
0.6516049420000001
100
AcDbArc
 50
262.317688662
 51
97.682311348
  0
LINE
  5
46B
330
1F
100
AcDbEntity
  8
0
  6
Continuous
 62
     7
100
AcDbLine
 10
444.541999933
 20
253.637328108
 30
0.0
 11
443.815999933
 21
253.637328108
 31
0.0
  0
LINE
  5
46C
330
1F
100
AcDbEntity
  8
0
  6
Continuous
 62
     7
100
AcDbLine
 10
444.541999933
 20
254.928841054
 30
0.0
 11
443.815999933
 21
254.928841054
 31
0.0
  0
CIRCLE
  5
46D
330
1F
100
AcDbEntity
  8
0
  6
Continuous
 62
     7
100
AcDbCircle
 10
439.459999933
 20
256.932984581
 30
0.0
 40
2.371599999999999
  0
LINE
  5
46E
330
1F
100
AcDbEntity
  8
0
  6
Continuous
 62
     7
100
AcDbLine
 10
437.935399933
 20
257.187084581
 30
0.0
 11
437.935399933
 21
256.678884581
 31
0.0
  0
LINE
  5
46F
330
1F
100
AcDbEntity
  8
0
  6
Continuous
 62
     7
100
AcDbLine
 10
439.205899933
 20
255.408384581
 30
0.0
 11
439.714099933
 21
255.408384581
 31
0.0
  0
LINE
  5
470
330
1F
100
AcDbEntity
  8
0
  6
Continuous
 62
     7
100
AcDbLine
 10
440.984599933
 20
257.187084581
 30
0.0
 11
440.984599933
 21
256.678884581
 31
0.0
  0
LINE
  5
471
330
1F
100
AcDbEntity
  8
0
  6
Continuous
 62
     7
100
AcDbLine
 10
439.205899933
 20
258.457584581
 30
0.0
 11
439.714099933
 21
258.457584581
 31
0.0
  0
LINE
  5
472
330
1F
100
AcDbEntity
  8
0
  6
Continuous
 62
     7
100
AcDbLine
 10
440.984599933
 20
257.187084581
 30
0.0
 11
440.476399933
 21
257.187084581
 31
0.0
  0
LINE
  5
473
330
1F
100
AcDbEntity
  8
0
  6
Continuous
 62
     7
100
AcDbLine
 10
439.714099933
 20
258.457584581
 30
0.0
 11
439.714099933
 21
257.949384581
 31
0.0
  0
LINE
  5
474
330
1F
100
AcDbEntity
  8
0
  6
Continuous
 62
     7
100
AcDbLine
 10
439.205899933
 20
258.457584581
 30
0.0
 11
439.205899933
 21
257.949384581
 31
0.0
  0
LINE
  5
475
330
1F
100
AcDbEntity
  8
0
  6
Continuous
 62
     7
100
AcDbLine
 10
437.935399933
 20
256.678884581
 30
0.0
 11
438.443599933
 21
256.678884581
 31
0.0
  0
LINE
  5
476
330
1F
100
AcDbEntity
  8
0
  6
Continuous
 62
     7
100
AcDbLine
 10
439.714099933
 20
255.408384581
 30
0.0
 11
439.714099933
 21
255.916584581
 31
0.0
  0
LINE
  5
477
330
1F
100
AcDbEntity
  8
0
  6
Continuous
 62
     7
100
AcDbLine
 10
440.984599933
 20
257.187084581
 30
0.0
 11
440.476399933
 21
257.187084581
 31
0.0
  0
LINE
  5
478
330
1F
100
AcDbEntity
  8
0
  6
Continuous
 62
     7
100
AcDbLine
 10
440.984599933
 20
256.678884581
 30
0.0
 11
440.476399933
 21
256.678884581
 31
0.0
  0
LINE
  5
479
330
1F
100
AcDbEntity
  8
0
  6
Continuous
 62
     7
100
AcDbLine
 10
439.205899933
 20
255.408384581
 30
0.0
 11
439.205899933
 21
255.916584581
 31
0.0
  0
LINE
  5
47A
330
1F
100
AcDbEntity
  8
0
  6
Continuous
 62
     7
100
AcDbLine
 10
437.935399933
 20
257.187084581
 30
0.0
 11
438.443599933
 21
257.187084581
 31
0.0
  0
ARC
  5
47B
330
1F
100
AcDbEntity
  8
0
  6
Continuous
 62
     7
100
AcDbCircle
 10
440.391699933
 20
256.001284581
 30
0.0
 40
0.6776
100
AcDbArc
 50
82.3
 51
187.7
  0
ARC
  5
47C
330
1F
100
AcDbEntity
  8
0
  6
Continuous
 62
     7
100
AcDbCircle
 10
438.528299933
 20
256.001284581
 30
0.0
 40
0.6776
100
AcDbArc
 50
352.3
 51
97.70000000000001
  0
ARC
  5
47D
330
1F
100
AcDbEntity
  8
0
  6
Continuous
 62
     7
100
AcDbCircle
 10
438.528299933
 20
257.864684581
 30
0.0
 40
0.6776
100
AcDbArc
 50
262.3
 51
7.699999999999999
  0
ARC
  5
47E
330
1F
100
AcDbEntity
  8
0
  6
Continuous
 62
     7
100
AcDbCircle
 10
440.391699933
 20
257.864684581
 30
0.0
 40
0.6776
100
AcDbArc
 50
172.3
 51
277.7
  0
ARC
  5
47F
330
1F
100
AcDbEntity
  8
0
  6
Continuous
 62
     7
100
AcDbCircle
 10
439.459999933
 20
262.002884581
 30
0.0
 40
0.880893297
100
AcDbArc
 50
180.0
 51
0.0
  0
ARC
  5
480
330
1F
100
AcDbEntity
  8
0
  6
Continuous
 62
     7
100
AcDbCircle
 10
439.459999933
 20
251.863084581
 30
0.0
 40
0.880893297
100
AcDbArc
 50
0.0
 51
180.0
  0
LINE
  5
481
330
1F
100
AcDbEntity
  8
0
  6
Continuous
 62
     7
100
AcDbLine
 10
436.071999933
 20
251.863084581
 30
0.0
 11
436.071999933
 21
262.002884581
 31
0.0
  0
LINE
  5
482
330
1F
100
AcDbEntity
  8
0
  6
Continuous
 62
     7
100
AcDbLine
 10
435.103999933
 20
251.863084581
 30
0.0
 11
435.103999933
 21
262.002884581
 31
0.0
  0
ARC
  5
483
330
1F
100
AcDbEntity
  8
0
  6
Continuous
 62
     7
100
AcDbCircle
 10
442.034893229
 20
254.283084581
 30
0.0
 40
0.6516049420000001
100
AcDbArc
 50
82.31768865200001
 51
277.682311338
  0
LINE
  5
484
330
1F
100
AcDbEntity
  8
0
  6
Continuous
 62
     7
100
AcDbLine
 10
442.1219999319999
 20
253.637328108
 30
0.0
 11
442.847999933
 21
253.637328108
 31
0.0
  0
LINE
  5
485
330
1F
100
AcDbEntity
  8
0
  6
Continuous
 62
     7
100
AcDbLine
 10
442.121999933
 20
254.928841054
 30
0.0
 11
442.847999933
 21
254.928841054
 31
0.0
  0
ARC
  5
486
330
1F
100
AcDbEntity
  8
0
  6
Continuous
 62
     7
100
AcDbCircle
 10
442.034893229
 20
259.582884581
 30
0.0
 40
0.6516049420000001
100
AcDbArc
 50
82.31768866199999
 51
277.682311348
  0
LINE
  5
487
330
1F
100
AcDbEntity
  8
0
  6
Continuous
 62
     7
100
AcDbLine
 10
442.1219999319999
 20
260.228641054
 30
0.0
 11
442.847999933
 21
260.228641054
 31
0.0
  0
LINE
  5
488
330
1F
100
AcDbEntity
  8
0
  6
Continuous
 62
     7
100
AcDbLine
 10
442.121999933
 20
258.937128108
 30
0.0
 11
442.847999933
 21
258.937128108
 31
0.0
  0
ARC
  5
489
330
1F
100
AcDbEntity
  8
0
  6
Continuous
 62
     7
100
AcDbCircle
 10
436.885106636
 20
259.582884581
 30
0.0
 40
0.6516049420000001
100
AcDbArc
 50
262.317688652
 51
97.682311338
  0
LINE
  5
48A
330
1F
100
AcDbEntity
  8
0
  6
Continuous
 62
     7
100
AcDbLine
 10
436.797999933
 20
260.228641054
 30
0.0
 11
436.071999933
 21
260.228641054
 31
0.0
  0
LINE
  5
48B
330
1F
100
AcDbEntity
  8
0
  6
Continuous
 62
     7
100
AcDbLine
 10
436.797999933
 20
258.937128108
 30
0.0
 11
436.071999933
 21
258.937128108
 31
0.0
  0
ARC
  5
48C
330
1F
100
AcDbEntity
  8
0
  6
Continuous
 62
     7
100
AcDbCircle
 10
436.885106636
 20
254.283084581
 30
0.0
 40
0.6516049420000001
100
AcDbArc
 50
262.317688662
 51
97.682311348
  0
LINE
  5
48D
330
1F
100
AcDbEntity
  8
0
  6
Continuous
 62
     7
100
AcDbLine
 10
436.797999933
 20
253.637328108
 30
0.0
 11
436.071999933
 21
253.637328108
 31
0.0
  0
LINE
  5
48E
330
1F
100
AcDbEntity
  8
0
  6
Continuous
 62
     7
100
AcDbLine
 10
436.797999933
 20
254.928841054
 30
0.0
 11
436.071999933
 21
254.928841054
 31
0.0
  0
CIRCLE
  5
48F
330
1F
100
AcDbEntity
  8
0
  6
Continuous
 62
     7
100
AcDbCircle
 10
431.715999933
 20
256.932984581
 30
0.0
 40
2.371599999999999
  0
LINE
  5
490
330
1F
100
AcDbEntity
  8
0
  6
Continuous
 62
     7
100
AcDbLine
 10
430.1913999329999
 20
257.187084581
 30
0.0
 11
430.1913999329999
 21
256.678884581
 31
0.0
  0
LINE
  5
491
330
1F
100
AcDbEntity
  8
0
  6
Continuous
 62
     7
100
AcDbLine
 10
431.461899933
 20
255.408384581
 30
0.0
 11
431.970099933
 21
255.408384581
 31
0.0
  0
LINE
  5
492
330
1F
100
AcDbEntity
  8
0
  6
Continuous
 62
     7
100
AcDbLine
 10
433.240599933
 20
257.187084581
 30
0.0
 11
433.240599933
 21
256.678884581
 31
0.0
  0
LINE
  5
493
330
1F
100
AcDbEntity
  8
0
  6
Continuous
 62
     7
100
AcDbLine
 10
431.461899933
 20
258.457584581
 30
0.0
 11
431.970099933
 21
258.457584581
 31
0.0
  0
LINE
  5
494
330
1F
100
AcDbEntity
  8
0
  6
Continuous
 62
     7
100
AcDbLine
 10
433.240599933
 20
257.187084581
 30
0.0
 11
432.7323999329999
 21
257.187084581
 31
0.0
  0
LINE
  5
495
330
1F
100
AcDbEntity
  8
0
  6
Continuous
 62
     7
100
AcDbLine
 10
431.970099933
 20
258.457584581
 30
0.0
 11
431.970099933
 21
257.949384581
 31
0.0
  0
LINE
  5
496
330
1F
100
AcDbEntity
  8
0
  6
Continuous
 62
     7
100
AcDbLine
 10
431.461899933
 20
258.457584581
 30
0.0
 11
431.461899933
 21
257.949384581
 31
0.0
  0
LINE
  5
497
330
1F
100
AcDbEntity
  8
0
  6
Continuous
 62
     7
100
AcDbLine
 10
430.1913999329999
 20
256.678884581
 30
0.0
 11
430.699599933
 21
256.678884581
 31
0.0
  0
LINE
  5
498
330
1F
100
AcDbEntity
  8
0
  6
Continuous
 62
     7
100
AcDbLine
 10
431.970099933
 20
255.408384581
 30
0.0
 11
431.970099933
 21
255.916584581
 31
0.0
  0
LINE
  5
499
330
1F
100
AcDbEntity
  8
0
  6
Continuous
 62
     7
100
AcDbLine
 10
433.240599933
 20
257.187084581
 30
0.0
 11
432.7323999329999
 21
257.187084581
 31
0.0
  0
LINE
  5
49A
330
1F
100
AcDbEntity
  8
0
  6
Continuous
 62
     7
100
AcDbLine
 10
433.240599933
 20
256.678884581
 30
0.0
 11
432.7323999329999
 21
256.678884581
 31
0.0
  0
LINE
  5
49B
330
1F
100
AcDbEntity
  8
0
  6
Continuous
 62
     7
100
AcDbLine
 10
431.461899933
 20
255.408384581
 30
0.0
 11
431.461899933
 21
255.916584581
 31
0.0
  0
LINE
  5
49C
330
1F
100
AcDbEntity
  8
0
  6
Continuous
 62
     7
100
AcDbLine
 10
430.1913999329999
 20
257.187084581
 30
0.0
 11
430.699599933
 21
257.187084581
 31
0.0
  0
ARC
  5
49D
330
1F
100
AcDbEntity
  8
0
  6
Continuous
 62
     7
100
AcDbCircle
 10
432.647699933
 20
256.001284581
 30
0.0
 40
0.6776
100
AcDbArc
 50
82.3
 51
187.7
  0
ARC
  5
49E
330
1F
100
AcDbEntity
  8
0
  6
Continuous
 62
     7
100
AcDbCircle
 10
430.784299933
 20
256.001284581
 30
0.0
 40
0.6776
100
AcDbArc
 50
352.3
 51
97.70000000000001
  0
ARC
  5
49F
330
1F
100
AcDbEntity
  8
0
  6
Continuous
 62
     7
100
AcDbCircle
 10
430.784299933
 20
257.864684581
 30
0.0
 40
0.6776
100
AcDbArc
 50
262.3
 51
7.699999999999999
  0
ARC
  5
4A0
330
1F
100
AcDbEntity
  8
0
  6
Continuous
 62
     7
100
AcDbCircle
 10
432.647699933
 20
257.864684581
 30
0.0
 40
0.6776
100
AcDbArc
 50
172.3
 51
277.7
  0
ARC
  5
4A1
330
1F
100
AcDbEntity
  8
0
  6
Continuous
 62
     7
100
AcDbCircle
 10
431.715999933
 20
262.002884581
 30
0.0
 40
0.880893297
100
AcDbArc
 50
180.0
 51
0.0
  0
ARC
  5
4A2
330
1F
100
AcDbEntity
  8
0
  6
Continuous
 62
     7
100
AcDbCircle
 10
431.715999933
 20
251.863084581
 30
0.0
 40
0.880893297
100
AcDbArc
 50
0.0
 51
180.0
  0
LINE
  5
4A3
330
1F
100
AcDbEntity
  8
0
  6
Continuous
 62
     7
100
AcDbLine
 10
428.327999933
 20
251.863084581
 30
0.0
 11
428.327999933
 21
262.002884581
 31
0.0
  0
LINE
  5
4A4
330
1F
100
AcDbEntity
  8
0
  6
Continuous
 62
     7
100
AcDbLine
 10
427.359999933
 20
251.863084581
 30
0.0
 11
427.359999933
 21
262.002884581
 31
0.0
  0
ARC
  5
4A5
330
1F
100
AcDbEntity
  8
0
  6
Continuous
 62
     7
100
AcDbCircle
 10
434.290893229
 20
254.283084581
 30
0.0
 40
0.6516049420000001
100
AcDbArc
 50
82.31768865200001
 51
277.682311338
  0
LINE
  5
4A6
330
1F
100
AcDbEntity
  8
0
  6
Continuous
 62
     7
100
AcDbLine
 10
434.3779999319999
 20
253.637328108
 30
0.0
 11
435.103999933
 21
253.637328108
 31
0.0
  0
LINE
  5
4A7
330
1F
100
AcDbEntity
  8
0
  6
Continuous
 62
     7
100
AcDbLine
 10
434.377999933
 20
254.928841054
 30
0.0
 11
435.103999933
 21
254.928841054
 31
0.0
  0
ARC
  5
4A8
330
1F
100
AcDbEntity
  8
0
  6
Continuous
 62
     7
100
AcDbCircle
 10
434.290893229
 20
259.582884581
 30
0.0
 40
0.6516049420000001
100
AcDbArc
 50
82.31768866199999
 51
277.682311348
  0
LINE
  5
4A9
330
1F
100
AcDbEntity
  8
0
  6
Continuous
 62
     7
100
AcDbLine
 10
434.3779999319999
 20
260.228641054
 30
0.0
 11
435.103999933
 21
260.228641054
 31
0.0
  0
LINE
  5
4AA
330
1F
100
AcDbEntity
  8
0
  6
Continuous
 62
     7
100
AcDbLine
 10
434.377999933
 20
258.937128108
 30
0.0
 11
435.103999933
 21
258.937128108
 31
0.0
  0
ARC
  5
4AB
330
1F
100
AcDbEntity
  8
0
  6
Continuous
 62
     7
100
AcDbCircle
 10
429.1411066359999
 20
259.582884581
 30
0.0
 40
0.6516049420000001
100
AcDbArc
 50
262.317688652
 51
97.682311338
  0
LINE
  5
4AC
330
1F
100
AcDbEntity
  8
0
  6
Continuous
 62
     7
100
AcDbLine
 10
429.053999933
 20
260.228641054
 30
0.0
 11
428.327999933
 21
260.228641054
 31
0.0
  0
LINE
  5
4AD
330
1F
100
AcDbEntity
  8
0
  6
Continuous
 62
     7
100
AcDbLine
 10
429.053999933
 20
258.937128108
 30
0.0
 11
428.327999933
 21
258.937128108
 31
0.0
  0
ARC
  5
4AE
330
1F
100
AcDbEntity
  8
0
  6
Continuous
 62
     7
100
AcDbCircle
 10
429.1411066359999
 20
254.283084581
 30
0.0
 40
0.6516049420000001
100
AcDbArc
 50
262.317688662
 51
97.682311348
  0
LINE
  5
4AF
330
1F
100
AcDbEntity
  8
0
  6
Continuous
 62
     7
100
AcDbLine
 10
429.053999933
 20
253.637328108
 30
0.0
 11
428.327999933
 21
253.637328108
 31
0.0
  0
LINE
  5
4B0
330
1F
100
AcDbEntity
  8
0
  6
Continuous
 62
     7
100
AcDbLine
 10
429.053999933
 20
254.928841054
 30
0.0
 11
428.327999933
 21
254.928841054
 31
0.0
  0
MTEXT
  5
4B1
330
1F
100
AcDbEntity
  8
0
  6
Continuous
 62
     7
100
AcDbMText
 10
437.4731066359999
 20
264.002884581
 30
0.0
 40
4.0
 41
8.0
 71
     7
 72
     1
  1
\T1.075;\W1.000;２
  7
KANJI8
 73
     1
 44
1.0
1001
ACAD
1000
MTEXTBEGIN
1070
    73
1070
     1
1070
    44
1040
1.0
1070
    74
1070
     0
1000
MTEXTEND
  0
MTEXT
  5
4B3
330
1F
100
AcDbEntity
  8
0
  6
Continuous
 62
     7
100
AcDbMText
 10
445.217106636
 20
264.002884581
 30
0.0
 40
4.0
 41
8.0
 71
     7
 72
     1
  1
\T1.075;\W1.000;３
  7
KANJI8
 73
     1
 44
1.0
1001
ACAD
1000
MTEXTBEGIN
1070
    73
1070
     1
1070
    44
1040
1.0
1070
    74
1070
     0
1000
MTEXTEND
  0
MTEXT
  5
4B4
330
1F
100
AcDbEntity
  8
0
  6
Continuous
 62
     7
100
AcDbMText
 10
452.961106636
 20
264.002884581
 30
0.0
 40
4.0
 41
8.0
 71
     7
 72
     1
  1
\T1.075;\W1.000;４
  7
KANJI8
 73
     1
 44
1.0
1001
ACAD
1000
MTEXTBEGIN
1070
    73
1070
     1
1070
    44
1040
1.0
1070
    74
1070
     0
1000
MTEXTEND
  0
MTEXT
  5
4B5
330
1F
100
AcDbEntity
  8
0
  6
Continuous
 62
     7
100
AcDbMText
 10
460.7051066359999
 20
264.002884581
 30
0.0
 40
4.0
 41
8.0
 71
     7
 72
     1
  1
\T1.075;\W1.000;５
  7
KANJI8
 73
     1
 44
1.0
1001
ACAD
1000
MTEXTBEGIN
1070
    73
1070
     1
1070
    44
1040
1.0
1070
    74
1070
     0
1000
MTEXTEND
  0
MTEXT
  5
4B6
330
1F
100
AcDbEntity
  8
0
  6
Continuous
 62
     7
100
AcDbMText
 10
468.449106636
 20
264.002884581
 30
0.0
 40
4.0
 41
8.0
 71
     7
 72
     1
  1
\T1.075;\W1.000;６
  7
KANJI8
 73
     1
 44
1.0
1001
ACAD
1000
MTEXTBEGIN
1070
    73
1070
     1
1070
    44
1040
1.0
1070
    74
1070
     0
1000
MTEXTEND
  0
MTEXT
  5
4B7
330
1F
100
AcDbEntity
  8
0
  6
Continuous
 62
     7
100
AcDbMText
 10
476.1931066359999
 20
264.002884581
 30
0.0
 40
4.0
 41
8.0
 71
     7
 72
     1
  1
\T1.075;\W1.000;７
  7
KANJI8
 73
     1
 44
1.0
1001
ACAD
1000
MTEXTBEGIN
1070
    73
1070
     1
1070
    44
1040
1.0
1070
    74
1070
     0
1000
MTEXTEND
  0
MTEXT
  5
4B8
330
1F
100
AcDbEntity
  8
0
  6
Continuous
 62
     7
100
AcDbMText
 10
483.937106636
 20
264.002884581
 30
0.0
 40
4.0
 41
8.0
 71
     7
 72
     1
  1
\T1.075;\W1.000;８
  7
KANJI8
 73
     1
 44
1.0
1001
ACAD
1000
MTEXTBEGIN
1070
    73
1070
     1
1070
    44
1040
1.0
1070
    74
1070
     0
1000
MTEXTEND
  0
MTEXT
  5
4B9
330
1F
100
AcDbEntity
  8
0
  6
Continuous
 62
     7
100
AcDbMText
 10
491.681106636
 20
264.002884581
 30
0.0
 40
4.0
 41
8.0
 71
     7
 72
     1
  1
\T1.075;\W1.000;９
  7
KANJI8
 73
     1
 44
1.0
1001
ACAD
1000
MTEXTBEGIN
1070
    73
1070
     1
1070
    44
1040
1.0
1070
    74
1070
     0
1000
MTEXTEND
  0
LINE
  5
4BA
330
1F
100
AcDbEntity
  8
0
  6
Continuous
 62
     7
100
AcDbLine
 10
498.023999933
 20
251.863084581
 30
0.0
 11
498.023999933
 21
262.002884581
 31
0.0
  0
CIRCLE
  5
4BB
330
1F
100
AcDbEntity
  8
0
  6
Continuous
 62
     7
100
AcDbCircle
 10
501.411999933
 20
256.932984581
 30
0.0
 40
2.371599999999999
  0
LINE
  5
4BC
330
1F
100
AcDbEntity
  8
0
  6
Continuous
 62
     7
100
AcDbLine
 10
499.887399933
 20
257.187084581
 30
0.0
 11
499.887399933
 21
256.678884581
 31
0.0
  0
LINE
  5
4BD
330
1F
100
AcDbEntity
  8
0
  6
Continuous
 62
     7
100
AcDbLine
 10
501.157899933
 20
255.408384581
 30
0.0
 11
501.666099933
 21
255.408384581
 31
0.0
  0
LINE
  5
4BE
330
1F
100
AcDbEntity
  8
0
  6
Continuous
 62
     7
100
AcDbLine
 10
502.936599933
 20
257.187084581
 30
0.0
 11
502.936599933
 21
256.678884581
 31
0.0
  0
LINE
  5
4BF
330
1F
100
AcDbEntity
  8
0
  6
Continuous
 62
     7
100
AcDbLine
 10
501.157899933
 20
258.457584581
 30
0.0
 11
501.666099933
 21
258.457584581
 31
0.0
  0
LINE
  5
4C0
330
1F
100
AcDbEntity
  8
0
  6
Continuous
 62
     7
100
AcDbLine
 10
502.936599933
 20
257.187084581
 30
0.0
 11
502.428399933
 21
257.187084581
 31
0.0
  0
LINE
  5
4C1
330
1F
100
AcDbEntity
  8
0
  6
Continuous
 62
     7
100
AcDbLine
 10
501.666099933
 20
258.457584581
 30
0.0
 11
501.666099933
 21
257.949384581
 31
0.0
  0
LINE
  5
4C2
330
1F
100
AcDbEntity
  8
0
  6
Continuous
 62
     7
100
AcDbLine
 10
501.157899933
 20
258.457584581
 30
0.0
 11
501.157899933
 21
257.949384581
 31
0.0
  0
LINE
  5
4C3
330
1F
100
AcDbEntity
  8
0
  6
Continuous
 62
     7
100
AcDbLine
 10
499.887399933
 20
256.678884581
 30
0.0
 11
500.395599933
 21
256.678884581
 31
0.0
  0
LINE
  5
4C4
330
1F
100
AcDbEntity
  8
0
  6
Continuous
 62
     7
100
AcDbLine
 10
501.666099933
 20
255.408384581
 30
0.0
 11
501.666099933
 21
255.916584581
 31
0.0
  0
LINE
  5
4C5
330
1F
100
AcDbEntity
  8
0
  6
Continuous
 62
     7
100
AcDbLine
 10
502.936599933
 20
257.187084581
 30
0.0
 11
502.428399933
 21
257.187084581
 31
0.0
  0
LINE
  5
4C6
330
1F
100
AcDbEntity
  8
0
  6
Continuous
 62
     7
100
AcDbLine
 10
502.936599933
 20
256.678884581
 30
0.0
 11
502.428399933
 21
256.678884581
 31
0.0
  0
LINE
  5
4C7
330
1F
100
AcDbEntity
  8
0
  6
Continuous
 62
     7
100
AcDbLine
 10
501.157899933
 20
255.408384581
 30
0.0
 11
501.157899933
 21
255.916584581
 31
0.0
  0
LINE
  5
4C8
330
1F
100
AcDbEntity
  8
0
  6
Continuous
 62
     7
100
AcDbLine
 10
499.887399933
 20
257.187084581
 30
0.0
 11
500.395599933
 21
257.187084581
 31
0.0
  0
ARC
  5
4C9
330
1F
100
AcDbEntity
  8
0
  6
Continuous
 62
     7
100
AcDbCircle
 10
502.343699933
 20
256.001284581
 30
0.0
 40
0.6776
100
AcDbArc
 50
82.3
 51
187.7
  0
ARC
  5
4CA
330
1F
100
AcDbEntity
  8
0
  6
Continuous
 62
     7
100
AcDbCircle
 10
500.480299933
 20
256.001284581
 30
0.0
 40
0.6776
100
AcDbArc
 50
352.3
 51
97.70000000000001
  0
ARC
  5
4CB
330
1F
100
AcDbEntity
  8
0
  6
Continuous
 62
     7
100
AcDbCircle
 10
500.480299933
 20
257.864684581
 30
0.0
 40
0.6776
100
AcDbArc
 50
262.3
 51
7.699999999999999
  0
ARC
  5
4CC
330
1F
100
AcDbEntity
  8
0
  6
Continuous
 62
     7
100
AcDbCircle
 10
502.343699933
 20
257.864684581
 30
0.0
 40
0.6776
100
AcDbArc
 50
172.3
 51
277.7
  0
ARC
  5
4CD
330
1F
100
AcDbEntity
  8
0
  6
Continuous
 62
     7
100
AcDbCircle
 10
501.411999933
 20
262.002884581
 30
0.0
 40
0.880893297
100
AcDbArc
 50
180.0
 51
0.0
  0
ARC
  5
4CE
330
1F
100
AcDbEntity
  8
0
  6
Continuous
 62
     7
100
AcDbCircle
 10
501.411999933
 20
251.863084581
 30
0.0
 40
0.880893297
100
AcDbArc
 50
0.0
 51
180.0
  0
LINE
  5
4CF
330
1F
100
AcDbEntity
  8
0
  6
Continuous
 62
     7
100
AcDbLine
 10
504.799999933
 20
251.863084581
 30
0.0
 11
504.799999933
 21
262.002884581
 31
0.0
  0
LINE
  5
4D0
330
1F
100
AcDbEntity
  8
0
  6
Continuous
 62
     7
100
AcDbLine
 10
505.767999933
 20
251.863084581
 30
0.0
 11
505.767999933
 21
262.002884581
 31
0.0
  0
ARC
  5
4D1
330
1F
100
AcDbEntity
  8
0
  6
Continuous
 62
     7
100
AcDbCircle
 10
503.986893229
 20
254.283084581
 30
0.0
 40
0.6516049420000001
100
AcDbArc
 50
82.31768865200001
 51
277.682311338
  0
LINE
  5
4D2
330
1F
100
AcDbEntity
  8
0
  6
Continuous
 62
     7
100
AcDbLine
 10
504.073999932
 20
253.637328108
 30
0.0
 11
504.799999933
 21
253.637328108
 31
0.0
  0
LINE
  5
4D3
330
1F
100
AcDbEntity
  8
0
  6
Continuous
 62
     7
100
AcDbLine
 10
504.073999933
 20
254.928841054
 30
0.0
 11
504.799999933
 21
254.928841054
 31
0.0
  0
ARC
  5
4D4
330
1F
100
AcDbEntity
  8
0
  6
Continuous
 62
     7
100
AcDbCircle
 10
503.986893229
 20
259.582884581
 30
0.0
 40
0.6516049420000001
100
AcDbArc
 50
82.31768866199999
 51
277.682311348
  0
LINE
  5
4D5
330
1F
100
AcDbEntity
  8
0
  6
Continuous
 62
     7
100
AcDbLine
 10
504.073999932
 20
260.228641054
 30
0.0
 11
504.799999933
 21
260.228641054
 31
0.0
  0
LINE
  5
4D6
330
1F
100
AcDbEntity
  8
0
  6
Continuous
 62
     7
100
AcDbLine
 10
504.073999933
 20
258.937128108
 30
0.0
 11
504.799999933
 21
258.937128108
 31
0.0
  0
ARC
  5
4D7
330
1F
100
AcDbEntity
  8
0
  6
Continuous
 62
     7
100
AcDbCircle
 10
498.837106636
 20
259.582884581
 30
0.0
 40
0.6516049420000001
100
AcDbArc
 50
262.317688652
 51
97.682311338
  0
LINE
  5
4D8
330
1F
100
AcDbEntity
  8
0
  6
Continuous
 62
     7
100
AcDbLine
 10
498.749999933
 20
260.228641054
 30
0.0
 11
498.023999933
 21
260.228641054
 31
0.0
  0
LINE
  5
4D9
330
1F
100
AcDbEntity
  8
0
  6
Continuous
 62
     7
100
AcDbLine
 10
498.749999933
 20
258.937128108
 30
0.0
 11
498.023999933
 21
258.937128108
 31
0.0
  0
ARC
  5
4DA
330
1F
100
AcDbEntity
  8
0
  6
Continuous
 62
     7
100
AcDbCircle
 10
498.837106636
 20
254.283084581
 30
0.0
 40
0.6516049420000001
100
AcDbArc
 50
262.317688662
 51
97.682311348
  0
LINE
  5
4DB
330
1F
100
AcDbEntity
  8
0
  6
Continuous
 62
     7
100
AcDbLine
 10
498.749999933
 20
253.637328108
 30
0.0
 11
498.023999933
 21
253.637328108
 31
0.0
  0
LINE
  5
4DC
330
1F
100
AcDbEntity
  8
0
  6
Continuous
 62
     7
100
AcDbLine
 10
498.749999933
 20
254.928841054
 30
0.0
 11
498.023999933
 21
254.928841054
 31
0.0
  0
LINE
  5
4DD
330
1F
100
AcDbEntity
  8
0
  6
Continuous
 62
     7
100
AcDbLine
 10
505.767999933
 20
251.863084581
 30
0.0
 11
427.359999933
 21
251.863084581
 31
0.0
  0
LINE
  5
4DE
330
1F
100
AcDbEntity
  8
0
  6
Continuous
 62
     7
100
AcDbLine
 10
427.359999933
 20
262.002884581
 30
0.0
 11
505.767999933
 21
262.002884581
 31
0.0
  0
MTEXT
  5
4DF
330
1F
100
AcDbEntity
  8
0
  6
Continuous
 62
     7
100
AcDbMText
 10
430.729106636
 20
264.102884581
 30
0.0
 40
4.0
 41
8.0
 71
     7
 72
     1
  1
\T1.075;\W1.000;１
  7
KANJI8
 73
     1
 44
1.0
1001
ACAD
1000
MTEXTBEGIN
1070
    73
1070
     1
1070
    44
1040
1.0
1070
    74
1070
     0
1000
MTEXTEND
  0
MTEXT
  5
4E0
330
1F
100
AcDbEntity
  8
0
  6
Continuous
 62
     7
100
AcDbMText
 10
499.425106636
 20
264.002884581
 30
0.0
 40
4.0
 41
16.6
 71
     7
 72
     1
  1
\T1.075;\W1.000;１０
  7
KANJI8
 73
     1
 44
1.0
1001
ACAD
1000
MTEXTBEGIN
1070
    73
1070
     1
1070
    44
1040
1.0
1070
    74
1070
     0
1000
MTEXTEND
  0
LINE
  5
4E1
330
1F
100
AcDbEntity
  8
0
  6
Continuous
 62
     7
100
AcDbLine
 10
466.5919999329999
 20
293.812884581
 30
0.0
 11
421.091999933
 21
293.812884581
 31
0.0
  0
LINE
  5
4E2
330
1F
100
AcDbEntity
  8
0
  6
Continuous
 62
     7
100
AcDbLine
 10
421.091999933
 20
249.812884581
 30
0.0
 11
466.5919999329999
 21
249.812884581
 31
0.0
  0
LINE
  5
4E3
330
1F
100
AcDbEntity
  8
0
  6
Continuous
 62
     7
100
AcDbLine
 10
421.091999933
 20
293.812884581
 30
0.0
 11
421.091999933
 21
249.812884581
 31
0.0
  0
LINE
  5
4E4
330
1F
100
AcDbEntity
  8
0
  6
Continuous
 62
     7
100
AcDbLine
 10
466.5919999329999
 20
293.812884581
 30
0.0
 11
512.0919999329999
 21
293.812884581
 31
0.0
  0
LINE
  5
4E5
330
1F
100
AcDbEntity
  8
0
  6
Continuous
 62
     7
100
AcDbLine
 10
512.0919999329999
 20
249.812884581
 30
0.0
 11
466.5919999329999
 21
249.812884581
 31
0.0
  0
LINE
  5
4E6
330
1F
100
AcDbEntity
  8
0
  6
Continuous
 62
     7
100
AcDbLine
 10
512.0919999329999
 20
293.812884581
 30
0.0
 11
512.0919999329999
 21
249.812884581
 31
0.0
  0
ARC
  5
4E7
330
1F
100
AcDbEntity
  8
0
  6
Continuous
 62
     7
100
AcDbCircle
 10
419.092
 20
295.312769162
 30
0.0
 40
0.5
100
AcDbArc
 50
90.0
 51
180.0
  0
LINE
  5
4E8
330
1F
100
AcDbEntity
  8
0
  6
Continuous
 62
     7
100
AcDbLine
 10
514.091999865
 20
295.812769162
 30
0.0
 11
419.092
 21
295.812769162
 31
0.0
  0
ARC
  5
4E9
330
1F
100
AcDbEntity
  8
0
  6
Continuous
 62
     7
100
AcDbCircle
 10
514.091999865
 20
295.312769162
 30
0.0
 40
0.5
100
AcDbArc
 50
0.0
 51
90.0
  0
LINE
  5
4EA
330
1F
100
AcDbEntity
  8
0
  6
Continuous
 62
     7
100
AcDbLine
 10
514.591999865
 20
248.313
 30
0.0
 11
514.591999865
 21
295.312769162
 31
0.0
  0
ARC
  5
4EB
330
1F
100
AcDbEntity
  8
0
  6
Continuous
 62
     7
100
AcDbCircle
 10
514.091999865
 20
248.313
 30
0.0
 40
0.5
100
AcDbArc
 50
270.0
 51
0.0
  0
LINE
  5
4EC
330
1F
100
AcDbEntity
  8
0
  6
Continuous
 62
     7
100
AcDbLine
 10
418.592
 20
295.312769162
 30
0.0
 11
418.592
 21
248.313
 31
0.0
  0
LINE
  5
4ED
330
1F
100
AcDbEntity
  8
0
  6
Continuous
 62
     7
100
AcDbLine
 10
419.092
 20
247.813
 30
0.0
 11
514.091999865
 21
247.813
 31
0.0
  0
ARC
  5
4EE
330
1F
100
AcDbEntity
  8
0
  6
Continuous
 62
     7
100
AcDbCircle
 10
419.092
 20
248.313
 30
0.0
 40
0.5
100
AcDbArc
 50
180.0
 51
270.0
  0
ENDSEC
  0
SECTION
  2
OBJECTS
  0
DICTIONARY
  5
C
330
0
100
AcDbDictionary
281
     1
  3
ACAD_COLOR
350
506
  3
ACAD_GROUP
350
D
  3
ACAD_LAYOUT
350
1A
  3
ACAD_MATERIAL
350
4F1
  3
ACAD_MLINESTYLE
350
17
  3
ACAD_PLOTSETTINGS
350
19
  3
ACAD_PLOTSTYLENAME
350
E
  3
ACAD_TABLESTYLE
350
507
  3
ACAD_VISUALSTYLE
350
4F5
  3
AcDbVariableDictionary
350
511
  3
DWGPROPS
350
516
  0
DICTIONARY
  5
50C
330
2
100
AcDbDictionary
280
     1
281
     1
  3
ACAD_LAYERFILTERS
360
510
  3
ACLYDICTIONARY
360
50F
  0
DICTIONARY
  5
506
102
{ACAD_REACTORS
330
C
102
}
330
C
100
AcDbDictionary
281
     1
  0
DICTIONARY
  5
D
102
{ACAD_REACTORS
330
C
102
}
330
C
100
AcDbDictionary
281
     1
  0
DICTIONARY
  5
1A
102
{ACAD_REACTORS
330
C
102
}
330
C
100
AcDbDictionary
281
     1
  3
Model
350
22
  3
ﾚｲｱｳﾄ1
350
1E
  3
ﾚｲｱｳﾄ2
350
26
  0
DICTIONARY
  5
4F1
102
{ACAD_REACTORS
330
C
102
}
330
C
100
AcDbDictionary
281
     1
  3
ByBlock
350
4F3
  3
ByLayer
350
4F2
  3
Global
350
4F4
  0
DICTIONARY
  5
17
102
{ACAD_REACTORS
330
C
102
}
330
C
100
AcDbDictionary
281
     1
  3
Standard
350
18
  0
DICTIONARY
  5
19
102
{ACAD_REACTORS
330
C
102
}
330
C
100
AcDbDictionary
281
     1
  0
ACDBDICTIONARYWDFLT
  5
E
330
C
100
AcDbDictionary
281
     0
  3
Normal
350
F
100
AcDbDictionaryWithDefault
340
F
  0
DICTIONARY
  5
507
102
{ACAD_REACTORS
330
C
102
}
330
C
100
AcDbDictionary
281
     1
  3
Standard
350
508
  0
DICTIONARY
  5
4F5
102
{ACAD_REACTORS
330
C
102
}
330
C
100
AcDbDictionary
281
     1
  3
2dWireframe
350
4FB
  3
3D Hidden
350
4FD
  3
3dWireframe
350
4FC
  3
Basic
350
4FA
  3
Brighten
350
501
  3
ColorChange
350
505
  3
Conceptual
350
4FE
  3
Dim
350
500
  3
Facepattern
350
504
  3
Flat
350
4F6
  3
FlatWithEdges
350
4F7
  3
Gouraud
350
4F8
  3
GouraudWithEdges
350
4F9
  3
Linepattern
350
503
  3
Realistic
350
4FF
  3
Thicken
350
502
  0
DICTIONARY
  5
511
102
{ACAD_REACTORS
330
C
102
}
330
C
100
AcDbDictionary
281
     1
  3
CTABLESTYLE
350
512
  3
DIMASSOC
350
515
  3
INDEXCTL
350
514
  3
SORTENTS
350
513
  0
XRECORD
  5
516
102
{ACAD_REACTORS
330
C
102
}
330
C
100
AcDbXrecord
280
     1
  1
DWGPROPS COOKIE
  2

  3

  4

  6

  7

  8
sakata-pc1
  9

300
=
301
=
302
=
303
=
304
=
305
=
306
=
307
=
308
=
309
=
 40
0.0006467013888889
 41
2456485.62220522
 42
2456485.622851378
  1

 90
        0
  0
DICTIONARY
  5
510
102
{ACAD_REACTORS
330
50C
102
}
330
50C
100
AcDbDictionary
281
     1
  0
DICTIONARY
  5
50F
102
{ACAD_REACTORS
330
50C
102
}
330
50C
100
AcDbDictionary
281
     1
1001
ACAD
1000
<All
  0
LAYOUT
  5
22
102
{ACAD_XDICTIONARY
360
519
102
}
102
{ACAD_REACTORS
330
1A
102
}
330
1A
100
AcDbPlotSettings
  1

  2

  4

  6

 40
0.0
 41
0.0
 42
0.0
 43
0.0
 44
0.0
 45
0.0
 46
0.0
 47
0.0
 48
0.0
 49
0.0
140
0.0
141
0.0
142
1.0
143
1.0
 70
  1712
 72
     0
 73
     0
 74
     0
  7

 75
     0
147
1.0
148
0.0
149
0.0
100
AcDbLayout
  1
Model
 70
     1
 71
     0
 10
0.0
 20
0.0
 11
0.0
 21
0.0
 12
0.0
 22
0.0
 32
0.0
 14
0.0
 24
0.0
 34
0.0
 15
0.0
 25
0.0
 35
0.0
146
0.0
 13
0.0
 23
0.0
 33
0.0
 16
1.0
 26
0.0
 36
0.0
 17
0.0
 27
1.0
 37
0.0
 76
     0
330
1F
331
29
  0
LAYOUT
  5
1E
102
{ACAD_XDICTIONARY
360
517
102
}
102
{ACAD_REACTORS
330
1A
102
}
330
1A
100
AcDbPlotSettings
  1

  2

  4

  6

 40
0.0
 41
0.0
 42
0.0
 43
0.0
 44
0.0
 45
0.0
 46
0.0
 47
0.0
 48
0.0
 49
0.0
140
0.0
141
0.0
142
1.0
143
1.0
 70
   688
 72
     0
 73
     0
 74
     5
  7

 75
    16
147
1.0
148
0.0
149
0.0
100
AcDbLayout
  1
ﾚｲｱｳﾄ1
 70
     1
 71
     1
 10
0.0
 20
0.0
 11
0.0
 21
0.0
 12
0.0
 22
0.0
 32
0.0
 14
1.000000000000000E+20
 24
1.000000000000000E+20
 34
1.000000000000000E+20
 15
-1.000000000000000E+20
 25
-1.000000000000000E+20
 35
-1.000000000000000E+20
146
0.0
 13
0.0
 23
0.0
 33
0.0
 16
1.0
 26
0.0
 36
0.0
 17
0.0
 27
1.0
 37
0.0
 76
     0
330
1B
  0
LAYOUT
  5
26
102
{ACAD_XDICTIONARY
360
51B
102
}
102
{ACAD_REACTORS
330
1A
102
}
330
1A
100
AcDbPlotSettings
  1

  2

  4

  6

 40
0.0
 41
0.0
 42
0.0
 43
0.0
 44
0.0
 45
0.0
 46
0.0
 47
0.0
 48
0.0
 49
0.0
140
0.0
141
0.0
142
1.0
143
1.0
 70
   688
 72
     0
 73
     0
 74
     5
  7

 75
    16
147
1.0
148
0.0
149
0.0
100
AcDbLayout
  1
ﾚｲｱｳﾄ2
 70
     1
 71
     2
 10
0.0
 20
0.0
 11
0.0
 21
0.0
 12
0.0
 22
0.0
 32
0.0
 14
0.0
 24
0.0
 34
0.0
 15
0.0
 25
0.0
 35
0.0
146
0.0
 13
0.0
 23
0.0
 33
0.0
 16
1.0
 26
0.0
 36
0.0
 17
0.0
 27
1.0
 37
0.0
 76
     0
330
23
  0
MATERIAL
  5
4F3
102
{ACAD_XDICTIONARY
360
51F
102
}
102
{ACAD_REACTORS
330
4F1
102
}
330
4F1
100
AcDbMaterial
  1
ByBlock
  0
MATERIAL
  5
4F2
102
{ACAD_XDICTIONARY
360
51D
102
}
102
{ACAD_REACTORS
330
4F1
102
}
330
4F1
100
AcDbMaterial
  1
ByLayer
  0
MATERIAL
  5
4F4
102
{ACAD_XDICTIONARY
360
521
102
}
102
{ACAD_REACTORS
330
4F1
102
}
330
4F1
100
AcDbMaterial
  1
Global
  0
MLINESTYLE
  5
18
102
{ACAD_REACTORS
330
17
102
}
330
17
100
AcDbMlineStyle
  2
STANDARD
 70
     0
  3

 62
   256
 51
90.0
 52
90.0
 71
     2
 49
0.5
 62
   256
  6
BYLAYER
 49
-0.5
 62
   256
  6
BYLAYER
  0
ACDBPLACEHOLDER
  5
F
102
{ACAD_REACTORS
330
E
102
}
330
E
  0
TABLESTYLE
  5
508
102
{ACAD_XDICTIONARY
360
523
102
}
102
{ACAD_REACTORS
330
507
102
}
330
507
100
AcDbTableStyle
  3
Standard
 70
     0
 71
     0
 40
1.5
 41
1.5
280
     0
281
     0
  7
Standard
140
4.5
170
     2
 62
     0
 63
     7
283
     0
274
    -2
284
     1
 64
     0
275
    -2
285
     1
 65
     0
276
    -2
286
     1
 66
     0
277
    -2
287
     1
 67
     0
278
    -2
288
     1
 68
     0
279
    -2
289
     1
 69
     0
  7
Standard
140
6.0
170
     5
 62
     0
 63
     7
283
     0
274
    -2
284
     1
 64
     0
275
    -2
285
     1
 65
     0
276
    -2
286
     1
 66
     0
277
    -2
287
     1
 67
     0
278
    -2
288
     1
 68
     0
279
    -2
289
     1
 69
     0
  7
Standard
140
4.5
170
     5
 62
     0
 63
     7
283
     0
274
    -2
284
     1
 64
     0
275
    -2
285
     1
 65
     0
276
    -2
286
     1
 66
     0
277
    -2
287
     1
 67
     0
278
    -2
288
     1
 68
     0
279
    -2
289
     1
 69
     0
  0
VISUALSTYLE
  5
4FB
102
{ACAD_REACTORS
330
4F5
102
}
330
4F5
100
AcDbVisualStyle
  2
2dWireframe
 70
     4
 71
     0
 72
     2
 73
     0
 90
        0
 40
-0.6
 41
-30.0
 62
     5
 63
     7
 74
     1
 91
        4
 64
     7
 65
   257
 75
     1
175
     1
 42
1.0
 92
        0
 66
   257
 43
1.0
 76
     1
 77
     6
 78
     2
 67
     7
 79
     5
170
     0
171
     0
290
     0
174
     0
 93
        1
 44
0.0
173
     0
291
     0
 45
0.0
1001
ACAD
1000
AcDbSavedByObjectVersion
1070
     0
  0
VISUALSTYLE
  5
4FD
102
{ACAD_REACTORS
330
4F5
102
}
330
4F5
100
AcDbVisualStyle
  2
3D Hidden
 70
     6
 71
     1
 72
     2
 73
     2
 90
        0
 40
-0.6
 41
-30.0
 62
     5
 63
     7
 74
     2
 91
        2
 64
     7
 65
   257
 75
     2
175
     1
 42
40.0
 92
        0
 66
   257
 43
1.0
 76
     1
 77
     6
 78
     2
 67
     7
 79
     3
170
     0
171
     0
290
     0
174
     0
 93
        1
 44
0.0
173
     0
291
     0
 45
0.0
1001
ACAD
1000
AcDbSavedByObjectVersion
1070
     0
  0
VISUALSTYLE
  5
4FC
102
{ACAD_REACTORS
330
4F5
102
}
330
4F5
100
AcDbVisualStyle
  2
3dWireframe
 70
     5
 71
     0
 72
     2
 73
     0
 90
        0
 40
-0.6
 41
-30.0
 62
     5
 63
     7
 74
     1
 91
        4
 64
     7
 65
   257
 75
     1
175
     1
 42
1.0
 92
        0
 66
   257
 43
1.0
 76
     1
 77
     6
 78
     2
 67
     7
 79
     5
170
     0
171
     0
290
     0
174
     0
 93
        1
 44
0.0
173
     0
291
     0
 45
0.0
1001
ACAD
1000
AcDbSavedByObjectVersion
1070
     0
  0
VISUALSTYLE
  5
4FA
102
{ACAD_REACTORS
330
4F5
102
}
330
4F5
100
AcDbVisualStyle
  2
Basic
 70
     7
 71
     1
 72
     0
 73
     1
 90
        0
 40
-0.6
 41
-30.0
 62
     5
 63
     7
 74
     0
 91
        4
 64
     7
 65
   257
 75
     1
175
     1
 42
1.0
 92
        8
 66
     7
 43
1.0
 76
     1
 77
     6
 78
     2
 67
     7
 79
     5
170
     0
171
     0
290
     0
174
     0
 93
        1
 44
0.0
173
     0
291
     1
 45
0.0
1001
ACAD
1000
AcDbSavedByObjectVersion
1070
     0
  0
VISUALSTYLE
  5
501
102
{ACAD_REACTORS
330
4F5
102
}
330
4F5
100
AcDbVisualStyle
  2
Brighten
 70
    12
 71
     2
 72
     2
 73
     0
 90
        0
 40
-0.6
 41
-30.0
 62
     5
 63
     7
 74
     1
 91
        4
 64
     7
 65
   257
 75
     1
175
     1
 42
1.0
 92
        8
 66
     7
 43
1.0
 76
     1
 77
     6
 78
     2
 67
     7
 79
     5
170
     0
171
     0
290
     0
174
     0
 93
        1
 44
50.0
173
     0
291
     1
 45
0.0
1001
ACAD
1000
AcDbSavedByObjectVersion
1070
     0
  0
VISUALSTYLE
  5
505
102
{ACAD_REACTORS
330
4F5
102
}
330
4F5
100
AcDbVisualStyle
  2
ColorChange
 70
    16
 71
     2
 72
     2
 73
     3
 90
        0
 40
-0.6
 41
-30.0
 62
     5
 63
     8
 74
     1
 91
        4
 64
     7
 65
   257
 75
     1
175
     1
 42
1.0
 92
        8
 66
     8
 43
1.0
 76
     1
 77
     6
 78
     2
 67
     7
 79
     5
170
     0
171
     0
290
     0
174
     0
 93
        1
 44
0.0
173
     0
291
     1
 45
0.0
1001
ACAD
1000
AcDbSavedByObjectVersion
1070
     0
  0
VISUALSTYLE
  5
4FE
102
{ACAD_REACTORS
330
4F5
102
}
330
4F5
100
AcDbVisualStyle
  2
Conceptual
 70
     9
 71
     3
 72
     2
 73
     0
 90
        0
 40
-0.6
 41
-30.0
 62
     5
 63
     7
 74
     2
 91
        2
 64
     7
 65
   257
 75
     1
175
     1
 42
40.0
 92
        8
 66
     7
 43
1.0
 76
     1
 77
     6
 78
     2
 67
     7
 79
     3
170
     0
171
     0
290
     0
174
     0
 93
        1
 44
0.0
173
     0
291
     0
 45
0.0
1001
ACAD
1000
AcDbSavedByObjectVersion
1070
     0
  0
VISUALSTYLE
  5
500
102
{ACAD_REACTORS
330
4F5
102
}
330
4F5
100
AcDbVisualStyle
  2
Dim
 70
    11
 71
     2
 72
     2
 73
     0
 90
        0
 40
-0.6
 41
-30.0
 62
     5
 63
     7
 74
     1
 91
        4
 64
     7
 65
   257
 75
     1
175
     1
 42
1.0
 92
        8
 66
     7
 43
1.0
 76
     1
 77
     6
 78
     2
 67
     7
 79
     5
170
     0
171
     0
290
     0
174
     0
 93
        1
 44
-50.0
173
     0
291
     1
 45
0.0
1001
ACAD
1000
AcDbSavedByObjectVersion
1070
     0
  0
VISUALSTYLE
  5
504
102
{ACAD_REACTORS
330
4F5
102
}
330
4F5
100
AcDbVisualStyle
  2
Facepattern
 70
    15
 71
     2
 72
     2
 73
     0
 90
        0
 40
-0.6
 41
-30.0
 62
     5
 63
     7
 74
     1
 91
        4
 64
     7
 65
   257
 75
     1
175
     1
 42
1.0
 92
        8
 66
     7
 43
1.0
 76
     1
 77
     6
 78
     2
 67
     7
 79
     5
170
     0
171
     0
290
     0
174
     0
 93
        1
 44
0.0
173
     0
291
     1
 45
0.0
1001
ACAD
1000
AcDbSavedByObjectVersion
1070
     0
  0
VISUALSTYLE
  5
4F6
102
{ACAD_REACTORS
330
4F5
102
}
330
4F5
100
AcDbVisualStyle
  2
Flat
 70
     0
 71
     2
 72
     1
 73
     1
 90
        2
 40
-0.6
 41
30.0
 62
     5
 63
     7
 74
     0
 91
        4
 64
     7
 65
   257
 75
     1
175
     1
 42
1.0
 92
        8
 66
     7
 43
1.0
 76
     1
 77
     6
 78
     2
 67
     7
 79
     5
170
     0
171
     0
290
     0
174
     0
 93
       13
 44
0.0
173
     0
291
     1
 45
0.0
1001
ACAD
1000
AcDbSavedByObjectVersion
1070
     0
  0
VISUALSTYLE
  5
4F7
102
{ACAD_REACTORS
330
4F5
102
}
330
4F5
100
AcDbVisualStyle
  2
FlatWithEdges
 70
     1
 71
     2
 72
     1
 73
     1
 90
        2
 40
-0.6
 41
30.0
 62
     5
 63
     7
 74
     1
 91
        4
 64
     7
 65
   257
 75
     1
175
     1
 42
1.0
 92
        0
 66
   257
 43
1.0
 76
     1
 77
     6
 78
     2
 67
     7
 79
     5
170
     0
171
     0
290
     0
174
     0
 93
       13
 44
0.0
173
     0
291
     1
 45
0.0
1001
ACAD
1000
AcDbSavedByObjectVersion
1070
     0
  0
VISUALSTYLE
  5
4F8
102
{ACAD_REACTORS
330
4F5
102
}
330
4F5
100
AcDbVisualStyle
  2
Gouraud
 70
     2
 71
     2
 72
     2
 73
     1
 90
        2
 40
-0.6
 41
30.0
 62
     5
 63
     7
 74
     0
 91
        4
 64
     7
 65
   257
 75
     1
175
     1
 42
1.0
 92
        0
 66
     7
 43
1.0
 76
     1
 77
     6
 78
     2
 67
     7
 79
     5
170
     0
171
     0
290
     0
174
     0
 93
       13
 44
0.0
173
     0
291
     1
 45
0.0
1001
ACAD
1000
AcDbSavedByObjectVersion
1070
     0
  0
VISUALSTYLE
  5
4F9
102
{ACAD_REACTORS
330
4F5
102
}
330
4F5
100
AcDbVisualStyle
  2
GouraudWithEdges
 70
     3
 71
     2
 72
     2
 73
     1
 90
        2
 40
-0.6
 41
30.0
 62
     5
 63
     7
 74
     1
 91
        4
 64
     7
 65
   257
 75
     1
175
     1
 42
1.0
 92
        0
 66
   257
 43
1.0
 76
     1
 77
     6
 78
     2
 67
     7
 79
     5
170
     0
171
     0
290
     0
174
     0
 93
       13
 44
0.0
173
     0
291
     1
 45
0.0
1001
ACAD
1000
AcDbSavedByObjectVersion
1070
     0
  0
VISUALSTYLE
  5
503
102
{ACAD_REACTORS
330
4F5
102
}
330
4F5
100
AcDbVisualStyle
  2
Linepattern
 70
    14
 71
     2
 72
     2
 73
     0
 90
        0
 40
-0.6
 41
-30.0
 62
     5
 63
     7
 74
     1
 91
        4
 64
     7
 65
   257
 75
     7
175
     7
 42
1.0
 92
        8
 66
     7
 43
1.0
 76
     1
 77
     6
 78
     2
 67
     7
 79
     5
170
     0
171
     0
290
     0
174
     0
 93
        1
 44
0.0
173
     0
291
     1
 45
0.0
1001
ACAD
1000
AcDbSavedByObjectVersion
1070
     0
  0
VISUALSTYLE
  5
4FF
102
{ACAD_REACTORS
330
4F5
102
}
330
4F5
100
AcDbVisualStyle
  2
Realistic
 70
     8
 71
     2
 72
     2
 73
     0
 90
        0
 40
-0.6
 41
-30.0
 62
     5
 63
     7
 74
     1
 91
        0
 64
     7
 65
   257
 75
     1
175
     1
 42
1.0
 92
        8
 66
     8
 43
1.0
 76
     1
 77
     6
 78
     2
 67
     7
 79
     5
170
     0
171
     0
290
     0
174
     0
 93
       13
 44
0.0
173
     0
291
     0
 45
0.0
1001
ACAD
1000
AcDbSavedByObjectVersion
1070
     0
  0
VISUALSTYLE
  5
502
102
{ACAD_REACTORS
330
4F5
102
}
330
4F5
100
AcDbVisualStyle
  2
Thicken
 70
    13
 71
     2
 72
     2
 73
     0
 90
        0
 40
-0.6
 41
-30.0
 62
     5
 63
     7
 74
     1
 91
        4
 64
     7
 65
   257
 75
     1
175
     1
 42
1.0
 92
       12
 66
     7
 43
1.0
 76
     1
 77
     6
 78
     2
 67
     7
 79
     5
170
     0
171
     0
290
     0
174
     0
 93
        1
 44
0.0
173
     0
291
     1
 45
0.0
1001
ACAD
1000
AcDbSavedByObjectVersion
1070
     0
  0
DICTIONARYVAR
  5
512
102
{ACAD_REACTORS
330
511
102
}
330
511
100
DictionaryVariables
280
     0
  1
STANDARD
  0
DICTIONARYVAR
  5
515
102
{ACAD_REACTORS
330
511
102
}
330
511
100
DictionaryVariables
280
     0
  1
1
  0
DICTIONARYVAR
  5
514
102
{ACAD_REACTORS
330
511
102
}
330
511
100
DictionaryVariables
280
     0
  1
0
  0
DICTIONARYVAR
  5
513
102
{ACAD_REACTORS
330
511
102
}
330
511
100
DictionaryVariables
280
     0
  1
127
  0
DICTIONARY
  5
519
330
22
100
AcDbDictionary
280
     1
281
     1
  3
ACAD_XREC_ROUNDTRIP
360
51A
  0
DICTIONARY
  5
517
330
1E
100
AcDbDictionary
280
     1
281
     1
  3
ACAD_XREC_ROUNDTRIP
360
518
  0
DICTIONARY
  5
51B
330
26
100
AcDbDictionary
280
     1
281
     1
  3
ACAD_XREC_ROUNDTRIP
360
51C
  0
DICTIONARY
  5
51F
330
4F3
100
AcDbDictionary
280
     1
281
     1
  3
ACAD_XREC_ROUNDTRIP
360
520
  0
DICTIONARY
  5
51D
330
4F2
100
AcDbDictionary
280
     1
281
     1
  3
ACAD_XREC_ROUNDTRIP
360
51E
  0
DICTIONARY
  5
521
330
4F4
100
AcDbDictionary
280
     1
281
     1
  3
ACAD_XREC_ROUNDTRIP
360
522
  0
DICTIONARY
  5
523
330
508
100
AcDbDictionary
280
     1
281
     1
  3
ACAD_XREC_ROUNDTRIP
360
524
  0
XRECORD
  5
51A
102
{ACAD_REACTORS
330
519
102
}
330
519
100
AcDbXrecord
280
     1
102
SHADEPLOT
 70
     0
102
SHADEPLOTRESLEVEL
 70
     2
102
SHADEPLOTCUSTOMDPI
 70
   300
  0
XRECORD
  5
518
102
{ACAD_REACTORS
330
517
102
}
330
517
100
AcDbXrecord
280
     1
102
SHADEPLOT
 70
     0
102
SHADEPLOTRESLEVEL
 70
     2
102
SHADEPLOTCUSTOMDPI
 70
   300
  0
XRECORD
  5
51C
102
{ACAD_REACTORS
330
51B
102
}
330
51B
100
AcDbXrecord
280
     1
102
SHADEPLOT
 70
     0
102
SHADEPLOTRESLEVEL
 70
     2
102
SHADEPLOTCUSTOMDPI
 70
   300
  0
XRECORD
  5
520
102
{ACAD_REACTORS
330
51F
102
}
330
51F
100
AcDbXrecord
280
     1
102
MATERIAL
148
0.0
149
0.0
149
0.0
 93
        0
 94
       63
282
     0
 72
     1
 77
     1
171
     1
175
     1
179
     1
273
     0
  0
XRECORD
  5
51E
102
{ACAD_REACTORS
330
51D
102
}
330
51D
100
AcDbXrecord
280
     1
102
MATERIAL
148
0.0
149
0.0
149
0.0
 93
        0
 94
       63
282
     0
 72
     1
 77
     1
171
     1
175
     1
179
     1
273
     0
  0
XRECORD
  5
522
102
{ACAD_REACTORS
330
521
102
}
330
521
100
AcDbXrecord
280
     1
102
MATERIAL
148
0.0
149
0.0
149
0.0
 93
        0
 94
       63
282
     0
 72
     1
 77
     1
171
     1
175
     1
179
     1
273
     0
  0
XRECORD
  5
524
102
{ACAD_REACTORS
330
523
102
}
330
523
100
AcDbXrecord
280
     1
102
ACAD_ROUNDTRIP_PRE2007_TABLESTYLE
 90
      512
 91
        0
  1

 92
      512
 93
        0
  2

 94
      512
 95
        0
  3

  0
ENDSEC
  0
EOF
