  0
SECTION
  2
HEADER
  9
$ACADVER
  1
AC1015
  9
$ACADMAINTVER
 70
    20
  9
$DWGCODEPAGE
  3
ANSI_932
  9
$INSBASE
 10
0.0
 20
0.0
 30
0.0
  9
$EXTMIN
 10
12227.15900334154
 20
-5546.164613501805
 30
-0.0015258207003583
  9
$EXTMAX
 10
18428.89278296875
 20
2734.420847341939
 30
0.0000000349246037
  9
$LIMMIN
 10
0.0
 20
0.0
  9
$LIMMAX
 10
420.0
 20
297.0
  9
$ORTHOMODE
 70
     1
  9
$REGENMODE
 70
     1
  9
$FILLMODE
 70
     1
  9
$QTEXTMODE
 70
     0
  9
$MIRRTEXT
 70
     1
  9
$LTSCALE
 40
1.0
  9
$ATTMODE
 70
     1
  9
$TEXTSIZE
 40
2.5
  9
$TRACEWID
 40
1.0
  9
$TEXTSTYLE
  7
Standard
  9
$CLAYER
  8
1
  9
$CELTYPE
  6
ByLayer
  9
$CECOLOR
 62
   256
  9
$CELTSCALE
 40
1.0
  9
$DISPSILH
 70
     0
  9
$DIMSCALE
 40
1.0
  9
$DIMASZ
 40
12.5
  9
$DIMEXO
 40
0.0
  9
$DIMDLI
 40
50.0
  9
$DIMRND
 40
0.0
  9
$DIMDLE
 40
0.0
  9
$DIMEXE
 40
5.0
  9
$DIMTP
 40
0.0
  9
$DIMTM
 40
0.0
  9
$DIMTXT
 40
15.0
  9
$DIMCEN
 40
0.0
  9
$DIMTSZ
 40
0.0
  9
$DIMTOL
 70
     0
  9
$DIMLIM
 70
     0
  9
$DIMTIH
 70
     0
  9
$DIMTOH
 70
     0
  9
$DIMSE1
 70
     0
  9
$DIMSE2
 70
     0
  9
$DIMTAD
 70
     1
  9
$DIMZIN
 70
     8
  9
$DIMBLK
  1
Open
  9
$DIMASO
 70
     1
  9
$DIMSHO
 70
     1
  9
$DIMPOST
  1

  9
$DIMAPOST
  1

  9
$DIMALT
 70
     0
  9
$DIMALTD
 70
     3
  9
$DIMALTF
 40
0.03937007874016
  9
$DIMLFAC
 40
1.0
  9
$DIMTOFL
 70
     1
  9
$DIMTVP
 40
0.0
  9
$DIMTIX
 70
     0
  9
$DIMSOXD
 70
     0
  9
$DIMSAH
 70
     0
  9
$DIMBLK1
  1

  9
$DIMBLK2
  1

  9
$DIMSTYLE
  2
s5
  9
$DIMCLRD
 70
     0
  9
$DIMCLRE
 70
     0
  9
$DIMCLRT
 70
     0
  9
$DIMTFAC
 40
1.0
  9
$DIMGAP
 40
5.0
  9
$DIMJUST
 70
     0
  9
$DIMSD1
 70
     0
  9
$DIMSD2
 70
     0
  9
$DIMTOLJ
 70
     0
  9
$DIMTZIN
 70
     8
  9
$DIMALTZ
 70
     0
  9
$DIMALTTZ
 70
     0
  9
$DIMUPT
 70
     0
  9
$DIMDEC
 70
     2
  9
$DIMTDEC
 70
     2
  9
$DIMALTU
 70
     2
  9
$DIMALTTD
 70
     3
  9
$DIMTXSTY
  7
Standard
  9
$DIMAUNIT
 70
     0
  9
$DIMADEC
 70
     3
  9
$DIMALTRND
 40
0.0
  9
$DIMAZIN
 70
     2
  9
$DIMDSEP
 70
    46
  9
$DIMATFIT
 70
     3
  9
$DIMFRAC
 70
     0
  9
$DIMLDRBLK
  1
Open
  9
$DIMLUNIT
 70
     2
  9
$DIMLWD
 70
    -2
  9
$DIMLWE
 70
    -2
  9
$DIMTMOVE
 70
     0
  9
$LUNITS
 70
     2
  9
$LUPREC
 70
     4
  9
$SKETCHINC
 40
1.0
  9
$FILLETRAD
 40
0.0
  9
$AUNITS
 70
     0
  9
$AUPREC
 70
     0
  9
$MENU
  1
.
  9
$ELEVATION
 40
0.0
  9
$PELEVATION
 40
0.0
  9
$THICKNESS
 40
0.0
  9
$LIMCHECK
 70
     0
  9
$CHAMFERA
 40
1.0
  9
$CHAMFERB
 40
1.0
  9
$CHAMFERC
 40
20.0
  9
$CHAMFERD
 40
0.0
  9
$SKPOLY
 70
     0
  9
$TDCREATE
 40
2452172.781987847
  9
$TDUCREATE
 40
2452172.406987847
  9
$TDUPDATE
 40
2456067.383345984
  9
$TDUUPDATE
 40
2456067.008345984
  9
$TDINDWG
 40
4.2281551273
  9
$TDUSRTIMER
 40
4.2281546412
  9
$USRTIMER
 70
     1
  9
$ANGBASE
 50
0.0
  9
$ANGDIR
 70
     0
  9
$PDMODE
 70
     0
  9
$PDSIZE
 40
0.0
  9
$PLINEWID
 40
0.0
  9
$SPLFRAME
 70
     0
  9
$SPLINETYPE
 70
     6
  9
$SPLINESEGS
 70
    20
  9
$HANDSEED
  5
E4EC
  9
$SURFTAB1
 70
     6
  9
$SURFTAB2
 70
     6
  9
$SURFTYPE
 70
     6
  9
$SURFU
 70
     6
  9
$SURFV
 70
     6
  9
$UCSBASE
  2

  9
$UCSNAME
  2

  9
$UCSORG
 10
0.0
 20
0.0
 30
0.0
  9
$UCSXDIR
 10
1.0
 20
0.0
 30
0.0
  9
$UCSYDIR
 10
0.0
 20
1.0
 30
0.0
  9
$UCSORTHOREF
  2

  9
$UCSORTHOVIEW
 70
     0
  9
$UCSORGTOP
 10
0.0
 20
0.0
 30
0.0
  9
$UCSORGBOTTOM
 10
0.0
 20
0.0
 30
0.0
  9
$UCSORGLEFT
 10
0.0
 20
0.0
 30
0.0
  9
$UCSORGRIGHT
 10
0.0
 20
0.0
 30
0.0
  9
$UCSORGFRONT
 10
0.0
 20
0.0
 30
0.0
  9
$UCSORGBACK
 10
0.0
 20
0.0
 30
0.0
  9
$PUCSBASE
  2

  9
$PUCSNAME
  2

  9
$PUCSORG
 10
0.0
 20
0.0
 30
0.0
  9
$PUCSXDIR
 10
1.0
 20
0.0
 30
0.0
  9
$PUCSYDIR
 10
0.0
 20
1.0
 30
0.0
  9
$PUCSORTHOREF
  2

  9
$PUCSORTHOVIEW
 70
     0
  9
$PUCSORGTOP
 10
0.0
 20
0.0
 30
0.0
  9
$PUCSORGBOTTOM
 10
0.0
 20
0.0
 30
0.0
  9
$PUCSORGLEFT
 10
0.0
 20
0.0
 30
0.0
  9
$PUCSORGRIGHT
 10
0.0
 20
0.0
 30
0.0
  9
$PUCSORGFRONT
 10
0.0
 20
0.0
 30
0.0
  9
$PUCSORGBACK
 10
0.0
 20
0.0
 30
0.0
  9
$USERI1
 70
     0
  9
$USERI2
 70
     0
  9
$USERI3
 70
     0
  9
$USERI4
 70
     0
  9
$USERI5
 70
     0
  9
$USERR1
 40
0.0
  9
$USERR2
 40
0.0
  9
$USERR3
 40
0.0
  9
$USERR4
 40
0.0
  9
$USERR5
 40
0.0
  9
$WORLDVIEW
 70
     1
  9
$SHADEDGE
 70
     3
  9
$SHADEDIF
 70
    70
  9
$TILEMODE
 70
     1
  9
$MAXACTVP
 70
    48
  9
$PINSBASE
 10
0.0
 20
0.0
 30
0.0
  9
$PLIMCHECK
 70
     0
  9
$PEXTMIN
 10
1.000000000000000E+20
 20
1.000000000000000E+20
 30
1.000000000000000E+20
  9
$PEXTMAX
 10
-1.000000000000000E+20
 20
-1.000000000000000E+20
 30
-1.000000000000000E+20
  9
$PLIMMIN
 10
0.0
 20
0.0
  9
$PLIMMAX
 10
420.0
 20
297.0
  9
$UNITMODE
 70
     0
  9
$VISRETAIN
 70
     1
  9
$PLINEGEN
 70
     0
  9
$PSLTSCALE
 70
     1
  9
$TREEDEPTH
 70
  3020
  9
$CMLSTYLE
  2
Standard
  9
$CMLJUST
 70
     0
  9
$CMLSCALE
 40
20.0
  9
$PROXYGRAPHICS
 70
     1
  9
$MEASUREMENT
 70
     1
  9
$CELWEIGHT
370
    -1
  9
$ENDCAPS
280
     0
  9
$JOINSTYLE
280
     0
  9
$LWDISPLAY
290
     0
  9
$INSUNITS
 70
     4
  9
$HYPERLINKBASE
  1

  9
$STYLESHEET
  1
NEC-MW2250全細線.CTB
  9
$XEDIT
290
     1
  9
$CEPSNTYPE
380
     0
  9
$PSTYLEMODE
290
     1
  9
$FINGERPRINTGUID
  2
{4CA2917F-DCE5-4B91-9890-1E1432485FA7}
  9
$VERSIONGUID
  2
{197B0779-79E5-436C-B151-4B9199D1F3FB}
  9
$EXTNAMES
290
     1
  9
$PSVPSCALE
 40
0.0
  9
$OLESTARTUP
290
     0
  0
ENDSEC
  0
SECTION
  2
CLASSES
  0
CLASS
  1
ACDBDICTIONARYWDFLT
  2
AcDbDictionaryWithDefault
  3
ObjectDBX Classes
 90
        0
280
     0
281
     0
  0
CLASS
  1
ACDBPLACEHOLDER
  2
AcDbPlaceHolder
  3
ObjectDBX Classes
 90
        0
280
     0
281
     0
  0
CLASS
  1
LAYOUT
  2
AcDbLayout
  3
ObjectDBX Classes
 90
        0
280
     0
281
     0
  0
CLASS
  1
DICTIONARYVAR
  2
AcDbDictionaryVar
  3
ObjectDBX Classes
 90
        0
280
     0
281
     0
  0
CLASS
  1
TABLESTYLE
  2
AcDbTableStyle
  3
ObjectDBX Classes
 90
     4095
280
     0
281
     0
  0
CLASS
  1
SORTENTSTABLE
  2
AcDbSortentsTable
  3
ObjectDBX Classes
 90
        0
280
     0
281
     0
  0
CLASS
  1
MATERIAL
  2
AcDbMaterial
  3
ObjectDBX Classes
 90
     1024
280
     0
281
     0
  0
CLASS
  1
VISUALSTYLE
  2
AcDbVisualStyle
  3
ObjectDBX Classes
 90
     4095
280
     0
281
     0
  0
ENDSEC
  0
SECTION
  2
TABLES
  0
TABLE
  2
VPORT
  5
8
330
0
100
AcDbSymbolTable
 70
     1
  0
VPORT
  5
E470
330
8
100
AcDbSymbolTableRecord
100
AcDbViewportTableRecord
  2
*Active
 70
     0
 10
0.0
 20
0.0
 11
1.0
 21
1.0
 12
15328.02589315515
 22
-1405.871883079933
 13
0.0
 23
0.0
 14
10.0
 24
10.0
 15
10.0
 25
10.0
 16
0.0
 26
0.0
 36
1.0
 17
0.0
 27
0.0
 37
0.0
 40
8343.555692485141
 41
1.486040609137055
 42
50.0
 43
0.0
 44
0.0
 50
0.0
 51
0.0
 71
     0
 72
  5000
 73
     1
 74
     3
 75
     0
 76
     0
 77
     0
 78
     0
281
     0
 65
     1
110
0.0
120
0.0
130
0.0
111
1.0
121
0.0
131
0.0
112
0.0
122
1.0
132
0.0
 79
     0
146
0.0
  0
ENDTAB
  0
TABLE
  2
LTYPE
  5
5
330
0
100
AcDbSymbolTable
 70
     4
  0
LTYPE
  5
14
330
5
100
AcDbSymbolTableRecord
100
AcDbLinetypeTableRecord
  2
ByBlock
 70
     0
  3

 72
    65
 73
     0
 40
0.0
  0
LTYPE
  5
15
330
5
100
AcDbSymbolTableRecord
100
AcDbLinetypeTableRecord
  2
ByLayer
 70
     0
  3

 72
    65
 73
     0
 40
0.0
  0
LTYPE
  5
16
330
5
100
AcDbSymbolTableRecord
100
AcDbLinetypeTableRecord
  2
Continuous
 70
     0
  3
Solid line
 72
    65
 73
     0
 40
0.0
  0
LTYPE
  5
1DE
330
5
100
AcDbSymbolTableRecord
100
AcDbLinetypeTableRecord
  2
HIDDEN
 70
     0
  3
Hidden __ __ __ __ __ __ __ __ __ __ __ __ __ _
 72
    65
 73
     2
 40
9.524999999999996
 49
6.349999999999997
 74
     0
 49
-3.174999999999998
 74
     0
  0
LTYPE
  5
DDA
330
5
100
AcDbSymbolTableRecord
100
AcDbLinetypeTableRecord
  2
PHANTOM
 70
     0
  3
Phantom ______  __  __  ______  __  __  ______
 72
    65
 73
     6
 40
63.5
 49
31.75
 74
     0
 49
-6.349999999999997
 74
     0
 49
6.349999999999997
 74
     0
 49
-6.349999999999997
 74
     0
 49
6.349999999999997
 74
     0
 49
-6.349999999999997
 74
     0
  0
LTYPE
  5
DDB
330
5
100
AcDbSymbolTableRecord
100
AcDbLinetypeTableRecord
  2
CENTER
 70
     0
  3
Center ____ _ ____ _ ____ _ ____ _ ____ _ ____
 72
    65
 73
     4
 40
50.8
 49
31.75
 74
     0
 49
-6.349999999999997
 74
     0
 49
6.349999999999997
 74
     0
 49
-6.349999999999997
 74
     0
  0
ENDTAB
  0
TABLE
  2
LAYER
  5
2
102
{ACAD_XDICTIONARY
360
E423
102
}
330
0
100
AcDbSymbolTable
 70
     4
  0
LAYER
  5
10
330
2
100
AcDbSymbolTableRecord
100
AcDbLayerTableRecord
  2
0
 70
     0
 62
     7
  6
Continuous
370
    -3
390
F
  0
LAYER
  5
A95
330
2
100
AcDbSymbolTableRecord
100
AcDbLayerTableRecord
  2
skeleton
 70
     0
 62
     7
  6
Continuous
370
    -3
390
F
  0
LAYER
  5
DC0
330
2
100
AcDbSymbolTableRecord
100
AcDbLayerTableRecord
  2
Defpoints
 70
     0
 62
     7
  6
Continuous
290
     0
370
    -3
390
F
  0
LAYER
  5
8439
330
2
100
AcDbSymbolTableRecord
100
AcDbLayerTableRecord
  2
1
 70
     0
 62
     7
  6
Continuous
370
    -3
390
F
1001
AcAecLayerStandard
1000

1000

  0
ENDTAB
  0
TABLE
  2
STYLE
  5
3
330
0
100
AcDbSymbolTable
 70
     2
  0
STYLE
  5
11
330
3
100
AcDbSymbolTableRecord
100
AcDbTextStyleTableRecord
  2
Standard
 70
     0
 40
0.0
 41
1.0
 50
0.0
 71
     0
 42
2.5
  3
romans.shx
  4
extfont.shx
  0
STYLE
  5
DD9
330
3
100
AcDbSymbolTableRecord
100
AcDbTextStyleTableRecord
  2

 70
     1
 40
0.0
 41
1.0
 50
0.0
 71
     0
 42
2.5
  3
ltypeshp.shx
  4

  0
ENDTAB
  0
TABLE
  2
VIEW
  5
6
330
0
100
AcDbSymbolTable
 70
     0
  0
ENDTAB
  0
TABLE
  2
UCS
  5
7
330
0
100
AcDbSymbolTable
 70
     0
  0
ENDTAB
  0
TABLE
  2
APPID
  5
9
330
0
100
AcDbSymbolTable
 70
     4
  0
APPID
  5
12
330
9
100
AcDbSymbolTableRecord
100
AcDbRegAppTableRecord
  2
ACAD
 70
     0
  0
APPID
  5
DA7
330
9
100
AcDbSymbolTableRecord
100
AcDbRegAppTableRecord
  2
ACAD_DSTYLE_DIMTEXT_FILL
 70
     0
  0
APPID
  5
83A7
330
9
100
AcDbSymbolTableRecord
100
AcDbRegAppTableRecord
  2
ACAD_PSEXT
 70
     0
  0
APPID
  5
843A
330
9
100
AcDbSymbolTableRecord
100
AcDbRegAppTableRecord
  2
AcAecLayerStandard
 70
     0
  0
ENDTAB
  0
TABLE
  2
DIMSTYLE
  5
A
330
0
100
AcDbSymbolTable
 70
     6
100
AcDbDimStyleTable
 71
     6
340
2317
340
D95
340
259B
340
2AB9
340
D96
340
27
  0
DIMSTYLE
105
27
330
A
100
AcDbSymbolTableRecord
100
AcDbDimStyleTableRecord
  2
ISO-25
 70
     0
 41
2.5
 42
0.625
 43
3.75
 44
1.25
 73
     0
 74
     0
 77
     1
 78
     8
140
2.5
141
2.5
143
0.03937007874016
147
0.625
171
     3
172
     1
271
     2
272
     2
274
     3
283
     0
284
     8
340
11
  0
DIMSTYLE
105
D95
330
A
100
AcDbSymbolTableRecord
100
AcDbDimStyleTableRecord
  2
s10
 70
     0
 41
25.0
 42
0.0
 43
100.0
 44
10.0
 73
     0
 74
     0
 77
     1
 78
     8
 79
     2
140
30.0
141
0.0
143
0.03937007874016
147
10.0
171
     3
172
     1
179
     3
271
     2
272
     2
274
     3
283
     0
284
     8
340
11
341
D8F
342
D8F
  0
DIMSTYLE
105
D96
330
A
100
AcDbSymbolTableRecord
100
AcDbDimStyleTableRecord
  2
s20
 70
     0
 41
50.0
 42
0.0
 43
200.0
 44
20.0
 73
     0
 74
     0
 77
     1
 78
     8
 79
     2
140
60.0
141
0.0
143
0.03937007874016
147
20.0
171
     3
172
     1
179
     3
271
     3
272
     3
274
     3
283
     0
284
     8
340
11
341
D8F
342
D8F
  0
DIMSTYLE
105
2317
330
A
100
AcDbSymbolTableRecord
100
AcDbDimStyleTableRecord
  2
s5
 70
     0
 41
12.5
 42
0.0
 43
50.0
 44
5.0
 73
     0
 74
     0
 77
     1
 78
     8
 79
     2
140
15.0
141
0.0
143
0.03937007874016
147
5.0
171
     3
172
     1
179
     3
271
     2
272
     2
274
     3
283
     0
284
     8
340
11
341
D8F
342
D8F
  0
DIMSTYLE
105
259B
330
A
100
AcDbSymbolTableRecord
100
AcDbDimStyleTableRecord
  2
s2
 70
     0
 41
5.0
 42
0.0
 43
20.0
 44
2.0
 73
     0
 74
     0
 77
     1
 78
     8
 79
     2
140
6.0
141
0.0
143
0.03937007874016
147
2.0
171
     3
172
     1
179
     3
271
     2
272
     2
274
     3
283
     0
284
     8
340
11
341
D8F
342
D8F
  0
DIMSTYLE
105
2AB9
330
A
100
AcDbSymbolTableRecord
100
AcDbDimStyleTableRecord
  2
s1
 70
     0
 41
2.5
 42
0.0
 43
10.0
 44
1.0
 73
     0
 74
     0
 77
     1
 78
     8
 79
     2
140
3.0
141
0.0
143
0.03937007874016
147
1.0
171
     3
172
     1
179
     3
271
     2
272
     2
274
     3
283
     0
284
     8
340
11
341
D8F
342
D8F
  0
ENDTAB
  0
TABLE
  2
BLOCK_RECORD
  5
1
330
0
100
AcDbSymbolTable
 70
     2
  0
BLOCK_RECORD
  5
1F
102
{ACAD_XDICTIONARY
360
DF
102
}
330
1
100
AcDbSymbolTableRecord
100
AcDbBlockTableRecord
  2
*Model_Space
340
22
  0
BLOCK_RECORD
  5
1B
102
{ACAD_XDICTIONARY
360
E1
102
}
330
1
100
AcDbSymbolTableRecord
100
AcDbBlockTableRecord
  2
*Paper_Space
340
1E
  0
BLOCK_RECORD
  5
23
102
{ACAD_XDICTIONARY
360
E3
102
}
330
1
100
AcDbSymbolTableRecord
100
AcDbBlockTableRecord
  2
*Paper_Space0
340
26
  0
BLOCK_RECORD
  5
D8F
330
1
100
AcDbSymbolTableRecord
100
AcDbBlockTableRecord
  2
_Open
340
0
  0
ENDTAB
  0
ENDSEC
  0
SECTION
  2
BLOCKS
  0
BLOCK
  5
20
330
1F
100
AcDbEntity
  8
0
100
AcDbBlockBegin
  2
*Model_Space
 70
     0
 10
0.0
 20
0.0
 30
0.0
  3
*Model_Space
  1

  0
ENDBLK
  5
21
330
1F
100
AcDbEntity
  8
0
100
AcDbBlockEnd
  0
BLOCK
  5
1C
330
1B
100
AcDbEntity
 67
     1
  8
0
100
AcDbBlockBegin
  2
*Paper_Space
 70
     0
 10
0.0
 20
0.0
 30
0.0
  3
*Paper_Space
  1

  0
ENDBLK
  5
1D
330
1B
100
AcDbEntity
 67
     1
  8
0
100
AcDbBlockEnd
  0
BLOCK
  5
24
330
23
100
AcDbEntity
 67
     1
  8
0
100
AcDbBlockBegin
  2
*Paper_Space0
 70
     0
 10
0.0
 20
0.0
 30
0.0
  3
*Paper_Space0
  1

  0
ENDBLK
  5
25
330
23
100
AcDbEntity
 67
     1
  8
0
100
AcDbBlockEnd
  0
BLOCK
  5
D90
330
D8F
100
AcDbEntity
  8
0
100
AcDbBlockBegin
  2
_Open
 70
     0
 10
0.0
 20
0.0
 30
0.0
  3
_Open
  1

  0
LINE
  5
D91
330
D8F
100
AcDbEntity
  8
0
  6
ByBlock
 62
     0
370
    -2
100
AcDbLine
 10
-1.0
 20
0.1666666666666666
 30
0.0
 11
0.0
 21
0.0
 31
0.0
  0
LINE
  5
D92
330
D8F
100
AcDbEntity
  8
0
  6
ByBlock
 62
     0
370
    -2
100
AcDbLine
 10
-1.0
 20
-0.1666666666666666
 30
0.0
 11
0.0
 21
0.0
 31
0.0
  0
LINE
  5
D93
330
D8F
100
AcDbEntity
  8
0
  6
ByBlock
 62
     0
370
    -2
100
AcDbLine
 10
0.0
 20
0.0
 30
0.0
 11
-1.0
 21
0.0
 31
0.0
  0
ENDBLK
  5
D94
330
D8F
100
AcDbEntity
  8
0
100
AcDbBlockEnd
  0
ENDSEC
  0
SECTION
  2
ENTITIES
  0
LINE
  5
1B4
330
1F
100
AcDbEntity
  8
1
  6
HIDDEN
 48
0.5
100
AcDbLine
 10
12582.90041664996
 20
2372.517321746548
 30
0.0
 11
12606.90041664995
 21
2372.517321746548
 31
0.0
  0
LINE
  5
1F5
330
1F
100
AcDbEntity
  8
1
  6
HIDDEN
 48
0.5
100
AcDbLine
 10
13181.53731990557
 20
2374.717321746547
 30
0.0
 11
13207.53731990557
 21
2374.71732174655
 31
0.0
  0
LINE
  5
255
330
1F
100
AcDbEntity
  8
1
100
AcDbLine
 10
13809.83384332011
 20
2422.617321746548
 30
0.0
 11
13809.83384332011
 21
2304.617321746547
 31
0.0
  0
LINE
  5
25E
330
1F
100
AcDbEntity
  8
1
  6
HIDDEN
 48
0.5
100
AcDbLine
 10
13791.83384332011
 20
2377.467321746546
 30
0.0
 11
13819.83384332011
 21
2377.467321746548
 31
0.0
  0
LINE
  5
28A
330
1F
100
AcDbEntity
  8
1
100
AcDbLine
 10
14469.72277640145
 20
2427.617321746548
 30
0.0
 11
14469.72277640145
 21
2299.617321746547
 31
0.0
  0
LINE
  5
292
330
1F
100
AcDbEntity
  8
1
  6
HIDDEN
 48
0.5
100
AcDbLine
 10
14479.72277640145
 20
2380.867321746546
 30
0.0
 11
14449.72277640145
 21
2380.867321746547
 31
0.0
  0
LINE
  5
2B1
330
1F
100
AcDbEntity
  8
1
100
AcDbLine
 10
15160.89619705297
 20
2432.617321746547
 30
0.0
 11
15160.89619705295
 21
2294.617321746546
 31
0.0
  0
LINE
  5
2E7
330
1F
100
AcDbEntity
  8
1
100
AcDbLine
 10
15865.37750074981
 20
2442.617321746548
 30
0.0
 11
15865.37750074981
 21
2284.617321746548
 31
0.0
  0
LINE
  5
348
330
1F
100
AcDbEntity
  8
1
100
AcDbLine
 10
17305.57539029401
 20
2462.617321746548
 30
0.0
 11
17305.57539029401
 21
2264.617321746547
 31
0.0
  0
LINE
  5
37A
330
1F
100
AcDbEntity
  8
1
100
AcDbLine
 10
18108.07202643633
 20
2467.617321746548
 30
0.0
 11
18108.07202643634
 21
2259.617321746547
 31
0.0
  0
LINE
  5
421
330
1F
100
AcDbEntity
  8
1
100
AcDbLine
 10
13488.71670296303
 20
2057.321890976124
 30
0.0
 11
13488.71670296304
 21
1819.321890976124
 31
0.0
  0
LINE
  5
45B
330
1F
100
AcDbEntity
  8
1
100
AcDbLine
 10
14215.09236465124
 20
2074.821890976124
 30
0.0
 11
14215.09236465124
 21
1801.821890976123
 31
0.0
  0
LINE
  5
491
330
1F
100
AcDbEntity
  8
1
100
AcDbLine
 10
15015.17747254154
 20
2099.821890976125
 30
0.0
 11
15015.17747254153
 21
1776.821890976123
 31
0.0
  0
LINE
  5
4C7
330
1F
100
AcDbEntity
  8
1
100
AcDbLine
 10
16623.40137970335
 20
2123.321890976123
 30
0.0
 11
16623.40137970333
 21
1753.321890976123
 31
0.0
  0
LINE
  5
504
330
1F
100
AcDbEntity
  8
1
100
AcDbLine
 10
18304.3188423791
 20
2163.321890976124
 30
0.0
 11
18304.31884237909
 21
1713.321890976123
 31
0.0
  0
LINE
  5
543
330
1F
100
AcDbEntity
  8
1
100
AcDbLine
 10
12921.67124920778
 20
1455.119440937449
 30
0.0
 11
12921.67124920778
 21
942.1194409374464
 31
0.0
  0
LINE
  5
71F
330
1F
100
AcDbEntity
  8
1
100
AcDbLine
 10
12598.90041664996
 20
2309.61732174655
 30
0.0
 11
12598.90041664996
 21
2417.617321746547
 31
0.0
  0
LINE
  5
729
330
1F
100
AcDbEntity
  8
1
100
AcDbLine
 10
12597.90041664996
 20
2418.617321746547
 30
0.0
 11
12583.90041664996
 21
2418.617321746547
 31
0.0
  0
LINE
  5
77E
330
1F
100
AcDbEntity
  8
1
100
AcDbLine
 10
15159.89619705297
 20
2433.617321746547
 30
0.0
 11
15140.89619705296
 21
2433.617321746548
 31
0.0
  0
LINE
  5
7E2
330
1F
100
AcDbEntity
  8
1
100
AcDbLine
 10
16563.59951346258
 20
2446.117321746547
 30
0.0
 11
16544.59951346258
 21
2446.117321746547
 31
0.0
  0
LINE
  5
B24
330
1F
100
AcDbEntity
  8
1
  6
HIDDEN
 48
0.5
100
AcDbLine
 10
17279.57539029401
 20
2402.167321746548
 30
0.0
 11
17319.57539029401
 21
2402.167321746548
 31
0.0
  0
LINE
  5
B29
330
1F
100
AcDbEntity
  8
1
  6
HIDDEN
100
AcDbLine
 10
13456.71670296303
 20
1996.021890976123
 30
0.0
 11
13504.71670296304
 21
1996.021890976123
 31
0.0
  0
LINE
  5
CBC
330
1F
100
AcDbEntity
  8
1
  6
PHANTOM
 48
0.5
100
AcDbLine
 10
12582.90041664996
 20
2372.267321746548
 30
0.0
 11
12631.90041664996
 21
2372.267321746548
 31
0.0
  0
LINE
  5
CBE
330
1F
100
AcDbEntity
  8
1
  6
PHANTOM
 48
0.5
100
AcDbLine
 10
13181.53731990557
 20
2374.467321746548
 30
0.0
 11
13230.53731990557
 21
2374.467321746548
 31
0.0
  0
LINE
  5
CCB
330
1F
100
AcDbEntity
  8
1
  6
PHANTOM
 48
0.5
100
AcDbLine
 10
13791.83384332011
 20
2377.217321746547
 30
0.0
 11
13841.83384332011
 21
2377.217321746546
 31
0.0
  0
LINE
  5
CCF
330
1F
100
AcDbEntity
  8
1
  6
PHANTOM
 48
0.5
100
AcDbLine
 10
14449.72277640145
 20
2380.617321746547
 30
0.0
 11
14511.72277640145
 21
2380.617321746547
 31
0.0
  0
LINE
  5
CF1
330
1F
100
AcDbEntity
  8
1
  6
PHANTOM
 48
0.5
100
AcDbLine
 10
17279.57539029401
 20
2401.767321746548
 30
0.0
 11
17345.57539029401
 21
2401.767321746548
 31
0.0
  0
LINE
  5
CFC
330
1F
100
AcDbEntity
  8
1
  6
PHANTOM
 48
0.5
100
AcDbLine
 10
18080.07202643634
 20
2408.167321746548
 30
0.0
 11
18144.07202643634
 21
2408.167321746548
 31
0.0
  0
LINE
  5
D07
330
1F
100
AcDbEntity
  8
1
  6
PHANTOM
100
AcDbLine
 10
13456.71670296303
 20
1995.471890976124
 30
0.0
 11
13542.71670296304
 21
1995.471890976124
 31
0.0
  0
LINE
  5
1E9E
330
1F
100
AcDbEntity
  8
1
  6
CENTER
 48
2.0
100
AcDbLine
 10
14063.73813726077
 20
1198.619440937447
 30
0.0
 11
14718.73813726077
 21
1198.619440937447
 31
0.0
  0
LINE
  5
1EC9
330
1F
100
AcDbEntity
  8
1
  6
CENTER
 48
2.0
100
AcDbLine
 10
14391.23813726077
 20
871.1194409374474
 30
0.0
 11
14391.23813726077
 21
1526.119440937447
 31
0.0
  0
LINE
  5
1FB9
330
1F
100
AcDbEntity
  8
1
  6
CENTER
 48
2.0
100
AcDbLine
 10
13095.07801944912
 20
1198.619440937447
 30
0.0
 11
13675.07801944912
 21
1198.619440937447
 31
0.0
  0
LINE
  5
1FBD
330
1F
100
AcDbEntity
  8
1
100
AcDbLine
 10
13838.8769686331
 20
1477.619440937448
 30
0.0
 11
13838.87696863311
 21
919.6194409374475
 31
0.0
  0
LINE
  5
1FBE
330
1F
100
AcDbEntity
  8
1
  6
CENTER
100
AcDbLine
 10
13762.63656300685
 20
1198.619440937447
 30
0.0
 11
13891.03567626612
 21
1198.619440937447
 31
0.0
  0
LINE
  5
1FBF
330
1F
100
AcDbEntity
  8
1
  6
CENTER
100
AcDbLine
 10
13762.12200473743
 20
1446.119440937447
 30
0.0
 11
13859.41858351579
 21
1446.119440937447
 31
0.0
  0
LINE
  5
1FC0
330
1F
100
AcDbEntity
  8
1
  6
PHANTOM
100
AcDbLine
 10
13784.8769686331
 20
1376.419440937447
 30
0.0
 11
13910.8769686331
 21
1376.419440937447
 31
0.0
  0
LINE
  5
1FC1
330
1F
100
AcDbEntity
  8
1
  6
PHANTOM
100
AcDbLine
 10
13784.87696863311
 20
1368.519440937448
 30
0.0
 11
13910.8769686331
 21
1368.519440937447
 31
0.0
  0
LINE
  5
1FC5
330
1F
100
AcDbEntity
  8
1
  6
HIDDEN
100
AcDbLine
 10
13868.8769686331
 20
1377.669440937447
 30
0.0
 11
13784.8769686331
 21
1377.669440937447
 31
0.0
  0
LINE
  5
2023
330
1F
100
AcDbEntity
  8
1
  6
CENTER
100
AcDbLine
 10
12270.00475610003
 20
1198.619440937447
 30
0.0
 11
12795.00475610003
 21
1198.619440937447
 31
0.0
  0
LINE
  5
2024
330
1F
100
AcDbEntity
  8
1
  6
CENTER
100
AcDbLine
 10
12845.67124920778
 20
1198.619440937447
 30
0.0
 11
12966.47545891808
 21
1198.619440937449
 31
0.0
  0
LINE
  5
2025
330
1F
100
AcDbEntity
  8
1
  6
CENTER
 48
0.5
100
AcDbLine
 10
12855.67124920778
 20
1423.619440937447
 30
0.0
 11
12940.91889098734
 21
1423.619440937447
 31
0.0
  0
LINE
  5
202E
330
1F
100
AcDbEntity
  8
1
  6
PHANTOM
100
AcDbLine
 10
12869.67124920778
 20
1357.869440937447
 30
0.0
 11
12960.07033939025
 21
1357.869440937447
 31
0.0
  0
LINE
  5
2030
330
1F
100
AcDbEntity
  8
1
  6
HIDDEN
100
AcDbLine
 10
12947.67124920778
 20
1359.119440937447
 30
0.0
 11
12869.67124920778
 21
1359.119440937447
 31
0.0
  0
LINE
  5
206C
330
1F
100
AcDbEntity
  8
1
  6
PHANTOM
100
AcDbLine
 10
12869.67124920778
 20
1350.969440937448
 30
0.0
 11
12960.07033939025
 21
1350.969440937447
 31
0.0
  0
LINE
  5
2083
330
1F
100
AcDbEntity
  8
1
  6
CENTER
100
AcDbLine
 10
17700.08741109269
 20
1938.321890976123
 30
0.0
 11
18160.08741109269
 21
1938.321890976123
 31
0.0
  0
LINE
  5
2084
330
1F
100
AcDbEntity
  8
1
  6
CENTER
100
AcDbLine
 10
17930.08741109269
 20
1708.321890976123
 30
0.0
 11
17930.08741109269
 21
2168.321890976124
 31
0.0
  0
LINE
  5
20EC
330
1F
100
AcDbEntity
  8
1
  6
CENTER
 48
0.5
100
AcDbLine
 10
18248.3188423791
 20
2133.321890976124
 30
0.0
 11
18320.67343802535
 21
2133.321890976124
 31
0.0
  0
LINE
  5
20F0
330
1F
100
AcDbEntity
  8
1
  6
CENTER
100
AcDbLine
 10
18242.25964251033
 20
1938.321890976123
 30
0.0
 11
18341.65324772721
 21
1938.321890976123
 31
0.0
  0
LINE
  5
20F7
330
1F
100
AcDbEntity
  8
1
  6
PHANTOM
100
AcDbLine
 10
18256.3188423791
 20
2072.021890976123
 30
0.0
 11
18344.14432582173
 21
2072.021890976123
 31
0.0
  0
LINE
  5
20F9
330
1F
100
AcDbEntity
  8
1
  6
HIDDEN
100
AcDbLine
 10
18328.31884237909
 20
2073.071890976124
 30
0.0
 11
18256.3188423791
 21
2073.071890976123
 31
0.0
  0
LINE
  5
215C
330
1F
100
AcDbEntity
  8
1
  6
PHANTOM
100
AcDbLine
 10
18256.31884237909
 20
2065.421890976124
 30
0.0
 11
18344.14432582174
 21
2065.421890976124
 31
0.0
  0
LINE
  5
21B6
330
1F
100
AcDbEntity
  8
1
  6
CENTER
100
AcDbLine
 10
16080.41154638935
 20
1938.321890976123
 30
0.0
 11
16460.41154638935
 21
1938.321890976123
 31
0.0
  0
LINE
  5
21B8
330
1F
100
AcDbEntity
  8
1
  6
CENTER
100
AcDbLine
 10
16570.40257017249
 20
1938.321890976123
 30
0.0
 11
16660.40101021039
 21
1938.321890976123
 31
0.0
  0
LINE
  5
2201
330
1F
100
AcDbEntity
  8
1
  6
CENTER
 48
0.5
100
AcDbLine
 10
16571.14146222104
 20
2098.321890976123
 30
0.0
 11
16639.98342074763
 21
2098.321890976124
 31
0.0
  0
LINE
  5
2203
330
1F
100
AcDbEntity
  8
1
  6
PHANTOM
100
AcDbLine
 10
16581.40137970334
 20
2046.471890976124
 30
0.0
 11
16679.69352720798
 21
2046.471890976124
 31
0.0
  0
LINE
  5
2219
330
1F
100
AcDbEntity
  8
1
  6
PHANTOM
100
AcDbLine
 10
16581.40137970334
 20
2040.671890976125
 30
0.0
 11
16679.69352720798
 21
2040.671890976124
 31
0.0
  0
LINE
  5
23A2
330
1F
100
AcDbEntity
  8
1
  6
CENTER
100
AcDbLine
 10
14522.77530117054
 20
1938.321890976123
 30
0.0
 11
14857.77530117054
 21
1938.321890976123
 31
0.0
  0
LINE
  5
23A3
330
1F
100
AcDbEntity
  8
1
  6
CENTER
100
AcDbLine
 10
14690.27530117054
 20
1770.821890976123
 30
0.0
 11
14690.27530117054
 21
2105.821890976124
 31
0.0
  0
LINE
  5
23A5
330
1F
100
AcDbEntity
  8
1
  6
CENTER
 48
0.5
100
AcDbLine
 10
14968.17747254154
 20
2075.821890976123
 30
0.0
 11
15031.62721684351
 21
2075.821890976123
 31
0.0
  0
LINE
  5
23A7
330
1F
100
AcDbEntity
  8
1
  6
PHANTOM
100
AcDbLine
 10
14977.17747254154
 20
2020.921890976123
 30
0.0
 11
15056.82727881822
 21
2020.921890976123
 31
0.0
  0
LINE
  5
23A9
330
1F
100
AcDbEntity
  8
1
  6
HIDDEN
100
AcDbLine
 10
15035.17747254154
 20
2021.621890976123
 30
0.0
 11
14977.17747254154
 21
2021.621890976124
 31
0.0
  0
LINE
  5
2406
330
1F
100
AcDbEntity
  8
1
  6
CENTER
100
AcDbLine
 10
13792.19772340323
 20
1938.321890976123
 30
0.0
 11
14077.19772340323
 21
1938.321890976123
 31
0.0
  0
LINE
  5
2407
330
1F
100
AcDbEntity
  8
1
  6
CENTER
100
AcDbLine
 10
13934.69772340323
 20
1795.821890976123
 30
0.0
 11
13934.69772340323
 21
2080.821890976124
 31
0.0
  0
LINE
  5
2408
330
1F
100
AcDbEntity
  8
1
  6
CENTER
 48
0.5
100
AcDbLine
 10
14165.14760714459
 20
1938.321890976123
 30
0.0
 11
14244.11732177552
 21
1938.321890976123
 31
0.0
  0
LINE
  5
2409
330
1F
100
AcDbEntity
  8
1
  6
CENTER
 48
0.5
100
AcDbLine
 10
14169.09236465123
 20
2053.321890976124
 30
0.0
 11
14229.92559248969
 21
2053.321890976125
 31
0.0
  0
LINE
  5
240B
330
1F
100
AcDbEntity
  8
1
  6
PHANTOM
100
AcDbLine
 10
14179.09236465123
 20
2008.221890976124
 30
0.0
 11
14267.32852809875
 21
2008.221890976123
 31
0.0
  0
LINE
  5
2467
330
1F
100
AcDbEntity
  8
1
  6
HIDDEN
100
AcDbLine
 10
14233.09236465124
 20
2008.921890976124
 30
0.0
 11
14179.09236465123
 21
2008.921890976124
 31
0.0
  0
LINE
  5
247A
330
1F
100
AcDbEntity
  8
1
  6
CENTER
100
AcDbLine
 10
13086.4576601813
 20
1938.321890976123
 30
0.0
 11
13336.4576601813
 21
1938.321890976123
 31
0.0
  0
LINE
  5
247B
330
1F
100
AcDbEntity
  8
1
  6
CENTER
100
AcDbLine
 10
13211.4576601813
 20
1813.321890976123
 30
0.0
 11
13211.4576601813
 21
2063.321890976124
 31
0.0
  0
LINE
  5
247C
330
1F
100
AcDbEntity
  8
1
  6
CENTER
 48
0.5
100
AcDbLine
 10
13437.1814686202
 20
1938.321890976123
 30
0.0
 11
13522.35102286061
 21
1938.321890976123
 31
0.0
  0
LINE
  5
247D
330
1F
100
AcDbEntity
  8
1
  6
CENTER
 48
0.5
100
AcDbLine
 10
13443.71670296303
 20
2035.821890976123
 30
0.0
 11
13503.93449596767
 21
2035.821890976124
 31
0.0
  0
LINE
  5
24AD
330
1F
100
AcDbEntity
  8
1
  6
PHANTOM
100
AcDbLine
 10
14977.17747254154
 20
2015.921890976125
 30
0.0
 11
15056.82727881822
 21
2015.921890976124
 31
0.0
  0
LINE
  5
24AE
330
1F
100
AcDbEntity
  8
1
  6
PHANTOM
100
AcDbLine
 10
14179.09236465123
 20
2003.721890976125
 30
0.0
 11
14267.32852809875
 21
2003.721890976124
 31
0.0
  0
LINE
  5
24C7
330
1F
100
AcDbEntity
  8
1
  6
PHANTOM
100
AcDbLine
 10
13456.71670296303
 20
1990.971890976123
 30
0.0
 11
13542.71670296304
 21
1990.971890976123
 31
0.0
  0
LINE
  5
25B5
330
1F
100
AcDbEntity
  8
1
100
AcDbLine
 10
12747.14191644447
 20
2052.321890976123
 30
0.0
 11
12747.14191644447
 21
1824.321890976123
 31
0.0
  0
LINE
  5
25C7
330
1F
100
AcDbEntity
  8
1
  6
HIDDEN
100
AcDbLine
 10
12717.14191644446
 20
1989.621890976123
 30
0.0
 11
12763.14191644447
 21
1989.621890976124
 31
0.0
  0
LINE
  5
25CB
330
1F
100
AcDbEntity
  8
1
  6
PHANTOM
100
AcDbLine
 10
12717.14191644447
 20
1989.121890976123
 30
0.0
 11
12801.14191644447
 21
1989.121890976123
 31
0.0
  0
LINE
  5
25CD
330
1F
100
AcDbEntity
  8
1
  6
CENTER
100
AcDbLine
 10
12370.07290709152
 20
1938.321890976123
 30
0.0
 11
12610.07290709152
 21
1938.321890976123
 31
0.0
  0
LINE
  5
25CF
330
1F
100
AcDbEntity
  8
1
  6
CENTER
 48
0.5
100
AcDbLine
 10
12702.56479472386
 20
1938.321890976123
 30
0.0
 11
12766.56479472386
 21
1938.321890976123
 31
0.0
  0
LINE
  5
25D0
330
1F
100
AcDbEntity
  8
1
  6
CENTER
 48
0.5
100
AcDbLine
 10
12706.14191644447
 20
2030.821890976124
 30
0.0
 11
12755.68750020626
 21
2030.821890976124
 31
0.0
  0
LINE
  5
262D
330
1F
100
AcDbEntity
  8
1
  6
PHANTOM
100
AcDbLine
 10
12717.14191644447
 20
1984.921890976124
 30
0.0
 11
12801.14191644447
 21
1984.921890976124
 31
0.0
  0
LINE
  5
2665
330
1F
100
AcDbEntity
  8
1
  6
CENTER
100
AcDbLine
 10
17759.35830237807
 20
2363.617321746548
 30
0.0
 11
17979.35830237807
 21
2363.617321746548
 31
0.0
  0
LINE
  5
2666
330
1F
100
AcDbEntity
  8
1
  6
CENTER
100
AcDbLine
 10
17869.35830237807
 20
2253.617321746547
 30
0.0
 11
17869.35830237807
 21
2473.617321746548
 31
0.0
  0
LINE
  5
2667
330
1F
100
AcDbEntity
  8
1
  6
CENTER
 48
0.5
100
AcDbLine
 10
18067.98600891893
 20
2448.617321746548
 30
0.0
 11
18111.98600891893
 21
2448.617321746548
 31
0.0
  0
LINE
  5
266A
330
1F
100
AcDbEntity
  8
1
  6
CENTER
 48
0.5
100
AcDbLine
 10
18064.38721010213
 20
2363.617321746548
 30
0.0
 11
18136.75704269208
 21
2363.617321746548
 31
0.0
  0
LINE
  5
266D
330
1F
100
AcDbEntity
  8
1
  6
PHANTOM
 48
0.5
100
AcDbLine
 10
18080.07202643634
 20
2403.967321746549
 30
0.0
 11
18144.07202643634
 21
2403.967321746548
 31
0.0
  0
LINE
  5
26D6
330
1F
100
AcDbEntity
  8
1
  6
CENTER
 48
0.5
100
AcDbLine
 10
16989.50393707959
 20
2363.617321746548
 30
0.0
 11
17199.50393707959
 21
2363.617321746548
 31
0.0
  0
LINE
  5
26D7
330
1F
100
AcDbEntity
  8
1
  6
CENTER
 48
0.5
100
AcDbLine
 10
17094.50393707959
 20
2258.617321746548
 30
0.0
 11
17094.50393707959
 21
2468.617321746548
 31
0.0
  0
LINE
  5
26D8
330
1F
100
AcDbEntity
  8
1
  6
CENTER
 48
0.5
100
AcDbLine
 10
17275.71609406987
 20
2443.617321746548
 30
0.0
 11
17312.81174154758
 21
2443.617321746548
 31
0.0
  0
LINE
  5
26DA
330
1F
100
AcDbEntity
  8
1
  6
CENTER
 48
0.5
100
AcDbLine
 10
17272.86151966918
 20
2363.617321746548
 30
0.0
 11
17330.81006418683
 21
2363.617321746548
 31
0.0
  0
LINE
  5
270D
330
1F
100
AcDbEntity
  8
1
  6
PHANTOM
 48
0.5
100
AcDbLine
 10
17279.57539029401
 20
2397.567321746546
 30
0.0
 11
17345.57539029401
 21
2397.567321746548
 31
0.0
  0
LINE
  5
2753
330
1F
100
AcDbEntity
  8
1
  6
HIDDEN
 48
0.5
100
AcDbLine
 10
16542.59951346258
 20
2394.167321746548
 30
0.0
 11
16578.59951346259
 21
2394.167321746548
 31
0.0
  0
LINE
  5
2755
330
1F
100
AcDbEntity
  8
1
  6
PHANTOM
 48
0.5
100
AcDbLine
 10
16542.59951346259
 20
2393.867321746548
 30
0.0
 11
16606.59951346258
 21
2393.867321746547
 31
0.0
  0
LINE
  5
2759
330
1F
100
AcDbEntity
  8
1
  6
CENTER
 48
0.5
100
AcDbLine
 10
16522.53324306695
 20
2363.617321746548
 30
0.0
 11
16592.33709072284
 21
2363.617321746548
 31
0.0
  0
LINE
  5
2769
330
1F
100
AcDbEntity
  8
1
  6
PHANTOM
 48
0.5
100
AcDbLine
 10
16542.59951346258
 20
2390.067321746547
 30
0.0
 11
16606.59951346258
 21
2390.067321746547
 31
0.0
  0
LINE
  5
2791
330
1F
100
AcDbEntity
  8
1
  6
CENTER
 48
0.5
100
AcDbLine
 10
16536.74021723845
 20
2428.617321746548
 30
0.0
 11
16572.59084547604
 21
2428.617321746548
 31
0.0
  0
LINE
  5
2794
330
1F
100
AcDbEntity
  8
1
  6
CENTER
 48
0.5
100
AcDbLine
 10
16281.82724312506
 20
2363.617321746548
 30
0.0
 11
16456.82724312506
 21
2363.617321746548
 31
0.0
  0
LINE
  5
2795
330
1F
100
AcDbEntity
  8
1
  6
CENTER
 48
0.5
100
AcDbLine
 10
16369.32724312506
 20
2276.117321746546
 30
0.0
 11
16369.32724312506
 21
2451.117321746548
 31
0.0
  0
LINE
  5
27DE
330
1F
100
AcDbEntity
  8
1
  6
HIDDEN
 48
0.5
100
AcDbLine
 10
15843.37750074982
 20
2388.167321746548
 30
0.0
 11
15877.37750074982
 21
2388.167321746547
 31
0.0
  0
LINE
  5
27E0
330
1F
100
AcDbEntity
  8
1
  6
PHANTOM
 48
0.5
100
AcDbLine
 10
15843.37750074981
 20
2387.917321746548
 30
0.0
 11
15907.37750074982
 21
2387.917321746549
 31
0.0
  0
LINE
  5
27E4
330
1F
100
AcDbEntity
  8
1
  6
CENTER
 48
0.5
100
AcDbLine
 10
15837.12212760715
 20
2423.617321746547
 30
0.0
 11
15870.42358652743
 21
2423.617321746548
 31
0.0
  0
LINE
  5
27E6
330
1F
100
AcDbEntity
  8
1
  6
CENTER
 48
0.5
100
AcDbLine
 10
15831.11726865363
 20
2363.61732174655
 30
0.0
 11
15891.73912976338
 21
2363.617321746548
 31
0.0
  0
LINE
  5
27E7
330
1F
100
AcDbEntity
  8
1
  6
CENTER
 48
0.5
100
AcDbLine
 10
15603.78476345938
 20
2363.617321746548
 30
0.0
 11
15773.78476345938
 21
2363.617321746548
 31
0.0
  0
LINE
  5
27E8
330
1F
100
AcDbEntity
  8
1
  6
CENTER
 48
0.5
100
AcDbLine
 10
15688.78476345938
 20
2278.617321746548
 30
0.0
 11
15688.78476345938
 21
2448.617321746548
 31
0.0
  0
LINE
  5
287E
330
1F
100
AcDbEntity
  8
1
  6
PHANTOM
 48
0.5
100
AcDbLine
 10
15843.37750074982
 20
2384.417321746548
 30
0.0
 11
15907.37750074982
 21
2384.417321746548
 31
0.0
  0
LINE
  5
28AD
330
1F
100
AcDbEntity
  8
1
  6
PHANTOM
 48
0.5
100
AcDbLine
 10
15138.89619705295
 20
2384.967321746546
 30
0.0
 11
15200.89619705296
 21
2384.967321746548
 31
0.0
  0
LINE
  5
28AE
330
1F
100
AcDbEntity
  8
1
  6
PHANTOM
 48
0.5
100
AcDbLine
 10
15138.89619705295
 20
2381.467321746548
 30
0.0
 11
15200.89619705296
 21
2381.467321746548
 31
0.0
  0
LINE
  5
28B1
330
1F
100
AcDbEntity
  8
1
  6
CENTER
 48
0.5
100
AcDbLine
 10
15130.49862788754
 20
2416.117321746546
 30
0.0
 11
15166.55859676374
 21
2416.117321746547
 31
0.0
  0
LINE
  5
28B3
330
1F
100
AcDbEntity
  8
1
  6
CENTER
 48
0.5
100
AcDbLine
 10
15131.4090409316
 20
2363.617321746548
 30
0.0
 11
15179.33291742376
 21
2363.617321746548
 31
0.0
  0
LINE
  5
28B4
330
1F
100
AcDbEntity
  8
1
  6
CENTER
 48
0.5
100
AcDbLine
 10
14915.11009510308
 20
2363.617321746548
 30
0.0
 11
15065.11009510308
 21
2363.617321746548
 31
0.0
  0
LINE
  5
28B5
330
1F
100
AcDbEntity
  8
1
  6
CENTER
 48
0.5
100
AcDbLine
 10
14990.11009510308
 20
2288.617321746547
 30
0.0
 11
14990.11009510308
 21
2438.617321746548
 31
0.0
  0
LINE
  5
2906
330
1F
100
AcDbEntity
  8
1
  6
HIDDEN
 48
0.5
100
AcDbLine
 10
15170.89619705296
 20
2385.217321746548
 30
0.0
 11
15138.89619705295
 21
2385.217321746547
 31
0.0
  0
LINE
  5
2917
330
1F
100
AcDbEntity
  8
1
  6
CENTER
 48
0.5
100
AcDbLine
 10
14442.86348017732
 20
2411.117321746547
 30
0.0
 11
14475.79380280908
 21
2411.117321746547
 31
0.0
  0
LINE
  5
2919
330
1F
100
AcDbEntity
  8
1
  6
CENTER
 48
0.5
100
AcDbLine
 10
14440.57816934056
 20
2363.617321746549
 30
0.0
 11
14485.3323217004
 21
2363.617321746548
 31
0.0
  0
LINE
  5
291A
330
1F
100
AcDbEntity
  8
1
  6
CENTER
 48
0.5
100
AcDbLine
 10
14251.39510656993
 20
2363.617321746548
 30
0.0
 11
14389.39510656993
 21
2363.617321746548
 31
0.0
  0
LINE
  5
291B
330
1F
100
AcDbEntity
  8
1
  6
CENTER
 48
0.5
100
AcDbLine
 10
14320.39510656993
 20
2294.617321746548
 30
0.0
 11
14320.39510656993
 21
2432.617321746548
 31
0.0
  0
LINE
  5
2926
330
1F
100
AcDbEntity
  8
1
  6
PHANTOM
 48
0.5
100
AcDbLine
 10
14449.72277640145
 20
2377.417321746548
 30
0.0
 11
14511.72277640145
 21
2377.417321746547
 31
0.0
  0
LINE
  5
29A5
330
1F
100
AcDbEntity
  8
1
  6
CENTER
 48
0.5
100
AcDbLine
 10
13785.97454709598
 20
2406.117321746548
 30
0.0
 11
13811.69313954424
 21
2406.117321746548
 31
0.0
  0
LINE
  5
29A7
330
1F
100
AcDbEntity
  8
1
  6
CENTER
 48
0.5
100
AcDbLine
 10
13782.30534905468
 20
2363.617321746548
 30
0.0
 11
13825.88604878351
 21
2363.617321746548
 31
0.0
  0
LINE
  5
29A8
330
1F
100
AcDbEntity
  8
1
  6
CENTER
 48
0.5
100
AcDbLine
 10
13614.434564497
 20
2363.617321746548
 30
0.0
 11
13742.434564497
 21
2363.617321746548
 31
0.0
  0
LINE
  5
29A9
330
1F
100
AcDbEntity
  8
1
  6
CENTER
 48
0.5
100
AcDbLine
 10
13678.434564497
 20
2299.617321746548
 30
0.0
 11
13678.434564497
 21
2427.617321746548
 31
0.0
  0
LINE
  5
29E7
330
1F
100
AcDbEntity
  8
1
  6
PHANTOM
 48
0.5
100
AcDbLine
 10
13791.83384332011
 20
2374.417321746546
 30
0.0
 11
13841.83384332011
 21
2374.417321746546
 31
0.0
  0
LINE
  5
2A21
330
1F
100
AcDbEntity
  8
1
  6
CENTER
 48
0.5
100
AcDbLine
 10
13173.17802368144
 20
2403.617321746549
 30
0.0
 11
13208.14880988615
 21
2403.61732174655
 31
0.0
  0
LINE
  5
2A23
330
1F
100
AcDbEntity
  8
1
  6
CENTER
 48
0.5
100
AcDbLine
 10
13171.82111791435
 20
2363.617321746548
 30
0.0
 11
13217.58461613688
 21
2363.617321746548
 31
0.0
  0
LINE
  5
2A24
330
1F
100
AcDbEntity
  8
1
  6
CENTER
 48
0.5
100
AcDbLine
 10
13006.91217612852
 20
2363.617321746548
 30
0.0
 11
13127.91217612852
 21
2363.617321746548
 31
0.0
  0
LINE
  5
2A25
330
1F
100
AcDbEntity
  8
1
  6
CENTER
 48
0.5
100
AcDbLine
 10
13067.41217612852
 20
2303.117321746547
 30
0.0
 11
13067.41217612852
 21
2424.117321746548
 31
0.0
  0
LINE
  5
2A30
330
1F
100
AcDbEntity
  8
1
  6
PHANTOM
 48
0.5
100
AcDbLine
 10
13181.53731990557
 20
2371.667321746547
 30
0.0
 11
13230.53731990557
 21
2371.667321746547
 31
0.0
  0
LINE
  5
2B31
330
1F
100
AcDbEntity
  8
1
  6
CENTER
 48
0.2
100
AcDbLine
 10
12576.69321557707
 20
2401.11732174655
 30
0.0
 11
12602.90041664996
 21
2401.117321746551
 31
0.0
  0
LINE
  5
2B33
330
1F
100
AcDbEntity
  8
1
  6
CENTER
 48
0.5
100
AcDbLine
 10
12577.31754166194
 20
2363.617321746549
 30
0.0
 11
12612.17353651862
 21
2363.617321746549
 31
0.0
  0
LINE
  5
2B34
330
1F
100
AcDbEntity
  8
1
  6
CENTER
 48
0.5
100
AcDbLine
 10
12420.7927079297
 20
2363.617321746548
 30
0.0
 11
12536.7927079297
 21
2363.617321746548
 31
0.0
  0
LINE
  5
2B35
330
1F
100
AcDbEntity
  8
1
  6
CENTER
 48
0.5
100
AcDbLine
 10
12478.7927079297
 20
2305.617321746547
 30
0.0
 11
12478.7927079297
 21
2421.617321746547
 31
0.0
  0
LINE
  5
2B7F
330
1F
100
AcDbEntity
  8
1
  6
PHANTOM
 48
0.5
100
AcDbLine
 10
12582.90041664996
 20
2369.967321746547
 30
0.0
 11
12631.90041664996
 21
2369.967321746547
 31
0.0
  0
LINE
  5
48BE
330
1F
100
AcDbEntity
  8
1
100
AcDbLine
 10
14942.47926795766
 20
1512.619440937447
 30
0.0
 11
14942.47926795767
 21
884.6194409374474
 31
0.0
  0
LINE
  5
48BF
330
1F
100
AcDbEntity
  8
1
  6
CENTER
100
AcDbLine
 10
14858.5440706194
 20
1198.619440937447
 30
0.0
 11
15001.2602590653
 21
1198.619440937447
 31
0.0
  0
LINE
  5
48C0
330
1F
100
AcDbEntity
  8
1
  6
CENTER
100
AcDbLine
 10
14866.28851087497
 20
1478.619440937447
 30
0.0
 11
14961.27690279834
 21
1478.619440937447
 31
0.0
  0
LINE
  5
48C1
330
1F
100
AcDbEntity
  8
1
  6
PHANTOM
100
AcDbLine
 10
14882.47926795767
 20
1401.819440937446
 30
0.0
 11
15008.47926795766
 21
1401.819440937446
 31
0.0
  0
LINE
  5
48C2
330
1F
100
AcDbEntity
  8
1
  6
PHANTOM
100
AcDbLine
 10
14882.47926795767
 20
1393.919440937448
 30
0.0
 11
15008.47926795766
 21
1393.919440937447
 31
0.0
  0
LINE
  5
48C3
330
1F
100
AcDbEntity
  8
1
  6
HIDDEN
100
AcDbLine
 10
14974.47926795766
 20
1403.119440937446
 30
0.0
 11
14882.47926795767
 21
1403.119440937446
 31
0.0
  0
LINE
  5
48CA
330
1F
100
AcDbEntity
  8
1
  6
CENTER
100
AcDbLine
 10
14870.8731530826
 20
918.6194409374472
 30
0.0
 11
14961.27690279835
 21
918.6194409374472
 31
0.0
  0
LINE
  5
48CB
330
1F
100
AcDbEntity
  8
1
  6
PHANTOM
100
AcDbLine
 10
14882.47926795767
 20
995.4194409374473
 30
0.0
 11
15008.47926795766
 21
995.4194409374473
 31
0.0
  0
LINE
  5
48CC
330
1F
100
AcDbEntity
  8
1
  6
PHANTOM
100
AcDbLine
 10
14882.47926795767
 20
1003.319440937445
 30
0.0
 11
15008.47926795766
 21
1003.319440937446
 31
0.0
  0
LINE
  5
48CD
330
1F
100
AcDbEntity
  8
1
  6
HIDDEN
100
AcDbLine
 10
14974.47926795766
 20
994.1194409374476
 30
0.0
 11
14882.47926795767
 21
994.1194409374471
 31
0.0
  0
LINE
  5
4A19
330
1F
100
AcDbEntity
  8
1
  6
CENTER
 48
2.0
100
AcDbLine
 10
13385.07801944912
 20
908.6194409374474
 30
0.0
 11
13385.07801944912
 21
1488.619440937447
 31
0.0
  0
LINE
  5
4B36
330
1F
100
AcDbEntity
  8
1
  6
CENTER
100
AcDbLine
 10
13762.12200473743
 20
951.1194409374477
 30
0.0
 11
13859.41858351579
 21
951.1194409374471
 31
0.0
  0
LINE
  5
4B37
330
1F
100
AcDbEntity
  8
1
  6
PHANTOM
100
AcDbLine
 10
13784.8769686331
 20
1020.819440937447
 30
0.0
 11
13910.8769686331
 21
1020.819440937447
 31
0.0
  0
LINE
  5
4B38
330
1F
100
AcDbEntity
  8
1
  6
PHANTOM
100
AcDbLine
 10
13784.87696863311
 20
1028.719440937446
 30
0.0
 11
13910.8769686331
 21
1028.719440937446
 31
0.0
  0
LINE
  5
4B39
330
1F
100
AcDbEntity
  8
1
  6
HIDDEN
100
AcDbLine
 10
13868.8769686331
 20
1019.569440937447
 30
0.0
 11
13784.8769686331
 21
1019.569440937447
 31
0.0
  0
LINE
  5
4C06
330
1F
100
AcDbEntity
  8
1
  6
CENTER
100
AcDbLine
 10
12532.50475610003
 20
936.1194409374476
 30
0.0
 11
12532.50475610003
 21
1461.119440937447
 31
0.0
  0
LINE
  5
4DD8
330
1F
100
AcDbEntity
  8
1
  6
CENTER
 48
0.5
100
AcDbLine
 10
12855.67124920778
 20
973.6194409374471
 30
0.0
 11
12940.91889098734
 21
973.6194409374471
 31
0.0
  0
LINE
  5
4DD9
330
1F
100
AcDbEntity
  8
1
  6
PHANTOM
100
AcDbLine
 10
12869.67124920779
 20
1039.369440937447
 30
0.0
 11
12960.07033939025
 21
1039.369440937447
 31
0.0
  0
LINE
  5
4DDA
330
1F
100
AcDbEntity
  8
1
  6
PHANTOM
100
AcDbLine
 10
12869.67124920778
 20
1046.269440937445
 30
0.0
 11
12960.07033939025
 21
1046.269440937447
 31
0.0
  0
LINE
  5
4DDB
330
1F
100
AcDbEntity
  8
1
  6
HIDDEN
100
AcDbLine
 10
12947.67124920779
 20
1038.119440937449
 30
0.0
 11
12869.67124920778
 21
1038.119440937446
 31
0.0
  0
LINE
  5
4FB5
330
1F
100
AcDbEntity
  8
1
  6
CENTER
 48
0.5
100
AcDbLine
 10
18248.3188423791
 20
1743.321890976123
 30
0.0
 11
18320.67343802534
 21
1743.321890976123
 31
0.0
  0
LINE
  5
4FB6
330
1F
100
AcDbEntity
  8
1
  6
PHANTOM
100
AcDbLine
 10
18256.31884237909
 20
1804.621890976123
 30
0.0
 11
18344.14432582173
 21
1804.621890976124
 31
0.0
  0
LINE
  5
4FB7
330
1F
100
AcDbEntity
  8
1
  6
PHANTOM
100
AcDbLine
 10
18256.31884237909
 20
1811.221890976123
 30
0.0
 11
18344.14432582174
 21
1811.221890976123
 31
0.0
  0
LINE
  5
4FB8
330
1F
100
AcDbEntity
  8
1
  6
HIDDEN
100
AcDbLine
 10
18328.31884237908
 20
1803.571890976123
 30
0.0
 11
18256.31884237909
 21
1803.571890976123
 31
0.0
  0
LINE
  5
5194
330
1F
100
AcDbEntity
  8
1
  6
CENTER
100
AcDbLine
 10
16270.41154638935
 20
1748.321890976123
 30
0.0
 11
16270.41154638935
 21
2128.321890976124
 31
0.0
  0
LINE
  5
5248
330
1F
100
AcDbEntity
  8
1
  6
CENTER
 48
0.5
100
AcDbLine
 10
16573.40137970334
 20
1778.321890976123
 30
0.0
 11
16639.98342074761
 21
1778.321890976123
 31
0.0
  0
LINE
  5
5249
330
1F
100
AcDbEntity
  8
1
  6
PHANTOM
100
AcDbLine
 10
16581.40137970334
 20
1830.171890976123
 30
0.0
 11
16679.69352720798
 21
1830.171890976123
 31
0.0
  0
LINE
  5
524A
330
1F
100
AcDbEntity
  8
1
  6
PHANTOM
100
AcDbLine
 10
16581.40137970334
 20
1835.971890976123
 30
0.0
 11
16679.69352720798
 21
1835.971890976123
 31
0.0
  0
LINE
  5
524B
330
1F
100
AcDbEntity
  8
1
  6
HIDDEN
100
AcDbLine
 10
16645.40137970334
 20
1829.321890976124
 30
0.0
 11
16581.40137970334
 21
1829.321890976124
 31
0.0
  0
LINE
  5
54B8
330
1F
100
AcDbEntity
  8
1
  6
CENTER
 48
0.5
100
AcDbLine
 10
14968.17747254154
 20
1800.821890976124
 30
0.0
 11
15031.62721684351
 21
1800.821890976124
 31
0.0
  0
LINE
  5
54B9
330
1F
100
AcDbEntity
  8
1
  6
PHANTOM
100
AcDbLine
 10
14977.17747254154
 20
1855.721890976123
 30
0.0
 11
15056.82727881822
 21
1855.721890976124
 31
0.0
  0
LINE
  5
54BA
330
1F
100
AcDbEntity
  8
1
  6
PHANTOM
100
AcDbLine
 10
14977.17747254154
 20
1860.721890976122
 30
0.0
 11
15056.82727881822
 21
1860.721890976123
 31
0.0
  0
LINE
  5
54BB
330
1F
100
AcDbEntity
  8
1
  6
HIDDEN
100
AcDbLine
 10
15035.17747254154
 20
1855.021890976123
 30
0.0
 11
14977.17747254154
 21
1855.021890976123
 31
0.0
  0
LINE
  5
5616
330
1F
100
AcDbEntity
  8
1
  6
CENTER
 48
0.5
100
AcDbLine
 10
14169.09236465123
 20
1823.321890976122
 30
0.0
 11
14229.92559248969
 21
1823.321890976122
 31
0.0
  0
LINE
  5
5617
330
1F
100
AcDbEntity
  8
1
  6
PHANTOM
100
AcDbLine
 10
14179.09236465123
 20
1868.421890976122
 30
0.0
 11
14267.32852809875
 21
1868.421890976123
 31
0.0
  0
LINE
  5
5618
330
1F
100
AcDbEntity
  8
1
  6
PHANTOM
100
AcDbLine
 10
14179.09236465123
 20
1872.921890976122
 30
0.0
 11
14267.32852809875
 21
1872.921890976122
 31
0.0
  0
LINE
  5
5619
330
1F
100
AcDbEntity
  8
1
  6
HIDDEN
100
AcDbLine
 10
14233.09236465124
 20
1867.721890976122
 30
0.0
 11
14179.09236465123
 21
1867.721890976122
 31
0.0
  0
LINE
  5
5742
330
1F
100
AcDbEntity
  8
1
  6
HIDDEN
100
AcDbLine
 10
13456.71670296303
 20
1880.621890976123
 30
0.0
 11
13504.71670296303
 21
1880.621890976124
 31
0.0
  0
LINE
  5
5743
330
1F
100
AcDbEntity
  8
1
  6
PHANTOM
100
AcDbLine
 10
13456.71670296303
 20
1881.171890976123
 30
0.0
 11
13542.71670296304
 21
1881.171890976123
 31
0.0
  0
LINE
  5
5744
330
1F
100
AcDbEntity
  8
1
  6
PHANTOM
100
AcDbLine
 10
13456.71670296303
 20
1885.671890976123
 30
0.0
 11
13542.71670296304
 21
1885.671890976123
 31
0.0
  0
LINE
  5
5745
330
1F
100
AcDbEntity
  8
1
  6
CENTER
 48
0.5
100
AcDbLine
 10
13443.71670296303
 20
1840.821890976123
 30
0.0
 11
13503.93449596768
 21
1840.821890976123
 31
0.0
  0
LINE
  5
57B0
330
1F
100
AcDbEntity
  8
1
  6
CENTER
100
AcDbLine
 10
12490.07290709152
 20
1818.321890976124
 30
0.0
 11
12490.07290709152
 21
2058.321890976124
 31
0.0
  0
LINE
  5
5819
330
1F
100
AcDbEntity
  8
1
  6
CENTER
 48
0.5
100
AcDbLine
 10
12706.14191644447
 20
1845.821890976123
 30
0.0
 11
12755.68750020626
 21
1845.821890976124
 31
0.0
  0
LINE
  5
581A
330
1F
100
AcDbEntity
  8
1
  6
HIDDEN
100
AcDbLine
 10
12717.14191644446
 20
1887.021890976122
 30
0.0
 11
12763.14191644448
 21
1887.021890976122
 31
0.0
  0
LINE
  5
581B
330
1F
100
AcDbEntity
  8
1
  6
PHANTOM
100
AcDbLine
 10
12717.14191644447
 20
1887.521890976122
 30
0.0
 11
12801.14191644447
 21
1887.521890976122
 31
0.0
  0
LINE
  5
581C
330
1F
100
AcDbEntity
  8
1
  6
PHANTOM
100
AcDbLine
 10
12717.14191644447
 20
1891.721890976122
 30
0.0
 11
12801.14191644447
 21
1891.721890976122
 31
0.0
  0
LINE
  5
58EE
330
1F
100
AcDbEntity
  8
1
  6
PHANTOM
 48
0.5
100
AcDbLine
 10
18080.07202643634
 20
2319.067321746548
 30
0.0
 11
18144.07202643634
 21
2319.067321746548
 31
0.0
  0
LINE
  5
58EF
330
1F
100
AcDbEntity
  8
1
  6
PHANTOM
 48
0.5
100
AcDbLine
 10
18080.07202643634
 20
2323.267321746547
 30
0.0
 11
18144.07202643634
 21
2323.267321746548
 31
0.0
  0
LINE
  5
58F0
330
1F
100
AcDbEntity
  8
1
  6
CENTER
 48
0.5
100
AcDbLine
 10
18067.98600891893
 20
2278.617321746548
 30
0.0
 11
18111.98600891893
 21
2278.617321746548
 31
0.0
  0
LINE
  5
59F8
330
1F
100
AcDbEntity
  8
1
  6
HIDDEN
 48
0.5
100
AcDbLine
 10
17279.57539029401
 20
2325.067321746546
 30
0.0
 11
17319.57539029401
 21
2325.067321746547
 31
0.0
  0
LINE
  5
59F9
330
1F
100
AcDbEntity
  8
1
  6
CENTER
 48
0.5
100
AcDbLine
 10
17275.71609406987
 20
2283.617321746547
 30
0.0
 11
17312.81174154758
 21
2283.617321746547
 31
0.0
  0
LINE
  5
59FA
330
1F
100
AcDbEntity
  8
1
  6
PHANTOM
 48
0.5
100
AcDbLine
 10
17279.57539029401
 20
2325.467321746547
 30
0.0
 11
17345.57539029401
 21
2325.467321746547
 31
0.0
  0
LINE
  5
59FB
330
1F
100
AcDbEntity
  8
1
  6
PHANTOM
 48
0.5
100
AcDbLine
 10
17279.57539029401
 20
2329.667321746548
 30
0.0
 11
17345.57539029401
 21
2329.667321746546
 31
0.0
  0
LINE
  5
5AE7
330
1F
100
AcDbEntity
  8
1
  6
HIDDEN
 48
0.5
100
AcDbLine
 10
16564.59951346258
 20
2289.117321746548
 30
0.0
 11
16544.59951346259
 21
2289.117321746548
 31
0.0
  0
LINE
  5
5AE8
330
1F
100
AcDbEntity
  8
1
  6
HIDDEN
 48
0.5
100
AcDbLine
 10
16564.59951346258
 20
2308.117321746548
 30
0.0
 11
16544.59951346259
 21
2308.117321746548
 31
0.0
  0
LINE
  5
5AE9
330
1F
100
AcDbEntity
  8
1
100
AcDbLine
 10
16563.59951346259
 20
2281.117321746548
 30
0.0
 11
16544.59951346259
 21
2281.117321746548
 31
0.0
  0
LINE
  5
5AEA
330
1F
100
AcDbEntity
  8
1
  6
HIDDEN
 48
0.5
100
AcDbLine
 10
16542.59951346258
 20
2333.067321746547
 30
0.0
 11
16578.59951346259
 21
2333.067321746548
 31
0.0
  0
LINE
  5
5AEB
330
1F
100
AcDbEntity
  8
1
  6
PHANTOM
 48
0.5
100
AcDbLine
 10
16542.59951346259
 20
2333.367321746548
 30
0.0
 11
16606.59951346258
 21
2333.367321746547
 31
0.0
  0
LINE
  5
5AEC
330
1F
100
AcDbEntity
  8
1
  6
PHANTOM
 48
0.5
100
AcDbLine
 10
16542.59951346258
 20
2337.167321746547
 30
0.0
 11
16606.59951346258
 21
2337.167321746547
 31
0.0
  0
LINE
  5
5AED
330
1F
100
AcDbEntity
  8
1
  6
CENTER
 48
0.5
100
AcDbLine
 10
16536.74021723845
 20
2298.617321746547
 30
0.0
 11
16572.59084547605
 21
2298.617321746547
 31
0.0
  0
LINE
  5
5BF7
330
1F
100
AcDbEntity
  8
1
  6
HIDDEN
 48
0.5
100
AcDbLine
 10
15843.37750074982
 20
2339.067321746547
 30
0.0
 11
15877.37750074982
 21
2339.067321746545
 31
0.0
  0
LINE
  5
5BF8
330
1F
100
AcDbEntity
  8
1
  6
PHANTOM
 48
0.5
100
AcDbLine
 10
15843.37750074982
 20
2339.317321746547
 30
0.0
 11
15907.37750074982
 21
2339.317321746547
 31
0.0
  0
LINE
  5
5BF9
330
1F
100
AcDbEntity
  8
1
  6
PHANTOM
 48
0.5
100
AcDbLine
 10
15843.37750074982
 20
2342.817321746547
 30
0.0
 11
15907.37750074982
 21
2342.817321746546
 31
0.0
  0
LINE
  5
5BFA
330
1F
100
AcDbEntity
  8
1
  6
CENTER
 48
0.5
100
AcDbLine
 10
15837.12212760715
 20
2303.617321746548
 30
0.0
 11
15870.42358652743
 21
2303.617321746548
 31
0.0
  0
LINE
  5
5CF6
330
1F
100
AcDbEntity
  8
1
100
AcDbLine
 10
15159.89619705296
 20
2293.617321746546
 30
0.0
 11
15140.89619705296
 21
2293.617321746546
 31
0.0
  0
LINE
  5
5CF7
330
1F
100
AcDbEntity
  8
1
  6
PHANTOM
 48
0.5
100
AcDbLine
 10
15138.89619705295
 20
2342.267321746549
 30
0.0
 11
15200.89619705296
 21
2342.267321746547
 31
0.0
  0
LINE
  5
5CF8
330
1F
100
AcDbEntity
  8
1
  6
PHANTOM
 48
0.5
100
AcDbLine
 10
15138.89619705295
 20
2345.767321746548
 30
0.0
 11
15200.89619705296
 21
2345.767321746548
 31
0.0
  0
LINE
  5
5CF9
330
1F
100
AcDbEntity
  8
1
  6
CENTER
 48
0.5
100
AcDbLine
 10
15132.96498499989
 20
2311.117321746549
 30
0.0
 11
15166.5077377137
 21
2311.117321746547
 31
0.0
  0
LINE
  5
5CFA
330
1F
100
AcDbEntity
  8
1
  6
HIDDEN
 48
0.5
100
AcDbLine
 10
15170.89619705296
 20
2342.017321746549
 30
0.0
 11
15138.89619705295
 21
2342.017321746548
 31
0.0
  0
LINE
  5
5DF5
330
1F
100
AcDbEntity
  8
1
  6
HIDDEN
 48
0.5
100
AcDbLine
 10
14479.72277640145
 20
2346.367321746545
 30
0.0
 11
14449.72277640145
 21
2346.36732174655
 31
0.0
  0
LINE
  5
5DF9
330
1F
100
AcDbEntity
  8
1
  6
PHANTOM
 48
0.5
100
AcDbLine
 10
14449.72277640145
 20
2346.617321746547
 30
0.0
 11
14511.72277640145
 21
2346.617321746549
 31
0.0
  0
LINE
  5
5DFA
330
1F
100
AcDbEntity
  8
1
  6
PHANTOM
 48
0.5
100
AcDbLine
 10
14449.72277640145
 20
2349.817321746547
 30
0.0
 11
14511.72277640145
 21
2349.817321746549
 31
0.0
  0
LINE
  5
5DFB
330
1F
100
AcDbEntity
  8
1
  6
CENTER
 48
0.5
100
AcDbLine
 10
14442.86348017732
 20
2316.117321746549
 30
0.0
 11
14475.79380280908
 21
2316.117321746549
 31
0.0
  0
LINE
  5
5F26
330
1F
100
AcDbEntity
  8
1
  6
HIDDEN
 48
0.5
100
AcDbLine
 10
13791.83384332011
 20
2349.767321746548
 30
0.0
 11
13819.83384332011
 21
2349.767321746548
 31
0.0
  0
LINE
  5
5F2A
330
1F
100
AcDbEntity
  8
1
  6
PHANTOM
 48
0.5
100
AcDbLine
 10
13791.83384332011
 20
2350.017321746546
 30
0.0
 11
13841.83384332011
 21
2350.017321746548
 31
0.0
  0
LINE
  5
5F2B
330
1F
100
AcDbEntity
  8
1
  6
PHANTOM
 48
0.5
100
AcDbLine
 10
13791.83384332011
 20
2352.817321746548
 30
0.0
 11
13841.83384332011
 21
2352.817321746549
 31
0.0
  0
LINE
  5
5F2C
330
1F
100
AcDbEntity
  8
1
  6
CENTER
 48
0.5
100
AcDbLine
 10
13785.97454709598
 20
2321.117321746547
 30
0.0
 11
13811.69313954424
 21
2321.117321746547
 31
0.0
  0
LINE
  5
6028
330
1F
100
AcDbEntity
  8
1
  6
HIDDEN
 48
0.5
100
AcDbLine
 10
13181.53731990557
 20
2352.517321746548
 30
0.0
 11
13207.53731990557
 21
2352.517321746544
 31
0.0
  0
LINE
  5
602C
330
1F
100
AcDbEntity
  8
1
  6
PHANTOM
 48
0.5
100
AcDbLine
 10
13181.53731990557
 20
2352.767321746547
 30
0.0
 11
13230.53731990557
 21
2352.767321746547
 31
0.0
  0
LINE
  5
602D
330
1F
100
AcDbEntity
  8
1
  6
PHANTOM
 48
0.5
100
AcDbLine
 10
13181.53731990557
 20
2355.567321746548
 30
0.0
 11
13230.53731990557
 21
2355.567321746548
 31
0.0
  0
LINE
  5
603C
330
1F
100
AcDbEntity
  8
1
  6
CENTER
 48
0.5
100
AcDbLine
 10
13173.17802368144
 20
2323.617321746547
 30
0.0
 11
13208.14880988615
 21
2323.617321746545
 31
0.0
  0
LINE
  5
610F
330
1F
100
AcDbEntity
  8
1
  6
HIDDEN
 48
0.5
100
AcDbLine
 10
12582.90041664996
 20
2354.717321746549
 30
0.0
 11
12606.90041664995
 21
2354.717321746548
 31
0.0
  0
LINE
  5
6110
330
1F
100
AcDbEntity
  8
1
100
AcDbLine
 10
12597.90041664996
 20
2308.617321746551
 30
0.0
 11
12583.90041664996
 21
2308.617321746551
 31
0.0
  0
LINE
  5
6113
330
1F
100
AcDbEntity
  8
1
  6
PHANTOM
 48
0.5
100
AcDbLine
 10
12582.90041664996
 20
2354.967321746549
 30
0.0
 11
12631.90041664996
 21
2354.967321746549
 31
0.0
  0
LINE
  5
6114
330
1F
100
AcDbEntity
  8
1
  6
PHANTOM
 48
0.5
100
AcDbLine
 10
12582.90041664996
 20
2357.267321746549
 30
0.0
 11
12631.90041664996
 21
2357.267321746549
 31
0.0
  0
LINE
  5
6115
330
1F
100
AcDbEntity
  8
1
  6
CENTER
 48
0.2
100
AcDbLine
 10
12576.69321557707
 20
2326.117321746548
 30
0.0
 11
12602.90041664996
 21
2326.117321746549
 31
0.0
  0
LINE
  5
7BC7
330
1F
100
AcDbEntity
  8
1
  6
CENTER
 48
0.5
100
AcDbLine
 10
12461.11503840004
 20
2381.294991276211
 30
0.0
 11
12443.43736887037
 21
2398.972660805876
 31
0.0
  0
LINE
  5
7BE3
330
1F
100
AcDbEntity
  8
1
100
AcDbLine
 10
12582.90041664996
 20
2337.61732174655
 30
0.0
 11
12582.90041664996
 21
2389.617321746549
 31
0.0
  0
LINE
  5
7C03
330
1F
100
AcDbEntity
  8
1
  6
CENTER
 48
0.5
100
AcDbLine
 10
13047.96673964589
 20
2383.062758229176
 30
0.0
 11
13030.28907011622
 21
2400.740427758837
 31
0.0
  0
LINE
  5
7C1E
330
1F
100
AcDbEntity
  8
1
100
AcDbLine
 10
13181.53731990557
 20
2391.117321746547
 30
0.0
 11
13181.53731990557
 21
2336.117321746548
 31
0.0
  0
LINE
  5
7C42
330
1F
100
AcDbEntity
  8
1
  6
CENTER
 48
0.5
100
AcDbLine
 10
13657.2213610614
 20
2384.830525182139
 30
0.0
 11
13639.54369153174
 21
2402.508194711802
 31
0.0
  0
LINE
  5
7C5D
330
1F
100
AcDbEntity
  8
1
100
AcDbLine
 10
13791.83384332011
 20
2393.617321746548
 30
0.0
 11
13791.83384332011
 21
2333.617321746548
 31
0.0
  0
LINE
  5
7C83
330
1F
100
AcDbEntity
  8
1
  6
CENTER
 48
0.5
100
AcDbLine
 10
14295.6463692284
 20
2388.36605908808
 30
0.0
 11
14277.96869969874
 21
2406.043728617743
 31
0.0
  0
LINE
  5
7C88
330
1F
100
AcDbEntity
  8
1
  6
HIDDEN
 48
0.5
100
AcDbLine
 10
14450.72277640145
 20
2420.617321746546
 30
0.0
 11
14469.72277640145
 21
2420.617321746548
 31
0.0
  0
LINE
  5
7C89
330
1F
100
AcDbEntity
  8
1
  6
HIDDEN
 48
0.5
100
AcDbLine
 10
14450.72277640145
 20
2401.617321746547
 30
0.0
 11
14469.72277640145
 21
2401.617321746547
 31
0.0
  0
LINE
  5
7CA9
330
1F
100
AcDbEntity
  8
1
  6
HIDDEN
 48
0.5
100
AcDbLine
 10
14450.72277640145
 20
2325.617321746551
 30
0.0
 11
14469.72277640145
 21
2325.61732174655
 31
0.0
  0
LINE
  5
7CAA
330
1F
100
AcDbEntity
  8
1
  6
HIDDEN
 48
0.5
100
AcDbLine
 10
14450.72277640145
 20
2306.617321746551
 30
0.0
 11
14469.72277640145
 21
2306.61732174655
 31
0.0
  0
LINE
  5
7CBE
330
1F
100
AcDbEntity
  8
1
100
AcDbLine
 10
14449.72277640145
 20
2398.617321746549
 30
0.0
 11
14449.72277640145
 21
2328.617321746546
 31
0.0
  0
LINE
  5
7CDC
330
1F
100
AcDbEntity
  8
1
  6
CENTER
 48
0.5
100
AcDbLine
 10
14961.82582385563
 20
2391.901592994015
 30
0.0
 11
14944.14815432596
 21
2409.579262523677
 31
0.0
  0
LINE
  5
7CE1
330
1F
100
AcDbEntity
  8
1
  6
HIDDEN
 48
0.5
100
AcDbLine
 10
15160.89619705296
 20
2425.617321746548
 30
0.0
 11
15140.89619705296
 21
2425.617321746548
 31
0.0
  0
LINE
  5
7CE2
330
1F
100
AcDbEntity
  8
1
  6
HIDDEN
 48
0.5
100
AcDbLine
 10
15160.89619705296
 20
2406.617321746548
 30
0.0
 11
15140.89619705296
 21
2406.617321746546
 31
0.0
  0
LINE
  5
7CE3
330
1F
100
AcDbEntity
  8
1
  6
HIDDEN
 48
0.5
100
AcDbLine
 10
15160.89619705296
 20
2320.617321746548
 30
0.0
 11
15140.89619705296
 21
2320.617321746548
 31
0.0
  0
LINE
  5
7CE4
330
1F
100
AcDbEntity
  8
1
  6
HIDDEN
 48
0.5
100
AcDbLine
 10
15160.89619705296
 20
2301.617321746547
 30
0.0
 11
15140.89619705296
 21
2301.617321746547
 31
0.0
  0
LINE
  5
7CE5
330
1F
100
AcDbEntity
  8
1
100
AcDbLine
 10
15138.89619705295
 20
2403.617321746547
 30
0.0
 11
15138.89619705295
 21
2323.617321746548
 31
0.0
  0
LINE
  5
7D26
330
1F
100
AcDbEntity
  8
1
  6
CENTER
 48
0.5
100
AcDbLine
 10
15658.02561847776
 20
2394.376466728163
 30
0.0
 11
15634.69109469861
 21
2417.710990507318
 31
0.0
  0
LINE
  5
7D4E
330
1F
100
AcDbEntity
  8
1
100
AcDbLine
 10
15843.37750074982
 20
2408.617321746548
 30
0.0
 11
15843.37750074982
 21
2318.617321746548
 31
0.0
  0
LINE
  5
7D75
330
1F
100
AcDbEntity
  8
1
  6
HIDDEN
 48
0.5
100
AcDbLine
 10
16564.59951346258
 20
2438.117321746548
 30
0.0
 11
16544.59951346258
 21
2438.117321746548
 31
0.0
  0
LINE
  5
7D76
330
1F
100
AcDbEntity
  8
1
  6
HIDDEN
 48
0.5
100
AcDbLine
 10
16564.59951346258
 20
2419.117321746548
 30
0.0
 11
16544.59951346258
 21
2419.117321746548
 31
0.0
  0
LINE
  5
7D96
330
1F
100
AcDbEntity
  8
1
100
AcDbLine
 10
16542.59951346259
 20
2416.117321746547
 30
0.0
 11
16542.59951346258
 21
2311.117321746548
 31
0.0
  0
LINE
  5
7DE0
330
1F
100
AcDbEntity
  8
1
100
AcDbLine
 10
17281.57539029401
 20
2463.617321746549
 30
0.0
 11
17281.57539029401
 21
2263.617321746545
 31
0.0
  0
LINE
  5
7E11
330
1F
100
AcDbEntity
  8
1
  6
CENTER
 48
0.5
100
AcDbLine
 10
17844.16497641404
 20
2424.439390970208
 30
0.0
 11
17829.49544484005
 21
2459.854773049806
 31
0.0
  0
LINE
  5
7E1F
330
1F
100
AcDbEntity
  8
1
  6
HIDDEN
 48
0.5
100
AcDbLine
 10
18108.07202643633
 20
2460.117321746548
 30
0.0
 11
18082.07202643633
 21
2460.117321746548
 31
0.0
  0
LINE
  5
7E21
330
1F
100
AcDbEntity
  8
1
  6
HIDDEN
 48
0.5
100
AcDbLine
 10
18108.07202643633
 20
2290.117321746547
 30
0.0
 11
18082.07202643633
 21
2290.117321746548
 31
0.0
  0
LINE
  5
7E22
330
1F
100
AcDbEntity
  8
1
  6
HIDDEN
 48
0.5
100
AcDbLine
 10
18108.07202643633
 20
2267.117321746547
 30
0.0
 11
18082.07202643633
 21
2267.117321746548
 31
0.0
  0
LINE
  5
7E3D
330
1F
100
AcDbEntity
  8
1
100
AcDbLine
 10
18080.07202643634
 20
2433.617321746547
 30
0.0
 11
18080.07202643634
 21
2293.617321746548
 31
0.0
  0
LINE
  5
7E7F
330
1F
100
AcDbEntity
  8
1
  6
CENTER
 48
0.5
100
AcDbLine
 10
12462.00945538473
 20
2006.073056693615
 30
0.0
 11
12447.33992381074
 21
2041.488438773214
 31
0.0
  0
LINE
  5
7EC2
330
1F
100
AcDbEntity
  8
1
100
AcDbLine
 10
12717.14191644447
 20
2013.321890976124
 30
0.0
 11
12717.14191644447
 21
1863.321890976123
 31
0.0
  0
LINE
  5
7ECD
330
1F
100
AcDbEntity
  8
1
  6
CENTER
 48
0.5
100
AcDbLine
 10
13181.48079131269
 20
2010.692454356171
 30
0.0
 11
13166.8112597387
 21
2046.10783643577
 31
0.0
  0
LINE
  5
7EF1
330
1F
100
AcDbEntity
  8
1
  6
HIDDEN
100
AcDbLine
 10
13488.71670296303
 20
2048.321890976124
 30
0.0
 11
13458.71670296304
 21
2048.321890976124
 31
0.0
  0
LINE
  5
7EF2
330
1F
100
AcDbEntity
  8
1
  6
HIDDEN
100
AcDbLine
 10
13488.71670296303
 20
2023.321890976124
 30
0.0
 11
13458.71670296304
 21
2023.321890976124
 31
0.0
  0
LINE
  5
7EF3
330
1F
100
AcDbEntity
  8
1
  6
HIDDEN
100
AcDbLine
 10
13488.71670296303
 20
1853.321890976123
 30
0.0
 11
13458.71670296303
 21
1853.321890976124
 31
0.0
  0
LINE
  5
7EF4
330
1F
100
AcDbEntity
  8
1
  6
HIDDEN
100
AcDbLine
 10
13488.71670296303
 20
1828.321890976123
 30
0.0
 11
13458.71670296303
 21
1828.321890976124
 31
0.0
  0
LINE
  5
7F18
330
1F
100
AcDbEntity
  8
1
100
AcDbLine
 10
13456.71670296303
 20
2018.321890976123
 30
0.0
 11
13456.71670296303
 21
1858.321890976124
 31
0.0
  0
LINE
  5
7F3E
330
1F
100
AcDbEntity
  8
1
  6
CENTER
 48
0.5
100
AcDbLine
 10
13897.99032574609
 20
2026.941388239368
 30
0.0
 11
13883.38793161638
 21
2062.194686190462
 31
0.0
  0
LINE
  5
7F4B
330
1F
100
AcDbEntity
  8
1
  6
HIDDEN
100
AcDbLine
 10
14215.09236465123
 20
2065.821890976124
 30
0.0
 11
14181.09236465123
 21
2065.821890976124
 31
0.0
  0
LINE
  5
7F4C
330
1F
100
AcDbEntity
  8
1
  6
HIDDEN
100
AcDbLine
 10
14215.09236465123
 20
2040.821890976124
 30
0.0
 11
14181.09236465123
 21
2040.821890976124
 31
0.0
  0
LINE
  5
7F4D
330
1F
100
AcDbEntity
  8
1
  6
HIDDEN
100
AcDbLine
 10
14215.09236465123
 20
1810.821890976123
 30
0.0
 11
14181.09236465123
 21
1810.821890976123
 31
0.0
  0
LINE
  5
7F4E
330
1F
100
AcDbEntity
  8
1
  6
HIDDEN
100
AcDbLine
 10
14215.09236465123
 20
1835.821890976123
 30
0.0
 11
14181.09236465123
 21
1835.821890976123
 31
0.0
  0
LINE
  5
7F72
330
1F
100
AcDbEntity
  8
1
100
AcDbLine
 10
14179.09236465123
 20
2035.821890976123
 30
0.0
 11
14179.09236465123
 21
1840.821890976123
 31
0.0
  0
LINE
  5
7F98
330
1F
100
AcDbEntity
  8
1
  6
CENTER
 48
0.5
100
AcDbLine
 10
14659.62567740842
 20
2052.707844089308
 30
0.0
 11
14649.74968752952
 21
2089.565540092446
 31
0.0
  0
LINE
  5
7FB2
330
1F
100
AcDbEntity
  8
1
100
AcDbLine
 10
14977.17747254153
 20
2055.821890976124
 30
0.0
 11
14977.17747254154
 21
1820.821890976123
 31
0.0
  0
LINE
  5
8050
330
1F
100
AcDbEntity
  8
1
  6
HIDDEN
100
AcDbLine
 10
16623.40137970334
 20
2111.821890976123
 30
0.0
 11
16583.40137970334
 21
2111.821890976124
 31
0.0
  0
LINE
  5
8052
330
1F
100
AcDbEntity
  8
1
  6
HIDDEN
100
AcDbLine
 10
16623.40137970334
 20
1764.821890976123
 30
0.0
 11
16583.40137970334
 21
1764.821890976123
 31
0.0
  0
LINE
  5
8053
330
1F
100
AcDbEntity
  8
1
  6
HIDDEN
100
AcDbLine
 10
16623.40137970334
 20
1791.821890976123
 30
0.0
 11
16583.40137970334
 21
1791.821890976124
 31
0.0
  0
LINE
  5
8054
330
1F
100
AcDbEntity
  8
1
100
AcDbLine
 10
16581.40137970334
 20
2078.321890976123
 30
0.0
 11
16581.40137970334
 21
1798.321890976123
 31
0.0
  0
LINE
  5
8151
330
1F
100
AcDbEntity
  8
1
100
AcDbLine
 10
18256.3188423791
 20
2110.821890976124
 30
0.0
 11
18256.31884237909
 21
1765.821890976123
 31
0.0
  0
LINE
  5
8169
330
1F
100
AcDbEntity
  8
1
  6
HIDDEN
100
AcDbLine
 10
18304.3188423791
 20
2149.821890976124
 30
0.0
 11
18258.3188423791
 21
2149.821890976121
 31
0.0
  0
LINE
  5
816A
330
1F
100
AcDbEntity
  8
1
  6
HIDDEN
100
AcDbLine
 10
18304.3188423791
 20
2116.821890976124
 30
0.0
 11
18258.3188423791
 21
2116.821890976122
 31
0.0
  0
LINE
  5
816B
330
1F
100
AcDbEntity
  8
1
  6
HIDDEN
100
AcDbLine
 10
18304.3188423791
 20
1759.821890976123
 30
0.0
 11
18258.31884237909
 21
1759.821890976126
 31
0.0
  0
LINE
  5
816C
330
1F
100
AcDbEntity
  8
1
  6
HIDDEN
100
AcDbLine
 10
18304.3188423791
 20
1726.821890976123
 30
0.0
 11
18258.31884237909
 21
1726.821890976125
 31
0.0
  0
LINE
  5
820F
330
1F
100
AcDbEntity
  8
1
100
AcDbLine
 10
12869.67124920777
 20
1401.119440937447
 30
0.0
 11
12869.67124920779
 21
996.1194409374474
 31
0.0
  0
LINE
  5
821B
330
1F
100
AcDbEntity
  8
1
  6
HIDDEN
100
AcDbLine
 10
12921.67124920778
 20
1440.119440937446
 30
0.0
 11
12872.67124920778
 21
1440.119440937446
 31
0.0
  0
LINE
  5
821C
330
1F
100
AcDbEntity
  8
1
  6
HIDDEN
100
AcDbLine
 10
12921.67124920778
 20
1407.119440937446
 30
0.0
 11
12872.67124920778
 21
1407.119440937447
 31
0.0
  0
LINE
  5
821D
330
1F
100
AcDbEntity
  8
1
  6
HIDDEN
100
AcDbLine
 10
12921.67124920778
 20
957.1194409374472
 30
0.0
 11
12872.67124920779
 21
957.1194409374475
 31
0.0
  0
LINE
  5
821E
330
1F
100
AcDbEntity
  8
1
  6
HIDDEN
100
AcDbLine
 10
12921.67124920778
 20
990.1194409374472
 30
0.0
 11
12872.67124920779
 21
990.1194409374475
 31
0.0
  0
CIRCLE
  5
8255
330
1F
100
AcDbEntity
  8
1
100
AcDbCircle
 10
13336.79316475012
 20
1441.363797837246
 30
0.0
 40
16.5
  0
LINE
  5
8256
330
1F
100
AcDbEntity
  8
1
  6
CENTER
100
AcDbLine
 10
13342.21494238551
 20
1414.106681013337
 30
0.0
 11
13331.37138711473
 21
1468.620914661156
 31
0.0
  0
LINE
  5
8274
330
1F
100
AcDbEntity
  8
1
  6
HIDDEN
100
AcDbLine
 10
13838.8769686331
 20
1462.619440937447
 30
0.0
 11
13787.8769686331
 21
1462.619440937447
 31
0.0
  0
LINE
  5
8275
330
1F
100
AcDbEntity
  8
1
  6
HIDDEN
100
AcDbLine
 10
13838.8769686331
 20
1429.619440937447
 30
0.0
 11
13787.8769686331
 21
1429.619440937447
 31
0.0
  0
LINE
  5
8276
330
1F
100
AcDbEntity
  8
1
  6
HIDDEN
100
AcDbLine
 10
13838.8769686331
 20
934.6194409374474
 30
0.0
 11
13787.8769686331
 21
934.6194409374476
 31
0.0
  0
LINE
  5
8277
330
1F
100
AcDbEntity
  8
1
  6
HIDDEN
100
AcDbLine
 10
13838.8769686331
 20
967.6194409374474
 30
0.0
 11
13787.8769686331
 21
967.6194409374472
 31
0.0
  0
LINE
  5
82BB
330
1F
100
AcDbEntity
  8
1
100
AcDbLine
 10
13784.8769686331
 20
1423.619440937447
 30
0.0
 11
13784.8769686331
 21
973.6194409374476
 31
0.0
  0
LINE
  5
82E0
330
1F
100
AcDbEntity
  8
1
  6
CENTER
100
AcDbLine
 10
14341.70470450088
 20
1447.640823631827
 30
0.0
 11
14331.52098969164
 21
1498.837815268877
 31
0.0
  0
LINE
  5
830E
330
1F
100
AcDbEntity
  8
1
  6
HIDDEN
100
AcDbLine
 10
14942.47926795766
 20
1459.119440937447
 30
0.0
 11
14885.47926795767
 21
1459.119440937447
 31
0.0
  0
LINE
  5
8312
330
1F
100
AcDbEntity
  8
1
  6
HIDDEN
100
AcDbLine
 10
14942.47926795767
 20
899.1194409374472
 30
0.0
 11
14885.47926795767
 21
899.1194409374472
 31
0.0
  0
LINE
  5
8314
330
1F
100
AcDbEntity
  8
1
  6
HIDDEN
100
AcDbLine
 10
14942.47926795766
 20
1498.119440937447
 30
0.0
 11
14885.47926795767
 21
1498.119440937446
 31
0.0
  0
LINE
  5
8316
330
1F
100
AcDbEntity
  8
1
  6
HIDDEN
100
AcDbLine
 10
14942.47926795767
 20
938.1194409374471
 30
0.0
 11
14885.47926795767
 21
938.1194409374471
 31
0.0
  0
LINE
  5
8318
330
1F
100
AcDbEntity
  8
1
100
AcDbLine
 10
14882.47926795767
 20
1453.619440937447
 30
0.0
 11
14882.47926795767
 21
943.6194409374476
 31
0.0
  0
MTEXT
  5
970B
330
1F
100
AcDbEntity
  8
1
100
AcDbMText
 10
15640.33207231276
 20
2223.051786583881
 30
0.0
 40
40.0
 41
366.9335000018478
 71
     1
 72
     5
  1
40A-30K
 73
     1
 44
1.0
1001
ACAD
1000
MTEXTBEGIN
1070
    73
1070
     1
1070
    44
1040
1.0
1070
    74
1070
     0
1000
MTEXTEND
  0
MTEXT
  5
970C
330
1F
100
AcDbEntity
  8
1
100
AcDbMText
 10
12397.88557167136
 20
2234.649300458943
 30
0.0
 40
40.0
 41
363.071103552209
 71
     1
 72
     5
  1
10A-30K
 73
     1
 44
1.0
1001
ACAD
1000
MTEXTBEGIN
1070
    73
1070
     1
1070
    44
1040
1.0
1070
    74
1070
     0
1000
MTEXTEND
  0
MTEXT
  5
970D
330
1F
100
AcDbEntity
  8
1
100
AcDbMText
 10
13620.0205631311
 20
2223.743079705049
 30
0.0
 40
40.0
 41
368.9559070171847
 71
     1
 72
     5
  1
20A-30K
 73
     1
 44
1.0
1001
ACAD
1000
MTEXTBEGIN
1070
    73
1070
     1
1070
    44
1040
1.0
1070
    74
1070
     0
1000
MTEXTEND
  0
MTEXT
  5
970E
330
1F
100
AcDbEntity
  8
1
100
AcDbMText
 10
14265.15819315091
 20
2224.663647036399
 30
0.0
 40
40.0
 41
370.6915511062466
 71
     1
 72
     5
  1
25A-30K
 73
     1
 44
1.0
1001
ACAD
1000
MTEXTBEGIN
1070
    73
1070
     1
1070
    44
1040
1.0
1070
    74
1070
     0
1000
MTEXTEND
  0
MTEXT
  5
970F
330
1F
100
AcDbEntity
  8
1
100
AcDbMText
 10
14936.50599813336
 20
2225.0801627448
 30
0.0
 40
40.0
 41
368.6739730679073
 71
     1
 72
     5
  1
32A-30K
 73
     1
 44
1.0
1001
ACAD
1000
MTEXTBEGIN
1070
    73
1070
     1
1070
    44
1040
1.0
1070
    74
1070
     0
1000
MTEXTEND
  0
MTEXT
  5
9710
330
1F
100
AcDbEntity
  8
1
100
AcDbMText
 10
16340.01198492802
 20
2224.02206265631
 30
0.0
 40
40.0
 41
376.115475480589
 71
     1
 72
     5
  1
50A-30K
 73
     1
 44
1.0
1001
ACAD
1000
MTEXTBEGIN
1070
    73
1070
     1
1070
    44
1040
1.0
1070
    74
1070
     0
1000
MTEXTEND
  0
MTEXT
  5
9711
330
1F
100
AcDbEntity
  8
1
100
AcDbMText
 10
13127.89370353029
 20
1663.42985701393
 30
0.0
 40
50.0
 41
514.29252625287
 71
     1
 72
     5
  1
100A-30K
 73
     1
 44
1.0
1001
ACAD
1000
MTEXTBEGIN
1070
    73
1070
     1
1070
    44
1040
1.0
1070
    74
1070
     0
1000
MTEXTEND
  0
MTEXT
  5
9712
330
1F
100
AcDbEntity
  8
1
100
AcDbMText
 10
13862.74652137958
 20
1665.00216453115
 30
0.0
 40
50.0
 41
507.9415250592465
 71
     1
 72
     5
  1
125A-30K
 73
     1
 44
1.0
1001
ACAD
1000
MTEXTBEGIN
1070
    73
1070
     1
1070
    44
1040
1.0
1070
    74
1070
     0
1000
MTEXTEND
  0
MTEXT
  5
9713
330
1F
100
AcDbEntity
  8
1
100
AcDbMText
 10
14544.56464711402
 20
1664.226650180433
 30
0.0
 40
50.0
 41
515.0377969402406
 71
     1
 72
     5
  1
150A-30K
 73
     1
 44
1.0
1001
ACAD
1000
MTEXTBEGIN
1070
    73
1070
     1
1070
    44
1040
1.0
1070
    74
1070
     0
1000
MTEXTEND
  0
MTEXT
  5
9714
330
1F
100
AcDbEntity
  8
1
100
AcDbMText
 10
12403.29620812913
 20
764.2087616011267
 30
0.0
 40
50.0
 41
516.5093077859693
 71
     1
 72
     5
  1
300A-30K
 73
     1
 44
1.0
1001
ACAD
1000
MTEXTBEGIN
1070
    73
1070
     1
1070
    44
1040
1.0
1070
    74
1070
     0
1000
MTEXTEND
  0
MTEXT
  5
9715
330
1F
100
AcDbEntity
  8
1
100
AcDbMText
 10
12995.00692909678
 20
2233.862170064025
 30
0.0
 40
40.0
 41
364.5680458721853
 71
     1
 72
     5
  1
15A-30K
 73
     1
 44
1.0
1001
ACAD
1000
MTEXTBEGIN
1070
    73
1070
     1
1070
    44
1040
1.0
1070
    74
1070
     0
1000
MTEXTEND
  0
MTEXT
  5
9716
330
1F
100
AcDbEntity
  8
1
100
AcDbMText
 10
17079.28400137299
 20
2221.25279743639
 30
0.0
 40
40.0
 41
376.2748082360924
 71
     1
 72
     5
  1
65A-30K
 73
     1
 44
1.0
1001
ACAD
1000
MTEXTBEGIN
1070
    73
1070
     1
1070
    44
1040
1.0
1070
    74
1070
     0
1000
MTEXTEND
  0
MTEXT
  5
9717
330
1F
100
AcDbEntity
  8
1
100
AcDbMText
 10
17815.025292512
 20
2223.913800554074
 30
0.0
 40
40.0
 41
369.062643320536
 71
     1
 72
     5
  1
80A-30K
 73
     1
 44
1.0
1001
ACAD
1000
MTEXTBEGIN
1070
    73
1070
     1
1070
    44
1040
1.0
1070
    74
1070
     0
1000
MTEXTEND
  0
MTEXT
  5
9718
330
1F
100
AcDbEntity
  8
1
100
AcDbMText
 10
13494.40577909761
 20
-5473.850765067724
 30
0.0
 40
50.0
 41
191.396
 71
     1
 72
     5
  1
1350A-30K
 73
     1
 44
1.0
1001
ACAD
1000
MTEXTBEGIN
1070
    73
1070
     1
1070
    44
1040
1.0
1070
    74
1070
     0
1000
MTEXTEND
  0
MTEXT
  5
9719
330
1F
100
AcDbEntity
  8
1
100
AcDbMText
 10
17038.40390764862
 20
-3473.850765067709
 30
0.0
 40
50.0
 41
191.396
 71
     1
 72
     5
  1
1200A-30K
 73
     1
 44
1.0
1001
ACAD
1000
MTEXTBEGIN
1070
    73
1070
     1
1070
    44
1040
1.0
1070
    74
1070
     0
1000
MTEXTEND
  0
LINE
  5
971A
330
1F
100
AcDbEntity
  8
1
100
AcDbLine
 10
12228.33035205007
 20
-5545.85044337415
 30
0.0
 11
18428.33035205007
 21
-5545.85044337415
 31
0.0
  0
LINE
  5
971B
330
1F
100
AcDbEntity
  8
1
100
AcDbLine
 10
12228.33035205007
 20
-1895.850443374154
 30
0.0
 11
18428.33035205007
 21
-1895.850443374152
 31
0.0
  0
LINE
  5
971C
330
1F
100
AcDbEntity
  8
1
100
AcDbLine
 10
12228.33035205007
 20
-495.8504433741491
 30
0.0
 11
18428.33035205007
 21
-495.8504433741491
 31
0.0
  0
LINE
  5
971D
330
1F
100
AcDbEntity
  8
1
100
AcDbLine
 10
12228.33035205007
 20
704.1495566258528
 30
0.0
 11
18428.33035205006
 21
704.1495566258528
 31
0.0
  0
LINE
  5
971E
330
1F
100
AcDbEntity
  8
1
100
AcDbLine
 10
12228.33035205007
 20
1604.149556625852
 30
0.0
 11
18428.33035205006
 21
1604.149556625852
 31
0.0
  0
LINE
  5
971F
330
1F
100
AcDbEntity
  8
1
100
AcDbLine
 10
12228.33035205007
 20
2174.149556625843
 30
0.0
 11
18428.33035205006
 21
2174.149556625843
 31
0.0
  0
LINE
  5
9720
330
1F
100
AcDbEntity
  8
1
100
AcDbLine
 10
12228.33035205007
 20
2474.149556625844
 30
0.0
 11
18428.33035205006
 21
2474.149556625844
 31
0.0
  0
LINE
  5
9721
330
1F
100
AcDbEntity
  8
1
100
AcDbLine
 10
15228.33035205007
 20
-5545.85044337415
 30
0.0
 11
15228.33035205007
 21
-3545.850443374151
 31
0.0
  0
LINE
  5
9722
330
1F
100
AcDbEntity
  8
1
100
AcDbLine
 10
12228.33035205007
 20
-5545.85044337415
 30
0.0
 11
12228.33035205006
 21
2474.149556625844
 31
0.0
  0
LINE
  5
9725
330
1F
100
AcDbEntity
  8
1
100
AcDbLine
 10
18428.33035205007
 20
-5545.85044337415
 30
0.0
 11
18428.33035205006
 21
2474.149556625844
 31
0.0
  0
LINE
  5
9726
330
1F
100
AcDbEntity
  8
1
100
AcDbLine
 10
16778.33035205007
 20
-1895.850443374152
 30
0.0
 11
16778.33035205007
 21
2174.149556625843
 31
0.0
  0
LINE
  5
9727
330
1F
100
AcDbEntity
  8
1
100
AcDbLine
 10
15178.33035205007
 20
-1895.850443374154
 30
0.0
 11
15178.33035205006
 21
2174.149556625842
 31
0.0
  0
LINE
  5
9728
330
1F
100
AcDbEntity
  8
1
100
AcDbLine
 10
13678.33035205007
 20
-1895.850443374154
 30
0.0
 11
13678.33035205006
 21
704.1495566258528
 31
0.0
  0
LINE
  5
9729
330
1F
100
AcDbEntity
  8
1
100
AcDbLine
 10
13678.33035205006
 20
1604.149556625855
 30
0.0
 11
13678.33035205006
 21
2174.149556625842
 31
0.0
  0
LINE
  5
972A
330
1F
100
AcDbEntity
  8
1
100
AcDbLine
 10
16128.33035205007
 20
-3545.850443374151
 30
0.0
 11
16128.33035205006
 21
-1895.850443374154
 31
0.0
  0
LINE
  5
972B
330
1F
100
AcDbEntity
  8
1
100
AcDbLine
 10
14128.33035205007
 20
-3545.850443374155
 30
0.0
 11
14128.33035205007
 21
-1895.850443374154
 31
0.0
  0
MTEXT
  5
972C
330
1F
100
AcDbEntity
  8
1
100
AcDbMText
 10
14892.86225835406
 20
-3473.850765067722
 30
0.0
 40
50.0
 41
191.396
 71
     1
 72
     5
  1
1100A-30K
 73
     1
 44
1.0
1001
ACAD
1000
MTEXTBEGIN
1070
    73
1070
     1
1070
    44
1040
1.0
1070
    74
1070
     0
1000
MTEXTEND
  0
MTEXT
  5
972D
330
1F
100
AcDbEntity
  8
1
100
AcDbMText
 10
12931.37501541296
 20
-3473.850765067722
 30
0.0
 40
50.0
 41
191.396
 71
     1
 72
     5
  1
1000A-30K
 73
     1
 44
1.0
1001
ACAD
1000
MTEXTBEGIN
1070
    73
1070
     1
1070
    44
1040
1.0
1070
    74
1070
     0
1000
MTEXTEND
  0
MTEXT
  5
972F
330
1F
100
AcDbEntity
  8
1
100
AcDbMText
 10
17413.63389569091
 20
-1829.640351458753
 30
0.0
 40
50.0
 41
191.396
 71
     1
 72
     5
  1
900A-30K
 73
     1
 44
1.0
1001
ACAD
1000
MTEXTBEGIN
1070
    73
1070
     1
1070
    44
1040
1.0
1070
    74
1070
     0
1000
MTEXTEND
  0
MTEXT
  5
9730
330
1F
100
AcDbEntity
  8
1
100
AcDbMText
 10
15788.10485174783
 20
-1829.640351458753
 30
0.0
 40
50.0
 41
191.396
 71
     1
 72
     5
  1
850A-30K
 73
     1
 44
1.0
1001
ACAD
1000
MTEXTBEGIN
1070
    73
1070
     1
1070
    44
1040
1.0
1070
    74
1070
     0
1000
MTEXTEND
  0
MTEXT
  5
9731
330
1F
100
AcDbEntity
  8
1
100
AcDbMText
 10
14242.22998854494
 20
-1829.640351458753
 30
0.0
 40
50.0
 41
191.396
 71
     1
 72
     5
  1
800A-30K
 73
     1
 44
1.0
1001
ACAD
1000
MTEXTBEGIN
1070
    73
1070
     1
1070
    44
1040
1.0
1070
    74
1070
     0
1000
MTEXTEND
  0
MTEXT
  5
9732
330
1F
100
AcDbEntity
  8
1
100
AcDbMText
 10
12767.43219918439
 20
-1829.640351458753
 30
0.0
 40
50.0
 41
191.396
 71
     1
 72
     5
  1
750A-30K
 73
     1
 44
1.0
1001
ACAD
1000
MTEXTBEGIN
1070
    73
1070
     1
1070
    44
1040
1.0
1070
    74
1070
     0
1000
MTEXTEND
  0
MTEXT
  5
9733
330
1F
100
AcDbEntity
  8
1
100
AcDbMText
 10
17414.35630557999
 20
-429.6403514587455
 30
0.0
 40
50.0
 41
480.0
 71
     1
 72
     5
  1
700A-30K
 73
     1
 44
1.0
1001
ACAD
1000
MTEXTBEGIN
1070
    73
1070
     1
1070
    44
1040
1.0
1070
    74
1070
     0
1000
MTEXTEND
  0
MTEXT
  5
9734
330
1F
100
AcDbEntity
  8
1
100
AcDbMText
 10
15792.39286331761
 20
-429.6403514587437
 30
0.0
 40
50.0
 41
435.5555555555555
 71
     1
 72
     5
  1
650A-30K
 73
     1
 44
1.0
1001
ACAD
1000
MTEXTBEGIN
1070
    73
1070
     1
1070
    44
1040
1.0
1070
    74
1070
     0
1000
MTEXTEND
  0
MTEXT
  5
9735
330
1F
100
AcDbEntity
  8
1
100
AcDbMText
 10
14239.87768676419
 20
-429.6403514587543
 30
0.0
 40
50.0
 41
430.0
 71
     1
 72
     5
  1
600A-30K
 73
     1
 44
1.0
1001
ACAD
1000
MTEXTBEGIN
1070
    73
1070
     1
1070
    44
1040
1.0
1070
    74
1070
     0
1000
MTEXTEND
  0
MTEXT
  5
9736
102
{ACAD_XDICTIONARY
360
E4E4
102
}
330
1F
100
AcDbEntity
  8
1
100
AcDbMText
 10
12762.30772648681
 20
-429.6403514587543
 30
0.0
 40
50.0
 41
424.4444444444441
 71
     1
 72
     5
  1
550A-30K
 73
     1
 44
1.0
1001
ACAD
1000
MTEXTBEGIN
1070
    73
1070
     1
1070
    44
1040
1.0
1070
    74
1070
     0
1000
MTEXTEND
  0
MTEXT
  5
9737
330
1F
100
AcDbEntity
  8
1
100
AcDbMText
 10
17418.86819937313
 20
770.3596485412417
 30
0.0
 40
50.0
 41
191.396
 71
     1
 72
     5
  1
500A-30K
 73
     1
 44
1.0
1001
ACAD
1000
MTEXTBEGIN
1070
    73
1070
     1
1070
    44
1040
1.0
1070
    74
1070
     0
1000
MTEXTEND
  0
MTEXT
  5
9738
330
1F
100
AcDbEntity
  8
1
100
AcDbMText
 10
15786.53862315657
 20
770.3596485412434
 30
0.0
 40
50.0
 41
191.396
 71
     1
 72
     5
  1
450A-30K
 73
     1
 44
1.0
1001
ACAD
1000
MTEXTBEGIN
1070
    73
1070
     1
1070
    44
1040
1.0
1070
    74
1070
     0
1000
MTEXTEND
  0
MTEXT
  5
9739
330
1F
100
AcDbEntity
  8
1
100
AcDbMText
 10
14332.2109627884
 20
770.3596485412434
 30
0.0
 40
50.0
 41
540.934438749212
 71
     1
 72
     5
  1
400A-30K
 73
     1
 44
1.0
1001
ACAD
1000
MTEXTBEGIN
1070
    73
1070
     1
1070
    44
1040
1.0
1070
    74
1070
     0
1000
MTEXTEND
  0
MTEXT
  5
973A
330
1F
100
AcDbEntity
  8
1
100
AcDbMText
 10
13297.71608671271
 20
770.3596485412434
 30
0.0
 40
50.0
 41
530.4610863637092
 71
     1
 72
     5
  1
350A-30K
 73
     1
 44
1.0
1001
ACAD
1000
MTEXTBEGIN
1070
    73
1070
     1
1070
    44
1040
1.0
1070
    74
1070
     0
1000
MTEXTEND
  0
LINE
  5
973B
330
1F
100
AcDbEntity
  8
1
100
AcDbLine
 10
17603.33035205006
 20
2474.149556625844
 30
0.0
 11
17603.33035205006
 21
1604.149556625852
 31
0.0
  0
LINE
  5
973C
330
1F
100
AcDbEntity
  8
1
100
AcDbLine
 10
15978.33035205006
 20
2174.149556625845
 30
0.0
 11
15978.33035205006
 21
1604.149556625852
 31
0.0
  0
LINE
  5
973D
330
1F
100
AcDbEntity
  8
1
100
AcDbLine
 10
14428.33035205006
 20
2174.149556625845
 30
0.0
 11
14428.33035205006
 21
1604.149556625852
 31
0.0
  0
MTEXT
  5
973E
330
1F
100
AcDbEntity
  8
1
100
AcDbMText
 10
17796.72237944069
 20
1666.160859590671
 30
0.0
 40
50.0
 41
508.7916280346091
 71
     1
 72
     5
  1
250A-30K
 73
     1
 44
1.0
1001
ACAD
1000
MTEXTBEGIN
1070
    73
1070
     1
1070
    44
1040
1.0
1070
    74
1070
     0
1000
MTEXTEND
  0
MTEXT
  5
973F
330
1F
100
AcDbEntity
  8
1
100
AcDbMText
 10
16994.01867728946
 20
1666.018504255285
 30
0.0
 40
50.0
 41
509.4288973322383
 71
     1
 72
     5
  1
225A-30K
 73
     1
 44
1.0
1001
ACAD
1000
MTEXTBEGIN
1070
    73
1070
     1
1070
    44
1040
1.0
1070
    74
1070
     0
1000
MTEXTEND
  0
MTEXT
  5
9740
330
1F
100
AcDbEntity
  8
1
100
AcDbMText
 10
16183.42283328224
 20
1666.870988768109
 30
0.0
 40
50.0
 41
517.4790868874915
 71
     1
 72
     5
  1
200A-30K
 73
     1
 44
1.0
1001
ACAD
1000
MTEXTBEGIN
1070
    73
1070
     1
1070
    44
1040
1.0
1070
    74
1070
     0
1000
MTEXTEND
  0
MTEXT
  5
9741
330
1F
100
AcDbEntity
  8
1
100
AcDbMText
 10
15388.77601443652
 20
1665.015249380203
 30
0.0
 40
50.0
 41
515.2134634992509
 71
     1
 72
     5
  1
175A-30K
 73
     1
 44
1.0
1001
ACAD
1000
MTEXTBEGIN
1070
    73
1070
     1
1070
    44
1040
1.0
1070
    74
1070
     0
1000
MTEXTEND
  0
MTEXT
  5
9742
330
1F
100
AcDbEntity
  8
1
100
AcDbMText
 10
12421.0396429756
 20
1663.42985701393
 30
0.0
 40
50.0
 41
468.3111010330911
 71
     1
 72
     5
  1
90A-30K
 73
     1
 44
1.0
1001
ACAD
1000
MTEXTBEGIN
1070
    73
1070
     1
1070
    44
1040
1.0
1070
    74
1070
     0
1000
MTEXTEND
  0
LINE
  5
9743
330
1F
100
AcDbEntity
  8
1
100
AcDbLine
 10
12228.33035205007
 20
-3545.850443374151
 30
0.0
 11
18428.33035205007
 21
-3545.850443374151
 31
0.0
  0
MTEXT
  5
9744
330
1F
100
AcDbEntity
  8
1
100
AcDbMText
 10
16585.44564039827
 20
-5473.850765067726
 30
0.0
 40
50.0
 41
191.396
 71
     1
 72
     5
  1
1500A-30K
 73
     1
 44
1.0
1001
ACAD
1000
MTEXTBEGIN
1070
    73
1070
     1
1070
    44
1040
1.0
1070
    74
1070
     0
1000
MTEXTEND
  0
LINE
  5
9747
330
1F
100
AcDbEntity
  8
1
100
AcDbLine
 10
12228.33035205007
 20
2474.149556625844
 30
0.0
 11
12228.33035205006
 21
2174.149556625843
 31
0.0
  0
LINE
  5
9748
330
1F
100
AcDbEntity
  8
1
100
AcDbLine
 10
12828.33035205007
 20
2474.149556625844
 30
0.0
 11
12828.33035205006
 21
2174.149556625843
 31
0.0
  0
LINE
  5
9749
330
1F
100
AcDbEntity
  8
1
100
AcDbLine
 10
13428.33035205007
 20
2474.149556625838
 30
0.0
 11
13428.33035205006
 21
2174.149556625836
 31
0.0
  0
LINE
  5
974A
330
1F
100
AcDbEntity
  8
1
100
AcDbLine
 10
14078.33035205007
 20
2474.149556625829
 30
0.0
 11
14078.33035205006
 21
2174.149556625829
 31
0.0
  0
LINE
  5
974B
330
1F
100
AcDbEntity
  8
1
100
AcDbLine
 10
14728.33035205007
 20
2474.149556625822
 30
0.0
 11
14728.33035205006
 21
2174.149556625822
 31
0.0
  0
LINE
  5
974C
330
1F
100
AcDbEntity
  8
1
100
AcDbLine
 10
15428.33035205007
 20
2474.149556625813
 30
0.0
 11
15428.33035205006
 21
2174.149556625813
 31
0.0
  0
LINE
  5
974D
330
1F
100
AcDbEntity
  8
1
100
AcDbLine
 10
16128.33035205007
 20
2474.149556625804
 30
0.0
 11
16128.33035205006
 21
2174.149556625804
 31
0.0
  0
LINE
  5
974E
330
1F
100
AcDbEntity
  8
1
100
AcDbLine
 10
16828.33035205006
 20
2474.149556625795
 30
0.0
 11
16828.33035205006
 21
2174.149556625795
 31
0.0
  0
MTEXT
  5
9781
330
1F
100
AcDbEntity
  8
1
100
AcDbMText
 10
12237.64555523854
 20
2733.150493917365
 30
0.0
 40
100.0
 41
3455.944808913123
 71
     1
 72
     5
  1
{\fMS PGothic|b0|i0|c128|p50;ＪＩＳ ３０Ｋ　ＲＦ　スリップオン溶接式、ＳＯＨ}
 73
     1
 44
1.0
1001
ACAD
1000
MTEXTBEGIN
1070
    73
1070
     1
1070
    44
1040
1.0
1070
    74
1070
     0
1000
MTEXTEND
  0
OLE2FRAME
  5
9782
330
1F
100
AcDbEntity
  8
1
100
AcDbOle2Frame
 70
     2
 73
     1
 90
        0
1001
ACAD
1000
OLEBEGIN
1070
    70
1070
     1
1070
    71
1070
     1
1070
    40
1040
0.0
1070
    41
1040
3431.27481027005
1070
    42
1040
2204.857031432308
1070
    72
1070
     0
1070
     3
1000

1070
    90
1071
        0
1070
    43
1040
0.0
1070
     4
1000

1070
    91
1071
        0
1070
    44
1040
0.0
1000
OLEEND
  0
LINE
  5
9786
330
1F
100
AcDbEntity
  8
1
100
AcDbLine
 10
12953.33035205006
 20
2174.149556625843
 30
0.0
 11
12953.33035205006
 21
1604.149556625852
 31
0.0
  0
LINE
  5
9910
330
1F
100
AcDbEntity
  8
1
  6
HIDDEN
100
AcDbLine
 10
16623.40137970334
 20
2084.821890976124
 30
0.0
 11
16583.40137970334
 21
2084.821890976124
 31
0.0
  0
LINE
  5
9920
330
1F
100
AcDbEntity
  8
1
  6
HIDDEN
100
AcDbLine
 10
16645.40137970333
 20
2047.321890976124
 30
0.0
 11
16581.40137970334
 21
2047.321890976124
 31
0.0
  0
MTEXT
  5
998B
330
1F
100
AcDbEntity
  8
1
100
AcDbMText
 10
12556.43615182081
 20
2266.97068253406
 30
0.0
 40
25.0
 41
160.415524151791
 71
     1
 72
     5
  1
SOH-A
 73
     1
 44
1.0
1001
ACAD
1000
MTEXTBEGIN
1070
    73
1070
     1
1070
    44
1040
1.0
1070
    74
1070
     0
1000
MTEXTEND
  0
MTEXT
  5
998D
330
1F
100
AcDbEntity
  8
1
100
AcDbMText
 10
13155.07305507642
 20
2266.732103491078
 30
0.0
 40
25.0
 41
160.415524151791
 71
     1
 72
     5
  1
SOH-A
 73
     1
 44
1.0
1001
ACAD
1000
MTEXTBEGIN
1070
    73
1070
     1
1070
    44
1040
1.0
1070
    74
1070
     0
1000
MTEXTEND
  0
MTEXT
  5
9996
330
1F
100
AcDbEntity
  8
1
100
AcDbMText
 10
18215.24965824054
 20
1701.552235701196
 30
0.0
 40
40.0
 41
160.415524151791
 71
     1
 72
     5
  1
SOH-A
 73
     1
 44
1.0
1001
ACAD
1000
MTEXTBEGIN
1070
    73
1070
     1
1070
    44
1040
1.0
1070
    74
1070
     0
1000
MTEXTEND
  0
LINE
  5
99A5
330
1F
100
AcDbEntity
  8
1
100
AcDbLine
 10
16778.33035205007
 20
-495.8504433741491
 30
0.0
 11
18428.33035205006
 21
704.1495566258528
 31
0.0
  0
LINE
  5
99A6
330
1F
100
AcDbEntity
  8
1
100
AcDbLine
 10
15178.33035205007
 20
-495.8504433741491
 30
0.0
 11
16778.33035205007
 21
704.149556625852
 31
0.0
  0
LINE
  5
99A9
330
1F
100
AcDbEntity
  8
1
100
AcDbLine
 10
12228.33035205007
 20
-1895.850443374154
 30
0.0
 11
13678.33035205007
 21
-495.8504433741493
 31
0.0
  0
LINE
  5
99AA
330
1F
100
AcDbEntity
  8
1
100
AcDbLine
 10
13678.33035205007
 20
-1895.850443374154
 30
0.0
 11
15178.33035205007
 21
-495.8504433741491
 31
0.0
  0
LINE
  5
99AB
330
1F
100
AcDbEntity
  8
1
100
AcDbLine
 10
15178.33035205007
 20
-1895.850443374154
 30
0.0
 11
16778.33035205007
 21
-495.8504433741491
 31
0.0
  0
LINE
  5
99AC
330
1F
100
AcDbEntity
  8
1
100
AcDbLine
 10
16778.33035205007
 20
-1895.850443374152
 30
0.0
 11
18428.33035205007
 21
-495.8504433741491
 31
0.0
  0
LINE
  5
99AD
330
1F
100
AcDbEntity
  8
1
100
AcDbLine
 10
16128.33035205007
 20
-3545.850443374151
 30
0.0
 11
18428.33035205007
 21
-1895.850443374152
 31
0.0
  0
LINE
  5
99AE
330
1F
100
AcDbEntity
  8
1
100
AcDbLine
 10
14128.33035205007
 20
-3545.850443374155
 30
0.0
 11
16128.33035205006
 21
-1895.850443374154
 31
0.0
  0
LINE
  5
99AF
330
1F
100
AcDbEntity
  8
1
100
AcDbLine
 10
12228.33035205007
 20
-3545.850443374151
 30
0.0
 11
14128.33035205007
 21
-1895.850443374154
 31
0.0
  0
LINE
  5
99B0
330
1F
100
AcDbEntity
  8
1
100
AcDbLine
 10
12228.33035205007
 20
-5545.85044337415
 30
0.0
 11
15228.33035205007
 21
-3545.850443374151
 31
0.0
  0
LINE
  5
99B1
330
1F
100
AcDbEntity
  8
1
100
AcDbLine
 10
15228.33035205007
 20
-5545.85044337415
 30
0.0
 11
18428.33035205007
 21
-3545.850443374151
 31
0.0
  0
CIRCLE
  5
9A00
330
1F
100
AcDbEntity
  8
1
100
AcDbCircle
 10
12478.7927079297
 20
2363.617321746548
 30
0.0
 40
8.9
  0
CIRCLE
  5
9A10
330
1F
100
AcDbEntity
  8
1
100
AcDbCircle
 10
13067.41217612852
 20
2363.617321746548
 30
0.0
 40
11.1
  0
CIRCLE
  5
9A20
330
1F
100
AcDbEntity
  8
1
100
AcDbCircle
 10
13678.434564497
 20
2363.617321746548
 30
0.0
 40
13.85
  0
CIRCLE
  5
9A30
330
1F
100
AcDbEntity
  8
1
100
AcDbCircle
 10
14320.39510656993
 20
2363.617321746548
 30
0.0
 40
17.25
  0
CIRCLE
  5
9A3F
330
1F
100
AcDbEntity
  8
1
100
AcDbCircle
 10
14990.11009510308
 20
2363.617321746548
 30
0.0
 40
21.6
  0
CIRCLE
  5
9A4E
330
1F
100
AcDbEntity
  8
1
100
AcDbCircle
 10
15688.78476345938
 20
2363.617321746548
 30
0.0
 40
24.55
  0
CIRCLE
  5
9A5C
330
1F
100
AcDbEntity
  8
1
100
AcDbCircle
 10
16369.32724312506
 20
2363.617321746547
 30
0.0
 40
30.55
  0
CIRCLE
  5
9A6A
330
1F
100
AcDbEntity
  8
1
100
AcDbCircle
 10
17094.50393707959
 20
2363.617321746548
 30
0.0
 40
38.55
  0
CIRCLE
  5
9A87
330
1F
100
AcDbEntity
  8
1
100
AcDbCircle
 10
12490.07290709152
 20
1938.321890976123
 30
0.0
 40
51.29999999999999
  0
CIRCLE
  5
9A95
330
1F
100
AcDbEntity
  8
1
100
AcDbCircle
 10
13211.4576601813
 20
1938.321890976123
 30
0.0
 40
57.69999999999999
  0
CIRCLE
  5
9AA3
330
1F
100
AcDbEntity
  8
1
100
AcDbCircle
 10
13934.69772340323
 20
1938.321890976123
 30
0.0
 40
70.60000000000002
  0
CIRCLE
  5
9AB1
330
1F
100
AcDbEntity
  8
1
100
AcDbCircle
 10
14690.27530117054
 20
1938.321890976123
 30
0.0
 40
83.29999999999998
  0
CIRCLE
  5
9ACE
330
1F
100
AcDbEntity
  8
1
100
AcDbCircle
 10
16270.41154638935
 20
1938.321890976123
 30
0.0
 40
109.0
  0
CIRCLE
  5
9B1C
330
1F
100
AcDbEntity
  8
1
100
AcDbCircle
 10
17930.08741109269
 20
1938.321890976123
 30
0.0
 40
134.75
  0
CIRCLE
  5
9B37
330
1F
100
AcDbEntity
  8
1
100
AcDbCircle
 10
12532.50475610003
 20
1198.619440937447
 30
0.0
 40
160.5
  0
CIRCLE
  5
9B52
330
1F
100
AcDbEntity
  8
1
100
AcDbCircle
 10
13385.07801944912
 20
1198.619440937447
 30
0.0
 40
179.05
  0
CIRCLE
  5
9B6D
330
1F
100
AcDbEntity
  8
1
100
AcDbCircle
 10
14391.23813726077
 20
1198.619440937447
 30
0.0
 40
204.5
  0
LINE
  5
9CBA
330
1F
100
AcDbEntity
  8
1
100
AcDbLine
 10
13199.53731990557
 20
2420.117321746548
 30
0.0
 11
13199.53731990557
 21
2307.117321746546
 31
0.0
  0
CIRCLE
  5
9D9C
330
1F
100
AcDbEntity
  8
1
100
AcDbCircle
 10
14286.80753446357
 20
2397.204893852912
 30
0.0
 40
9.5
  0
CIRCLE
  5
9E08
330
1F
100
AcDbEntity
  8
1
100
AcDbCircle
 10
14952.98698909079
 20
2400.740427758845
 30
0.0
 40
9.5
  0
CIRCLE
  5
9E09
330
1F
100
AcDbEntity
  8
1
100
AcDbCircle
 10
14954.75475604376
 20
2328.261982687232
 30
0.0
 40
9.5
  0
LINE
  5
9E0A
330
1F
100
AcDbEntity
  8
1
  6
CENTER
 48
0.5
100
AcDbLine
 10
14963.59359080859
 20
2337.100817452061
 30
0.0
 11
14945.91592127892
 21
2319.423147922402
 31
0.0
  0
CIRCLE
  5
9E0B
330
1F
100
AcDbEntity
  8
1
100
AcDbCircle
 10
15025.46543416239
 20
2328.261982687223
 30
0.0
 40
9.5
  0
LINE
  5
9E0C
330
1F
100
AcDbEntity
  8
1
  6
CENTER
 48
0.5
100
AcDbLine
 10
15016.62659939756
 20
2337.100817452054
 30
0.0
 11
15034.30426892722
 21
2319.423147922391
 31
0.0
  0
CIRCLE
  5
9E0D
330
1F
100
AcDbEntity
  8
1
100
AcDbCircle
 10
15025.4654341624
 20
2398.972660805863
 30
0.0
 40
9.5
  0
LINE
  5
9E0E
330
1F
100
AcDbEntity
  8
1
  6
CENTER
 48
0.5
100
AcDbLine
 10
15016.62659939757
 20
2390.133826041032
 30
0.0
 11
15034.30426892724
 21
2407.811495570692
 31
0.0
  0
LINE
  5
9EF9
330
1F
100
AcDbEntity
  8
1
100
AcDbLine
 10
16564.59951346258
 20
2445.117321746547
 30
0.0
 11
16564.59951346259
 21
2282.117321746548
 31
0.0
  0
CIRCLE
  5
9F25
330
1F
100
AcDbEntity
  8
1
100
AcDbCircle
 10
16344.45282002133
 20
2423.66949135978
 30
0.0
 40
9.5
  0
LINE
  5
9F26
330
1F
100
AcDbEntity
  8
1
  6
CENTER
 48
0.5
100
AcDbLine
 10
16349.2363629259
 20
2412.120997203387
 30
0.0
 11
16339.66927711677
 21
2435.217985516171
 31
0.0
  0
LINE
  5
9F97
330
1F
100
AcDbEntity
  8
1
  6
CENTER
 48
0.5
100
AcDbLine
 10
17069.82085569204
 20
2423.20755159353
 30
0.0
 11
17057.95766928873
 21
2451.847817101374
 31
0.0
  0
LINE
  5
A01F
330
1F
100
AcDbEntity
  8
1
100
AcDbLine
 10
18107.07202643633
 20
2468.617321746548
 30
0.0
 11
18082.07202643633
 21
2468.617321746547
 31
0.0
  0
LINE
  5
A020
330
1F
100
AcDbEntity
  8
1
100
AcDbLine
 10
18107.07202643634
 20
2258.617321746547
 30
0.0
 11
18082.07202643633
 21
2258.617321746547
 31
0.0
  0
CIRCLE
  5
A065
330
1F
100
AcDbEntity
  8
1
100
AcDbCircle
 10
17869.35830237807
 20
2363.617321746548
 30
0.0
 40
45.0
  0
LINE
  5
A073
330
1F
100
AcDbEntity
  8
1
  6
HIDDEN
 48
0.5
100
AcDbLine
 10
18080.07202643634
 20
2408.617321746548
 30
0.0
 11
18124.07202643633
 21
2408.617321746548
 31
0.0
  0
LINE
  5
A086
330
1F
100
AcDbEntity
  8
1
  6
HIDDEN
 48
0.5
100
AcDbLine
 10
18080.07202643634
 20
2318.617321746548
 30
0.0
 11
18124.07202643634
 21
2318.617321746548
 31
0.0
  0
LINE
  5
A0AF
330
1F
100
AcDbEntity
  8
1
  6
HIDDEN
 48
0.5
100
AcDbLine
 10
18108.07202643633
 20
2437.117321746548
 30
0.0
 11
18082.07202643633
 21
2437.117321746548
 31
0.0
  0
CIRCLE
  5
A0E6
330
1F
100
AcDbEntity
  8
1
100
AcDbCircle
 10
17836.83021062704
 20
2442.147082010008
 30
0.0
 40
11.5
  0
LINE
  5
A20B
330
1F
100
AcDbEntity
  8
1
  6
HIDDEN
100
AcDbLine
 10
12747.14191644447
 20
2043.321890976124
 30
0.0
 11
12719.14191644446
 21
2043.321890976125
 31
0.0
  0
LINE
  5
A20C
330
1F
100
AcDbEntity
  8
1
  6
HIDDEN
100
AcDbLine
 10
12747.14191644447
 20
2018.321890976124
 30
0.0
 11
12719.14191644447
 21
2018.321890976126
 31
0.0
  0
LINE
  5
A20D
330
1F
100
AcDbEntity
  8
1
  6
HIDDEN
100
AcDbLine
 10
12747.14191644447
 20
1858.321890976122
 30
0.0
 11
12719.14191644447
 21
1858.321890976122
 31
0.0
  0
LINE
  5
A20E
330
1F
100
AcDbEntity
  8
1
  6
HIDDEN
100
AcDbLine
 10
12747.14191644447
 20
1833.321890976122
 30
0.0
 11
12719.14191644447
 21
1833.321890976122
 31
0.0
  0
LINE
  5
A37A
330
1F
100
AcDbEntity
  8
1
100
AcDbLine
 10
14214.09236465124
 20
2075.821890976124
 30
0.0
 11
14181.09236465123
 21
2075.821890976124
 31
0.0
  0
LINE
  5
A37B
330
1F
100
AcDbEntity
  8
1
100
AcDbLine
 10
14214.09236465124
 20
1800.821890976123
 30
0.0
 11
14181.09236465123
 21
1800.821890976122
 31
0.0
  0
CIRCLE
  5
A3E9
330
1F
100
AcDbEntity
  8
1
100
AcDbCircle
 10
13890.68912868123
 20
2044.568037214915
 30
0.0
 40
12.5
  0
LINE
  5
A4C6
330
1F
100
AcDbEntity
  8
1
  6
HIDDEN
100
AcDbLine
 10
15015.17747254154
 20
2089.321890976123
 30
0.0
 11
14979.17747254154
 21
2089.321890976123
 31
0.0
  0
LINE
  5
A4C7
330
1F
100
AcDbEntity
  8
1
  6
HIDDEN
100
AcDbLine
 10
15015.17747254154
 20
2062.321890976123
 30
0.0
 11
14979.17747254154
 21
2062.321890976123
 31
0.0
  0
LINE
  5
A4C8
330
1F
100
AcDbEntity
  8
1
  6
HIDDEN
100
AcDbLine
 10
15015.17747254154
 20
1814.321890976123
 30
0.0
 11
14979.17747254154
 21
1814.321890976124
 31
0.0
  0
LINE
  5
A4C9
330
1F
100
AcDbEntity
  8
1
  6
HIDDEN
100
AcDbLine
 10
15015.17747254154
 20
1787.321890976123
 30
0.0
 11
14979.17747254154
 21
1787.321890976123
 31
0.0
  0
LINE
  5
A4E0
330
1F
100
AcDbEntity
  8
1
  6
CENTER
 48
0.5
100
AcDbLine
 10
14951.32487479515
 20
1938.321890976123
 30
0.0
 11
15048.74359397058
 21
1938.321890976123
 31
0.0
  0
LINE
  5
A656
330
1F
100
AcDbEntity
  8
1
  6
CENTER
 48
0.5
100
AcDbLine
 10
16436.1440829
 20
1982.729790293719
 30
0.0
 11
16399.28638689687
 21
1972.853800414807
 31
0.0
  0
LINE
  5
A65C
330
1F
100
AcDbEntity
  8
1
  6
CENTER
 48
0.5
100
AcDbLine
 10
16224.06250423349
 20
2111.298871183941
 30
0.0
 11
16233.9384941124
 21
2074.441175180805
 31
0.0
  0
LINE
  5
A65D
330
1F
100
AcDbEntity
  8
1
100
AcDbLine
 10
15178.33035205006
 20
1604.149556625852
 30
0.0
 11
15978.33035205006
 21
2174.149556625845
 31
0.0
  0
LINE
  5
A65E
330
1F
100
AcDbEntity
  8
1
100
AcDbLine
 10
16778.33035205007
 20
1604.149556625852
 30
0.0
 11
17603.33035205006
 21
2174.149556625843
 31
0.0
  0
LINE
  5
A763
330
1F
100
AcDbEntity
  8
1
  6
CENTER
 48
0.5
100
AcDbLine
 10
17873.82802778876
 20
2148.284767868823
 30
0.0
 11
17885.40736680661
 21
2105.070086336157
 31
0.0
  0
LINE
  5
A837
330
1F
100
AcDbEntity
  8
1
  6
CENTER
100
AcDbLine
 10
12364.02370705063
 20
1311.194878806474
 30
0.0
 11
12326.82447961327
 21
1336.050607927224
 31
0.0
  0
LINE
  5
B735
330
1F
100
AcDbEntity
  8
1
100
AcDbLine
 10
14450.72277640145
 20
2428.617321746547
 30
0.0
 11
14450.72277640145
 21
2298.617321746549
 31
0.0
  0
ARC
  5
B738
330
1F
100
AcDbEntity
  8
skeleton
100
AcDbCircle
 10
14449.72277640145
 20
2399.617321746549
 30
0.0
 40
1.0
100
AcDbArc
 50
270.0
 51
0.0
  0
ARC
  5
B739
330
1F
100
AcDbEntity
  8
skeleton
100
AcDbCircle
 10
14449.72277640145
 20
2327.617321746546
 30
0.0
 40
1.0
100
AcDbArc
 50
0.0
 51
90.00000000000005
  0
LINE
  5
B757
330
1F
100
AcDbEntity
  8
1
100
AcDbLine
 10
12583.90041664996
 20
2308.617321746551
 30
0.0
 11
12583.90041664996
 21
2418.617321746547
 31
0.0
  0
ARC
  5
B75B
330
1F
100
AcDbEntity
  8
skeleton
100
AcDbCircle
 10
12582.90041664996
 20
2390.617321746549
 30
0.0
 40
1.0
100
AcDbArc
 50
270.0
 51
0.0
  0
ARC
  5
B75C
330
1F
100
AcDbEntity
  8
skeleton
100
AcDbCircle
 10
12582.90041664996
 20
2336.61732174655
 30
0.0
 40
1.0
100
AcDbArc
 50
0.0
 51
90.00000000000005
  0
LINE
  5
B760
330
1F
100
AcDbEntity
  8
1
100
AcDbLine
 10
13182.53731990557
 20
2421.117321746547
 30
0.0
 11
13182.53731990557
 21
2306.117321746548
 31
0.0
  0
ARC
  5
B764
330
1F
100
AcDbEntity
  8
1
100
AcDbCircle
 10
13181.53731990557
 20
2392.117321746547
 30
0.0
 40
1.0
100
AcDbArc
 50
270.0
 51
0.0
  0
ARC
  5
B765
330
1F
100
AcDbEntity
  8
1
100
AcDbCircle
 10
13181.53731990557
 20
2335.117321746548
 30
0.0
 40
1.0
100
AcDbArc
 50
0.0
 51
90.00000000000005
  0
LINE
  5
B767
330
1F
100
AcDbEntity
  8
1
100
AcDbLine
 10
13792.83384332011
 20
2423.617321746548
 30
0.0
 11
13792.83384332011
 21
2303.617321746548
 31
0.0
  0
ARC
  5
B76A
330
1F
100
AcDbEntity
  8
1
100
AcDbCircle
 10
13791.83384332011
 20
2394.617321746547
 30
0.0
 40
1.0
100
AcDbArc
 50
270.0
 51
0.0
  0
ARC
  5
B76B
330
1F
100
AcDbEntity
  8
1
100
AcDbCircle
 10
13791.83384332011
 20
2332.617321746548
 30
0.0
 40
1.0
100
AcDbArc
 50
0.0
 51
90.00000000000005
  0
LINE
  5
B7D4
330
1F
100
AcDbEntity
  8
1
100
AcDbLine
 10
15140.89619705296
 20
2433.617321746548
 30
0.0
 11
15140.89619705296
 21
2293.617321746546
 31
0.0
  0
ARC
  5
B7D8
330
1F
100
AcDbEntity
  8
1
100
AcDbCircle
 10
15138.89619705295
 20
2405.617321746547
 30
0.0
 40
2.0
100
AcDbArc
 50
270.0
 51
0.0
  0
ARC
  5
B7D9
330
1F
100
AcDbEntity
  8
1
100
AcDbCircle
 10
15138.89619705295
 20
2321.617321746548
 30
0.0
 40
2.0
100
AcDbArc
 50
0.0
 51
90.00000000000005
  0
LINE
  5
B899
330
1F
100
AcDbEntity
  8
1
100
AcDbLine
 10
15845.37750074981
 20
2443.617321746548
 30
0.0
 11
15845.37750074982
 21
2283.617321746548
 31
0.0
  0
ARC
  5
B89E
330
1F
100
AcDbEntity
  8
1
100
AcDbCircle
 10
15843.37750074981
 20
2410.617321746548
 30
0.0
 40
2.0
100
AcDbArc
 50
270.0
 51
0.0
  0
ARC
  5
B89F
330
1F
100
AcDbEntity
  8
1
100
AcDbCircle
 10
15843.37750074981
 20
2316.617321746548
 30
0.0
 40
2.0
100
AcDbArc
 50
0.0
 51
90.00000000000005
  0
LINE
  5
B96A
330
1F
100
AcDbEntity
  8
1
100
AcDbLine
 10
16544.59951346258
 20
2446.117321746547
 30
0.0
 11
16544.59951346259
 21
2281.117321746548
 31
0.0
  0
ARC
  5
B96B
330
1F
100
AcDbEntity
  8
1
100
AcDbCircle
 10
16542.59951346258
 20
2418.117321746547
 30
0.0
 40
2.0
100
AcDbArc
 50
270.0
 51
0.0
  0
ARC
  5
B96C
330
1F
100
AcDbEntity
  8
1
100
AcDbCircle
 10
16542.59951346258
 20
2309.117321746548
 30
0.0
 40
2.0
100
AcDbArc
 50
0.0
 51
90.00000000000005
  0
LINE
  5
BAA3
330
1F
100
AcDbEntity
  8
1
100
AcDbLine
 10
17279.57539029401
 20
2428.617321746548
 30
0.0
 11
17279.57539029401
 21
2298.617321746547
 31
0.0
  0
ARC
  5
BAA5
330
1F
100
AcDbEntity
  8
1
100
AcDbCircle
 10
17279.57539029401
 20
2430.617321746548
 30
0.0
 40
2.0
100
AcDbArc
 50
270.0
 51
0.0
  0
ARC
  5
BAA6
330
1F
100
AcDbEntity
  8
1
100
AcDbCircle
 10
17279.57539029401
 20
2296.617321746547
 30
0.0
 40
2.0
100
AcDbArc
 50
0.0
 51
90.00000000000005
  0
LINE
  5
BB33
330
1F
100
AcDbEntity
  8
1
100
AcDbLine
 10
18082.07202643633
 20
2468.617321746548
 30
0.0
 11
18082.07202643634
 21
2258.617321746547
 31
0.0
  0
ARC
  5
BB4E
330
1F
100
AcDbEntity
  8
1
100
AcDbCircle
 10
18080.07202643634
 20
2435.617321746548
 30
0.0
 40
2.0
100
AcDbArc
 50
270.0
 51
0.0
  0
ARC
  5
BB4F
330
1F
100
AcDbEntity
  8
1
100
AcDbCircle
 10
18080.07202643634
 20
2291.617321746548
 30
0.0
 40
2.0
100
AcDbArc
 50
0.0
 51
90.00000000000005
  0
LINE
  5
BC30
330
1F
100
AcDbEntity
  8
1
100
AcDbLine
 10
12719.14191644447
 20
2053.321890976124
 30
0.0
 11
12719.14191644447
 21
1823.321890976122
 31
0.0
  0
ARC
  5
BC57
330
1F
100
AcDbEntity
  8
1
100
AcDbCircle
 10
12717.14191644447
 20
2015.321890976124
 30
0.0
 40
2.0
100
AcDbArc
 50
270.0
 51
0.0
  0
ARC
  5
BC6A
330
1F
100
AcDbEntity
  8
1
100
AcDbCircle
 10
12717.14191644447
 20
1861.321890976124
 30
0.0
 40
2.0
100
AcDbArc
 50
0.0
 51
90.00000000000005
  0
LINE
  5
BCF6
330
1F
100
AcDbEntity
  8
1
100
AcDbLine
 10
13458.71670296304
 20
2058.321890976124
 30
0.0
 11
13458.71670296303
 21
1818.321890976123
 31
0.0
  0
ARC
  5
BCF8
330
1F
100
AcDbEntity
  8
1
100
AcDbCircle
 10
13456.71670296303
 20
2020.321890976124
 30
0.0
 40
2.0
100
AcDbArc
 50
270.0
 51
0.0
  0
ARC
  5
BCF9
330
1F
100
AcDbEntity
  8
1
100
AcDbCircle
 10
13456.71670296303
 20
1856.321890976124
 30
0.0
 40
2.0
100
AcDbArc
 50
0.0
 51
90.00000000000005
  0
LINE
  5
BD8D
330
1F
100
AcDbEntity
  8
1
100
AcDbLine
 10
14181.09236465123
 20
2075.821890976124
 30
0.0
 11
14181.09236465123
 21
1800.821890976122
 31
0.0
  0
ARC
  5
BD8F
330
1F
100
AcDbEntity
  8
1
100
AcDbCircle
 10
14179.09236465123
 20
2037.821890976124
 30
0.0
 40
2.0
100
AcDbArc
 50
270.0
 51
0.0
  0
ARC
  5
BD90
330
1F
100
AcDbEntity
  8
1
100
AcDbCircle
 10
14179.09236465123
 20
1838.821890976123
 30
0.0
 40
2.0
100
AcDbArc
 50
0.0
 51
90.00000000000005
  0
LINE
  5
BE56
330
1F
100
AcDbEntity
  8
1
100
AcDbLine
 10
14979.17747254154
 20
2100.821890976124
 30
0.0
 11
14979.17747254153
 21
1775.821890976123
 31
0.0
  0
ARC
  5
BE58
330
1F
100
AcDbEntity
  8
1
100
AcDbCircle
 10
14977.17747254153
 20
2057.821890976124
 30
0.0
 40
2.0
100
AcDbArc
 50
270.0
 51
0.0
  0
ARC
  5
BE59
330
1F
100
AcDbEntity
  8
1
100
AcDbCircle
 10
14977.17747254153
 20
1818.821890976123
 30
0.0
 40
2.0
100
AcDbArc
 50
0.0
 51
90.00000000000005
  0
LINE
  5
BF0B
330
1F
100
AcDbEntity
  8
1
100
AcDbLine
 10
16583.40137970334
 20
2123.321890976123
 30
0.0
 11
16583.40137970334
 21
1753.321890976123
 31
0.0
  0
ARC
  5
BF0D
330
1F
100
AcDbEntity
  8
1
100
AcDbCircle
 10
16581.40137970334
 20
2080.321890976124
 30
0.0
 40
2.0
100
AcDbArc
 50
270.0
 51
0.0
  0
ARC
  5
BF0E
330
1F
100
AcDbEntity
  8
1
100
AcDbCircle
 10
16581.40137970334
 20
1796.321890976123
 30
0.0
 40
2.0
100
AcDbArc
 50
0.0
 51
90.00000000000005
  0
LINE
  5
BFB3
330
1F
100
AcDbEntity
  8
1
100
AcDbLine
 10
18258.3188423791
 20
2163.321890976122
 30
0.0
 11
18258.31884237908
 21
1713.321890976124
 31
0.0
  0
ARC
  5
BFB5
330
1F
100
AcDbEntity
  8
1
100
AcDbCircle
 10
18256.3188423791
 20
2112.821890976124
 30
0.0
 40
2.0
100
AcDbArc
 50
270.0
 51
0.0
  0
ARC
  5
BFB6
330
1F
100
AcDbEntity
  8
1
100
AcDbCircle
 10
18256.3188423791
 20
1763.821890976123
 30
0.0
 40
2.0
100
AcDbArc
 50
0.0
 51
90.00000000000005
  0
LINE
  5
C05A
330
1F
100
AcDbEntity
  8
1
100
AcDbLine
 10
12872.67124920777
 20
1456.119440937447
 30
0.0
 11
12872.67124920779
 21
941.1194409374466
 31
0.0
  0
ARC
  5
C05C
330
1F
100
AcDbEntity
  8
1
100
AcDbCircle
 10
12869.67124920777
 20
1404.119440937447
 30
0.0
 40
3.0
100
AcDbArc
 50
270.0
 51
0.0
  0
ARC
  5
C05D
330
1F
100
AcDbEntity
  8
1
100
AcDbCircle
 10
12869.67124920777
 20
993.1194409374477
 30
0.0
 40
3.0
100
AcDbArc
 50
0.0
 51
90.00000000000005
  0
LINE
  5
C141
330
1F
100
AcDbEntity
  8
1
100
AcDbLine
 10
13787.8769686331
 20
1478.619440937447
 30
0.0
 11
13787.8769686331
 21
918.6194409374476
 31
0.0
  0
ARC
  5
C143
330
1F
100
AcDbEntity
  8
1
100
AcDbCircle
 10
13784.8769686331
 20
1426.619440937447
 30
0.0
 40
3.0
100
AcDbArc
 50
270.0
 51
0.0
  0
ARC
  5
C144
330
1F
100
AcDbEntity
  8
1
100
AcDbCircle
 10
13784.8769686331
 20
970.6194409374475
 30
0.0
 40
3.0
100
AcDbArc
 50
0.0
 51
90.00000000000005
  0
LINE
  5
C200
330
1F
100
AcDbEntity
  8
1
100
AcDbLine
 10
14885.47926795767
 20
1513.619440937447
 30
0.0
 11
14885.47926795767
 21
883.6194409374471
 31
0.0
  0
ARC
  5
C202
330
1F
100
AcDbEntity
  8
1
100
AcDbCircle
 10
14882.47926795767
 20
1456.619440937447
 30
0.0
 40
3.0
100
AcDbArc
 50
270.0
 51
0.0
  0
ARC
  5
C203
330
1F
100
AcDbEntity
  8
1
100
AcDbCircle
 10
14882.47926795767
 20
940.6194409374474
 30
0.0
 40
3.0
100
AcDbArc
 50
0.0
 51
90.00000000000005
  0
CIRCLE
  5
C4D2
330
1F
100
AcDbEntity
  8
1
100
AcDbCircle
 10
17930.08741109269
 20
1938.321890976123
 30
0.0
 40
172.5
  0
CIRCLE
  5
C4D8
330
1F
100
AcDbEntity
  8
1
100
AcDbCircle
 10
13934.69772340323
 20
1938.321890976123
 30
0.0
 40
97.50000000000046
  0
CIRCLE
  5
C4DA
330
1F
100
AcDbEntity
  8
1
100
AcDbCircle
 10
13211.4576601813
 20
1938.321890976123
 30
0.0
 40
79.99999999999976
  0
LINE
  5
C5D3
330
1F
100
AcDbEntity
  8
1
  6
HIDDEN
 48
0.5
100
AcDbLine
 10
12598.90041664996
 20
2410.61732174655
 30
0.0
 11
12583.90041664996
 21
2410.617321746546
 31
0.0
  0
LINE
  5
C5D4
330
1F
100
AcDbEntity
  8
1
  6
HIDDEN
 48
0.5
100
AcDbLine
 10
12598.90041664996
 20
2391.617321746549
 30
0.0
 11
12583.90041664996
 21
2391.617321746549
 31
0.0
  0
LINE
  5
C5D5
330
1F
100
AcDbEntity
  8
1
  6
HIDDEN
 48
0.5
100
AcDbLine
 10
12598.90041664996
 20
2335.617321746548
 30
0.0
 11
12583.90041664996
 21
2335.617321746548
 31
0.0
  0
LINE
  5
C5D6
330
1F
100
AcDbEntity
  8
1
  6
HIDDEN
 48
0.5
100
AcDbLine
 10
12598.90041664996
 20
2316.617321746548
 30
0.0
 11
12583.90041664996
 21
2316.617321746548
 31
0.0
  0
CIRCLE
  5
C5E9
330
1F
100
AcDbEntity
  8
1
100
AcDbCircle
 10
12478.7927079297
 20
2363.617321746548
 30
0.0
 40
55.0
  0
CIRCLE
  5
C5EB
330
1F
100
AcDbEntity
  8
1
  6
CENTER
 48
0.5
100
AcDbCircle
 10
12478.7927079297
 20
2363.617321746548
 30
0.0
 40
37.50000000000046
  0
CIRCLE
  5
C5EC
330
1F
100
AcDbEntity
  8
1
100
AcDbCircle
 10
12452.27620363521
 20
2390.133826041043
 30
0.0
 40
9.5
  0
LINE
  5
C5EF
330
1F
100
AcDbEntity
  8
1
  6
CENTER
 48
0.5
100
AcDbLine
 10
12461.11503840004
 20
2345.939652216883
 30
0.0
 11
12443.43736887037
 21
2328.261982687219
 31
0.0
  0
CIRCLE
  5
C5F0
330
1F
100
AcDbEntity
  8
1
100
AcDbCircle
 10
12452.27620363521
 20
2337.10081745205
 30
0.0
 40
9.5
  0
LINE
  5
C5F1
330
1F
100
AcDbEntity
  8
1
  6
CENTER
 48
0.5
100
AcDbLine
 10
12496.47037745936
 20
2345.939652216884
 30
0.0
 11
12514.14804698903
 21
2328.261982687219
 31
0.0
  0
CIRCLE
  5
C5F2
330
1F
100
AcDbEntity
  8
1
100
AcDbCircle
 10
12505.3092122242
 20
2337.100817452052
 30
0.0
 40
9.5
  0
LINE
  5
C5F3
330
1F
100
AcDbEntity
  8
1
  6
CENTER
 48
0.5
100
AcDbLine
 10
12496.47037745936
 20
2381.294991276213
 30
0.0
 11
12514.14804698903
 21
2398.972660805876
 31
0.0
  0
CIRCLE
  5
C5F4
330
1F
100
AcDbEntity
  8
1
100
AcDbCircle
 10
12505.3092122242
 20
2390.133826041044
 30
0.0
 40
9.5
  0
CIRCLE
  5
C607
330
1F
100
AcDbEntity
  8
1
100
AcDbCircle
 10
12478.7927079297
 20
2363.617321746548
 30
0.0
 40
26.00000000000136
  0
LINE
  5
C625
330
1F
100
AcDbEntity
  8
1
100
AcDbLine
 10
12606.90041664995
 20
2348.617321746549
 30
0.0
 11
12606.90041664995
 21
2378.61732174655
 31
0.0
  0
LINE
  5
C628
330
1F
100
AcDbEntity
  8
1
100
AcDbLine
 10
12601.93027414981
 20
2379.859857371586
 30
0.0
 11
12606.90041664995
 21
2378.617321746549
 31
0.0
  0
ARC
  5
C629
330
1F
100
AcDbEntity
  8
1
100
AcDbCircle
 10
12602.90041664996
 20
2383.740427372167
 30
0.0
 40
4.0
100
AcDbArc
 50
180.0
 51
255.9637565320656
  0
LINE
  5
C62B
330
1F
100
AcDbEntity
  8
1
100
AcDbLine
 10
12601.93027414981
 20
2347.374786121513
 30
0.0
 11
12606.90041664995
 21
2348.61732174655
 31
0.0
  0
ARC
  5
C62C
330
1F
100
AcDbEntity
  8
1
100
AcDbCircle
 10
12602.90041664996
 20
2343.494216120932
 30
0.0
 40
4.0
100
AcDbArc
 50
104.0362434679344
 51
180.0
  0
LINE
  5
C692
330
1F
100
AcDbEntity
  8
1
100
AcDbLine
 10
13198.53731990557
 20
2421.117321746548
 30
0.0
 11
13182.53731990557
 21
2421.117321746547
 31
0.0
  0
LINE
  5
C693
330
1F
100
AcDbEntity
  8
1
100
AcDbLine
 10
13198.53731990557
 20
2306.117321746546
 30
0.0
 11
13182.53731990557
 21
2306.117321746548
 31
0.0
  0
CIRCLE
  5
C6D9
330
1F
100
AcDbEntity
  8
1
100
AcDbCircle
 10
13067.41217612852
 20
2363.617321746548
 30
0.0
 40
57.5
  0
CIRCLE
  5
C6DB
330
1F
100
AcDbEntity
  8
1
  6
CENTER
 48
0.5
100
AcDbCircle
 10
13067.41217612852
 20
2363.617321746548
 30
0.0
 40
40.00000000000023
  0
CIRCLE
  5
C6DC
330
1F
100
AcDbEntity
  8
1
100
AcDbCircle
 10
13039.12790488106
 20
2391.901592994006
 30
0.0
 40
9.5
  0
CIRCLE
  5
C6DE
330
1F
100
AcDbEntity
  8
1
100
AcDbCircle
 10
13039.12790488107
 20
2335.333050499079
 30
0.0
 40
9.5
  0
LINE
  5
C6DF
330
1F
100
AcDbEntity
  8
1
  6
CENTER
 48
0.5
100
AcDbLine
 10
13047.9667396459
 20
2344.171885263913
 30
0.0
 11
13030.28907011624
 21
2326.494215734247
 31
0.0
  0
CIRCLE
  5
C6E0
330
1F
100
AcDbEntity
  8
1
100
AcDbCircle
 10
13095.69644737599
 20
2335.33305049909
 30
0.0
 40
9.5
  0
LINE
  5
C6E1
330
1F
100
AcDbEntity
  8
1
  6
CENTER
 48
0.5
100
AcDbLine
 10
13086.85761261116
 20
2344.17188526392
 30
0.0
 11
13104.53528214083
 21
2326.494215734259
 31
0.0
  0
CIRCLE
  5
C6E2
330
1F
100
AcDbEntity
  8
1
100
AcDbCircle
 10
13095.69644737598
 20
2391.901592994015
 30
0.0
 40
9.5
  0
LINE
  5
C6E3
330
1F
100
AcDbEntity
  8
1
  6
CENTER
 48
0.5
100
AcDbLine
 10
13086.85761261116
 20
2383.062758229182
 30
0.0
 11
13104.53528214082
 21
2400.740427758849
 31
0.0
  0
LINE
  5
C6E4
330
1F
100
AcDbEntity
  8
1
  6
HIDDEN
 48
0.5
100
AcDbLine
 10
13199.53731990557
 20
2394.117321746548
 30
0.0
 11
13182.53731990557
 21
2394.117321746548
 31
0.0
  0
LINE
  5
C6E5
330
1F
100
AcDbEntity
  8
1
  6
HIDDEN
 48
0.5
100
AcDbLine
 10
13199.53731990557
 20
2413.117321746547
 30
0.0
 11
13182.53731990557
 21
2413.117321746548
 31
0.0
  0
LINE
  5
C6E6
330
1F
100
AcDbEntity
  8
1
  6
HIDDEN
 48
0.5
100
AcDbLine
 10
13199.53731990557
 20
2333.117321746546
 30
0.0
 11
13182.53731990557
 21
2333.117321746548
 31
0.0
  0
LINE
  5
C6E7
330
1F
100
AcDbEntity
  8
1
  6
HIDDEN
 48
0.5
100
AcDbLine
 10
13199.53731990557
 20
2314.117321746547
 30
0.0
 11
13182.53731990557
 21
2314.117321746546
 31
0.0
  0
CIRCLE
  5
C726
330
1F
100
AcDbEntity
  8
1
100
AcDbCircle
 10
13067.41217612852
 20
2363.617321746548
 30
0.0
 40
27.5
  0
LINE
  5
C743
330
1F
100
AcDbEntity
  8
1
100
AcDbLine
 10
13207.53731990557
 20
2381.617321746549
 30
0.0
 11
13207.53731990557
 21
2345.617321746548
 31
0.0
  0
LINE
  5
C758
330
1F
100
AcDbEntity
  8
1
100
AcDbLine
 10
13203.32464178039
 20
2382.670491277844
 30
0.0
 11
13207.53731990557
 21
2381.617321746547
 31
0.0
  0
ARC
  5
C762
330
1F
100
AcDbEntity
  8
1
100
AcDbCircle
 10
13204.53731990557
 20
2387.52120377857
 30
0.0
 40
5.0
100
AcDbArc
 50
180.0
 51
255.9637565320799
  0
LINE
  5
C763
330
1F
100
AcDbEntity
  8
1
100
AcDbLine
 10
13203.32464178039
 20
2344.564152215252
 30
0.0
 11
13207.53731990557
 21
2345.617321746548
 31
0.0
  0
ARC
  5
C764
330
1F
100
AcDbEntity
  8
1
100
AcDbCircle
 10
13204.53731990557
 20
2339.713439714525
 30
0.0
 40
5.0
100
AcDbArc
 50
104.0362434679201
 51
180.0
  0
LINE
  5
C7FB
330
1F
100
AcDbEntity
  8
1
100
AcDbLine
 10
13808.83384332011
 20
2423.617321746548
 30
0.0
 11
13792.83384332011
 21
2423.617321746548
 31
0.0
  0
LINE
  5
C7FC
330
1F
100
AcDbEntity
  8
1
100
AcDbLine
 10
13808.83384332011
 20
2303.617321746547
 30
0.0
 11
13792.83384332011
 21
2303.617321746548
 31
0.0
  0
CIRCLE
  5
C82C
330
1F
100
AcDbEntity
  8
1
100
AcDbCircle
 10
13678.434564497
 20
2363.617321746548
 30
0.0
 40
60.0
  0
CIRCLE
  5
C840
330
1F
100
AcDbEntity
  8
1
  6
CENTER
 48
0.5
100
AcDbCircle
 10
13678.434564497
 20
2363.617321746548
 30
0.0
 40
42.50000000000002
  0
CIRCLE
  5
C841
330
1F
100
AcDbEntity
  8
1
100
AcDbCircle
 10
13648.38252629657
 20
2393.669359946971
 30
0.0
 40
9.5
  0
LINE
  5
C850
330
1F
100
AcDbEntity
  8
1
  6
HIDDEN
 48
0.5
100
AcDbLine
 10
13809.83384332011
 20
2415.617321746548
 30
0.0
 11
13792.83384332011
 21
2415.617321746547
 31
0.0
  0
LINE
  5
C851
330
1F
100
AcDbEntity
  8
1
  6
HIDDEN
 48
0.5
100
AcDbLine
 10
13809.83384332011
 20
2396.617321746548
 30
0.0
 11
13792.83384332011
 21
2396.617321746547
 31
0.0
  0
LINE
  5
C852
330
1F
100
AcDbEntity
  8
1
  6
HIDDEN
 48
0.5
100
AcDbLine
 10
13809.83384332011
 20
2330.617321746547
 30
0.0
 11
13792.83384332011
 21
2330.617321746547
 31
0.0
  0
LINE
  5
C853
330
1F
100
AcDbEntity
  8
1
  6
HIDDEN
 48
0.5
100
AcDbLine
 10
13809.83384332011
 20
2311.617321746547
 30
0.0
 11
13792.83384332011
 21
2311.617321746548
 31
0.0
  0
CIRCLE
  5
C854
330
1F
100
AcDbEntity
  8
1
100
AcDbCircle
 10
13648.38252629658
 20
2333.565283546118
 30
0.0
 40
9.5
  0
LINE
  5
C855
330
1F
100
AcDbEntity
  8
1
  6
CENTER
 48
0.5
100
AcDbLine
 10
13657.22136106141
 20
2342.40411831095
 30
0.0
 11
13639.54369153175
 21
2324.726448781286
 31
0.0
  0
CIRCLE
  5
C856
330
1F
100
AcDbEntity
  8
1
100
AcDbCircle
 10
13708.48660269743
 20
2333.565283546124
 30
0.0
 40
9.5
  0
LINE
  5
C857
330
1F
100
AcDbEntity
  8
1
  6
CENTER
 48
0.5
100
AcDbLine
 10
13699.6477679326
 20
2342.404118310957
 30
0.0
 11
13717.32543746225
 21
2324.726448781294
 31
0.0
  0
CIRCLE
  5
C858
330
1F
100
AcDbEntity
  8
1
100
AcDbCircle
 10
13708.48660269742
 20
2393.669359946976
 30
0.0
 40
9.5
  0
LINE
  5
C859
330
1F
100
AcDbEntity
  8
1
  6
CENTER
 48
0.5
100
AcDbLine
 10
13699.64776793259
 20
2384.830525182146
 30
0.0
 11
13717.32543746225
 21
2402.508194711809
 31
0.0
  0
CIRCLE
  5
C89B
330
1F
100
AcDbEntity
  8
1
100
AcDbCircle
 10
13678.434564497
 20
2363.617321746548
 30
0.0
 40
30.0
  0
LINE
  5
C8D4
330
1F
100
AcDbEntity
  8
1
100
AcDbLine
 10
13819.83384332011
 20
2384.617321746548
 30
0.0
 11
13819.83384332011
 21
2342.617321746548
 31
0.0
  0
LINE
  5
C8D7
330
1F
100
AcDbEntity
  8
1
100
AcDbLine
 10
13819.83384332011
 20
2384.617321746548
 30
0.0
 11
13813.85326264442
 21
2385.813437881687
 31
0.0
  0
ARC
  5
C8D8
330
1F
100
AcDbEntity
  8
1
100
AcDbCircle
 10
13814.83384332011
 20
2390.71634126014
 30
0.0
 40
5.0
100
AcDbArc
 50
180.0
 51
258.6900675259849
  0
LINE
  5
C8D9
330
1F
100
AcDbEntity
  8
1
100
AcDbLine
 10
13819.83384332011
 20
2342.617321746548
 30
0.0
 11
13813.85326264442
 21
2341.421205611409
 31
0.0
  0
ARC
  5
C8DA
330
1F
100
AcDbEntity
  8
1
100
AcDbCircle
 10
13814.83384332011
 20
2336.518302232955
 30
0.0
 40
5.0
100
AcDbArc
 50
101.3099324740151
 51
180.0
  0
LINE
  5
C960
330
1F
100
AcDbEntity
  8
1
100
AcDbLine
 10
14468.72277640145
 20
2428.617321746548
 30
0.0
 11
14450.72277640145
 21
2428.617321746547
 31
0.0
  0
LINE
  5
C961
330
1F
100
AcDbEntity
  8
1
100
AcDbLine
 10
14468.72277640145
 20
2298.617321746547
 30
0.0
 11
14450.72277640145
 21
2298.617321746549
 31
0.0
  0
CIRCLE
  5
C962
330
1F
100
AcDbEntity
  8
1
100
AcDbCircle
 10
14320.39510656993
 20
2363.617321746548
 30
0.0
 40
65.0
  0
CIRCLE
  5
C99B
330
1F
100
AcDbEntity
  8
1
  6
CENTER
 48
0.5
100
AcDbCircle
 10
14320.39510656993
 20
2363.617321746548
 30
0.0
 40
47.49999999999958
  0
CIRCLE
  5
C99C
330
1F
100
AcDbEntity
  8
1
100
AcDbCircle
 10
14286.80753446356
 20
2330.029749640192
 30
0.0
 40
9.5
  0
LINE
  5
C99D
330
1F
100
AcDbEntity
  8
1
  6
CENTER
 48
0.5
100
AcDbLine
 10
14295.6463692284
 20
2338.86858440502
 30
0.0
 11
14277.96869969873
 21
2321.19091487536
 31
0.0
  0
CIRCLE
  5
C99E
330
1F
100
AcDbEntity
  8
1
100
AcDbCircle
 10
14353.98267867629
 20
2330.029749640184
 30
0.0
 40
9.5
  0
LINE
  5
C99F
330
1F
100
AcDbEntity
  8
1
  6
CENTER
 48
0.5
100
AcDbLine
 10
14345.14384391146
 20
2338.868584405015
 30
0.0
 11
14362.82151344112
 21
2321.190914875352
 31
0.0
  0
CIRCLE
  5
C9A0
330
1F
100
AcDbEntity
  8
1
100
AcDbCircle
 10
14353.98267867629
 20
2397.204893852905
 30
0.0
 40
9.5
  0
LINE
  5
C9A1
330
1F
100
AcDbEntity
  8
1
  6
CENTER
 48
0.5
100
AcDbLine
 10
14345.14384391146
 20
2388.366059088076
 30
0.0
 11
14362.82151344113
 21
2406.043728617735
 31
0.0
  0
CIRCLE
  5
C9AF
330
1F
100
AcDbEntity
  8
skeleton
100
AcDbCircle
 10
14320.39510656993
 20
2363.617321746548
 30
0.0
 40
35.00000000000137
  0
LINE
  5
C9F9
330
1F
100
AcDbEntity
  8
1
100
AcDbLine
 10
14479.72277640145
 20
2388.617321746548
 30
0.0
 11
14479.72277640145
 21
2338.617321746548
 31
0.0
  0
LINE
  5
C9FC
330
1F
100
AcDbEntity
  8
1
100
AcDbLine
 10
14479.72277640145
 20
2388.617321746548
 30
0.0
 11
14473.74219572576
 21
2389.813437881687
 31
0.0
  0
ARC
  5
C9FD
330
1F
100
AcDbEntity
  8
1
100
AcDbCircle
 10
14474.72277640145
 20
2394.716341260141
 30
0.0
 40
5.0
100
AcDbArc
 50
180.0
 51
258.6900675259839
  0
LINE
  5
CA08
330
1F
100
AcDbEntity
  8
1
100
AcDbLine
 10
14479.72277640145
 20
2338.617321746548
 30
0.0
 11
14473.74219572576
 21
2337.421205611409
 31
0.0
  0
ARC
  5
CA09
330
1F
100
AcDbEntity
  8
1
100
AcDbCircle
 10
14474.72277640145
 20
2332.518302232955
 30
0.0
 40
5.0
100
AcDbArc
 50
101.3099324740161
 51
180.0
  0
CIRCLE
  5
CB41
330
1F
100
AcDbEntity
  8
1
100
AcDbCircle
 10
14990.11009510308
 20
2363.617321746548
 30
0.0
 40
70.0
  0
CIRCLE
  5
CB42
330
1F
100
AcDbEntity
  8
1
  6
CENTER
100
AcDbCircle
 10
14990.11009510308
 20
2363.617321746548
 30
0.0
 40
52.49999999999989
  0
LINE
  5
CBBC
330
1F
100
AcDbEntity
  8
1
100
AcDbLine
 10
15165.71950024214
 20
2394.652661108713
 30
0.0
 11
15170.89619705295
 21
2393.617321746548
 31
0.0
  0
ARC
  5
CBBD
330
1F
100
AcDbEntity
  8
1
100
AcDbCircle
 10
15166.89619705297
 20
2400.536145162858
 30
0.0
 40
6.0
100
AcDbArc
 50
180.0
 51
258.6900675259755
  0
LINE
  5
CBBE
330
1F
100
AcDbEntity
  8
1
100
AcDbLine
 10
15170.89619705296
 20
2393.617321746548
 30
0.0
 11
15170.89619705295
 21
2333.617321746547
 31
0.0
  0
LINE
  5
CBBF
330
1F
100
AcDbEntity
  8
1
100
AcDbLine
 10
15165.71950024214
 20
2332.581982384382
 30
0.0
 11
15170.89619705295
 21
2333.617321746547
 31
0.0
  0
ARC
  5
CBC0
330
1F
100
AcDbEntity
  8
1
100
AcDbCircle
 10
15166.89619705297
 20
2326.698498330237
 30
0.0
 40
6.0
100
AcDbArc
 50
101.3099324740245
 51
180.0
  0
LINE
  5
CCBC
330
1F
100
AcDbEntity
  8
1
100
AcDbLine
 10
15864.37750074981
 20
2443.617321746548
 30
0.0
 11
15845.37750074981
 21
2443.617321746548
 31
0.0
  0
LINE
  5
CCBD
330
1F
100
AcDbEntity
  8
1
100
AcDbLine
 10
15864.37750074981
 20
2283.617321746548
 30
0.0
 11
15845.37750074982
 21
2283.617321746548
 31
0.0
  0
CIRCLE
  5
CCD9
330
1F
100
AcDbEntity
  8
1
100
AcDbCircle
 10
15688.78476345938
 20
2363.617321746548
 30
0.0
 40
80.0
  0
CIRCLE
  5
CCFA
330
1F
100
AcDbEntity
  8
1
  6
CENTER
 48
0.5
100
AcDbCircle
 10
15688.78476345938
 20
2363.617321746548
 30
0.0
 40
59.99999999999934
  0
CIRCLE
  5
CCFB
330
1F
100
AcDbEntity
  8
1
100
AcDbCircle
 10
15646.35835658819
 20
2406.043728617742
 30
0.0
 40
11.5
  0
CIRCLE
  5
CCFE
330
1F
100
AcDbEntity
  8
1
100
AcDbCircle
 10
15646.35835658818
 20
2321.19091487536
 30
0.0
 40
11.5
  0
LINE
  5
CCFF
330
1F
100
AcDbEntity
  8
1
  6
CENTER
 48
0.5
100
AcDbLine
 10
15658.02561847776
 20
2332.858176764936
 30
0.0
 11
15634.69109469861
 21
2309.523652985777
 31
0.0
  0
CIRCLE
  5
CD00
330
1F
100
AcDbEntity
  8
1
100
AcDbCircle
 10
15731.21117033056
 20
2321.190914875353
 30
0.0
 40
11.5
  0
LINE
  5
CD01
330
1F
100
AcDbEntity
  8
1
  6
CENTER
 48
0.5
100
AcDbLine
 10
15719.54390844099
 20
2332.858176764932
 30
0.0
 11
15742.87843222014
 21
2309.523652985777
 31
0.0
  0
CIRCLE
  5
CD02
330
1F
100
AcDbEntity
  8
1
100
AcDbCircle
 10
15731.21117033057
 20
2406.043728617734
 30
0.0
 40
11.5
  0
LINE
  5
CD03
330
1F
100
AcDbEntity
  8
1
  6
CENTER
 48
0.5
100
AcDbLine
 10
15719.54390844099
 20
2394.376466728158
 30
0.0
 11
15742.87843222015
 21
2417.710990507317
 31
0.0
  0
LINE
  5
CD04
330
1F
100
AcDbEntity
  8
1
  6
HIDDEN
 48
0.5
100
AcDbLine
 10
15865.37750074982
 20
2435.117321746548
 30
0.0
 11
15845.37750074981
 21
2435.117321746548
 31
0.0
  0
LINE
  5
CD05
330
1F
100
AcDbEntity
  8
1
  6
HIDDEN
 48
0.5
100
AcDbLine
 10
15865.37750074982
 20
2412.117321746548
 30
0.0
 11
15845.37750074982
 21
2412.117321746548
 31
0.0
  0
LINE
  5
CD06
330
1F
100
AcDbEntity
  8
1
  6
HIDDEN
 48
0.5
100
AcDbLine
 10
15865.37750074982
 20
2315.117321746548
 30
0.0
 11
15845.37750074982
 21
2315.117321746548
 31
0.0
  0
LINE
  5
CD07
330
1F
100
AcDbEntity
  8
1
  6
HIDDEN
 48
0.5
100
AcDbLine
 10
15865.37750074982
 20
2292.117321746548
 30
0.0
 11
15845.37750074982
 21
2292.117321746547
 31
0.0
  0
CIRCLE
  5
CD37
330
1F
100
AcDbEntity
  8
1
100
AcDbCircle
 10
15688.78476345938
 20
2363.617321746548
 30
0.0
 40
45.0
  0
LINE
  5
CD89
330
1F
100
AcDbEntity
  8
1
100
AcDbLine
 10
15877.37750074982
 20
2396.617321746548
 30
0.0
 11
15877.37750074982
 21
2330.617321746548
 31
0.0
  0
LINE
  5
CD96
330
1F
100
AcDbEntity
  8
1
100
AcDbLine
 10
15870.39110682598
 20
2397.781720733854
 30
0.0
 11
15877.37750074982
 21
2396.617321746548
 31
0.0
  0
ARC
  5
CD97
330
1F
100
AcDbEntity
  8
1
100
AcDbCircle
 10
15871.37750074981
 20
2403.700084276847
 30
0.0
 40
6.0
100
AcDbArc
 50
180.0
 51
260.5376777919659
  0
LINE
  5
CD98
330
1F
100
AcDbEntity
  8
1
100
AcDbLine
 10
15870.39110682598
 20
2329.452922759242
 30
0.0
 11
15877.37750074982
 21
2330.617321746547
 31
0.0
  0
ARC
  5
CD99
330
1F
100
AcDbEntity
  8
1
100
AcDbCircle
 10
15871.37750074981
 20
2323.534559216249
 30
0.0
 40
6.0
100
AcDbArc
 50
99.46232220803423
 51
180.0
  0
CIRCLE
  5
CE4F
330
1F
100
AcDbEntity
  8
1
100
AcDbCircle
 10
16369.32724312506
 20
2363.617321746547
 30
0.0
 40
82.5
  0
CIRCLE
  5
CE51
330
1F
100
AcDbEntity
  8
1
  6
CENTER
100
AcDbCircle
 10
16369.32724312506
 20
2363.617321746547
 30
0.0
 40
64.99999999999984
  0
LINE
  5
CED5
330
1F
100
AcDbEntity
  8
1
100
AcDbLine
 10
16578.59951346258
 20
2404.617321746548
 30
0.0
 11
16578.59951346259
 21
2322.617321746548
 31
0.0
  0
LINE
  5
CEF8
330
1F
100
AcDbEntity
  8
1
100
AcDbLine
 10
16569.75098532516
 20
2405.881397194751
 30
0.0
 11
16578.59951346258
 21
2404.617321746548
 31
0.0
  0
ARC
  5
CEF9
330
1F
100
AcDbEntity
  8
1
100
AcDbCircle
 10
16570.59951346258
 20
2411.821094156718
 30
0.0
 40
6.0
100
AcDbArc
 50
180.0
 51
261.8698976458496
  0
LINE
  5
CF0C
330
1F
100
AcDbEntity
  8
1
100
AcDbLine
 10
16569.75098532516
 20
2321.353246298345
 30
0.0
 11
16578.59951346258
 21
2322.617321746548
 31
0.0
  0
ARC
  5
CF0D
330
1F
100
AcDbEntity
  8
1
100
AcDbCircle
 10
16570.59951346258
 20
2315.413549336378
 30
0.0
 40
6.0
100
AcDbArc
 50
98.13010235415042
 51
180.0
  0
CIRCLE
  5
CF17
330
1F
100
AcDbEntity
  8
1
100
AcDbCircle
 10
16369.32724312506
 20
2363.617321746547
 30
0.0
 40
52.50000000000091
  0
CIRCLE
  5
CF32
330
1F
100
AcDbEntity
  8
1
100
AcDbCircle
 10
16309.27507351183
 20
2388.491744850278
 30
0.0
 40
9.5
  0
LINE
  5
CF33
330
1F
100
AcDbEntity
  8
1
  6
CENTER
 48
0.5
100
AcDbLine
 10
16320.82356766822
 20
2383.708201945716
 30
0.0
 11
16297.72657935544
 21
2393.275287754843
 31
0.0
  0
CIRCLE
  5
CF34
330
1F
100
AcDbEntity
  8
1
100
AcDbCircle
 10
16309.27507351183
 20
2338.742898642818
 30
0.0
 40
9.5
  0
LINE
  5
CF35
330
1F
100
AcDbEntity
  8
1
  6
CENTER
 48
0.5
100
AcDbLine
 10
16320.82356766822
 20
2343.526441547383
 30
0.0
 11
16297.72657935544
 21
2333.959355738253
 31
0.0
  0
CIRCLE
  5
CF36
330
1F
100
AcDbEntity
  8
1
100
AcDbCircle
 10
16344.45282002133
 20
2303.565152133314
 30
0.0
 40
9.5
  0
LINE
  5
CF37
330
1F
100
AcDbEntity
  8
1
  6
CENTER
 48
0.5
100
AcDbLine
 10
16349.2363629259
 20
2315.113646289709
 30
0.0
 11
16339.66927711677
 21
2292.016657976924
 31
0.0
  0
CIRCLE
  5
CF38
330
1F
100
AcDbEntity
  8
1
100
AcDbCircle
 10
16394.20166622879
 20
2303.565152133313
 30
0.0
 40
9.5
  0
LINE
  5
CF39
330
1F
100
AcDbEntity
  8
1
  6
CENTER
 48
0.5
100
AcDbLine
 10
16389.41812332423
 20
2315.113646289707
 30
0.0
 11
16398.98520913336
 21
2292.016657976923
 31
0.0
  0
CIRCLE
  5
CF3A
330
1F
100
AcDbEntity
  8
1
100
AcDbCircle
 10
16429.3794127383
 20
2338.742898642813
 30
0.0
 40
9.5
  0
LINE
  5
CF3B
330
1F
100
AcDbEntity
  8
1
  6
CENTER
 48
0.5
100
AcDbLine
 10
16417.8309185819
 20
2343.526441547381
 30
0.0
 11
16440.92790689469
 21
2333.959355738254
 31
0.0
  0
CIRCLE
  5
CF3C
330
1F
100
AcDbEntity
  8
1
100
AcDbCircle
 10
16429.3794127383
 20
2388.491744850275
 30
0.0
 40
9.5
  0
LINE
  5
CF3D
330
1F
100
AcDbEntity
  8
1
  6
CENTER
 48
0.5
100
AcDbLine
 10
16417.8309185819
 20
2383.70820194571
 30
0.0
 11
16440.92790689469
 21
2393.275287754841
 31
0.0
  0
CIRCLE
  5
CF3E
330
1F
100
AcDbEntity
  8
1
100
AcDbCircle
 10
16394.2016662288
 20
2423.669491359782
 30
0.0
 40
9.5
  0
LINE
  5
CF3F
330
1F
100
AcDbEntity
  8
1
  6
CENTER
 48
0.5
100
AcDbLine
 10
16389.41812332423
 20
2412.120997203385
 30
0.0
 11
16398.98520913336
 21
2435.217985516171
 31
0.0
  0
CIRCLE
  5
CFFA
330
1F
100
AcDbEntity
  8
1
100
AcDbCircle
 10
17094.50393707959
 20
2363.617321746548
 30
0.0
 40
100.0
  0
LINE
  5
D020
330
1F
100
AcDbEntity
  8
1
100
AcDbLine
 10
17304.57539029401
 20
2463.617321746548
 30
0.0
 11
17281.575390294
 21
2463.617321746549
 31
0.0
  0
LINE
  5
D02C
330
1F
100
AcDbEntity
  8
1
100
AcDbLine
 10
17304.57539029401
 20
2263.617321746547
 30
0.0
 11
17281.575390294
 21
2263.617321746545
 31
0.0
  0
CIRCLE
  5
D051
330
1F
100
AcDbEntity
  8
1
  6
CENTER
100
AcDbCircle
 10
17094.50393707959
 20
2363.617321746548
 30
0.0
 40
80.00000000000037
  0
CIRCLE
  5
D054
330
1F
100
AcDbEntity
  8
1
100
AcDbCircle
 10
17063.88926249039
 20
2437.527684347453
 30
0.0
 40
11.5
  0
LINE
  5
D07D
330
1F
100
AcDbEntity
  8
1
  6
HIDDEN
 48
0.5
100
AcDbLine
 10
17305.57539029401
 20
2455.117321746548
 30
0.0
 11
17281.57539029401
 21
2455.117321746548
 31
0.0
  0
LINE
  5
D07E
330
1F
100
AcDbEntity
  8
1
  6
HIDDEN
 48
0.5
100
AcDbLine
 10
17305.57539029401
 20
2432.117321746547
 30
0.0
 11
17281.57539029401
 21
2432.117321746547
 31
0.0
  0
LINE
  5
D07F
330
1F
100
AcDbEntity
  8
1
  6
HIDDEN
 48
0.5
100
AcDbLine
 10
17305.57539029401
 20
2295.117321746547
 30
0.0
 11
17281.57539029401
 21
2295.117321746547
 31
0.0
  0
LINE
  5
D080
330
1F
100
AcDbEntity
  8
1
  6
HIDDEN
 48
0.5
100
AcDbLine
 10
17305.57539029401
 20
2272.117321746547
 30
0.0
 11
17281.57539029401
 21
2272.117321746546
 31
0.0
  0
CIRCLE
  5
D0A0
330
1F
100
AcDbEntity
  8
1
100
AcDbCircle
 10
17020.59357447869
 20
2394.231996335762
 30
0.0
 40
11.5
  0
LINE
  5
D0A1
330
1F
100
AcDbEntity
  8
1
  6
CENTER
 48
0.5
100
AcDbLine
 10
17034.91370723261
 20
2388.300403134101
 30
0.0
 11
17006.27344172477
 21
2400.163589537419
 31
0.0
  0
CIRCLE
  5
D0A2
330
1F
100
AcDbEntity
  8
1
100
AcDbCircle
 10
17020.59357447868
 20
2333.002647157348
 30
0.0
 40
11.5
  0
LINE
  5
D0A3
330
1F
100
AcDbEntity
  8
1
  6
CENTER
 48
0.5
100
AcDbLine
 10
17034.91370723261
 20
2338.934240359002
 30
0.0
 11
17006.27344172476
 21
2327.071053955689
 31
0.0
  0
CIRCLE
  5
D0A4
330
1F
100
AcDbEntity
  8
1
100
AcDbCircle
 10
17063.88926249037
 20
2289.706959145645
 30
0.0
 40
11.5
  0
LINE
  5
D0A5
330
1F
100
AcDbEntity
  8
1
  6
CENTER
 48
0.5
100
AcDbLine
 10
17069.82085569203
 20
2304.027091899568
 30
0.0
 11
17057.95766928871
 21
2275.386826391727
 31
0.0
  0
CIRCLE
  5
D0A6
330
1F
100
AcDbEntity
  8
1
100
AcDbCircle
 10
17125.11861166879
 20
2289.706959145643
 30
0.0
 40
11.5
  0
LINE
  5
D0A7
330
1F
100
AcDbEntity
  8
1
  6
CENTER
 48
0.5
100
AcDbLine
 10
17119.18701846713
 20
2304.027091899566
 30
0.0
 11
17131.05020487045
 21
2275.386826391721
 31
0.0
  0
CIRCLE
  5
D0A8
330
1F
100
AcDbEntity
  8
1
100
AcDbCircle
 10
17168.41429968049
 20
2333.002647157334
 30
0.0
 40
11.5
  0
LINE
  5
D0A9
330
1F
100
AcDbEntity
  8
1
  6
CENTER
 48
0.5
100
AcDbLine
 10
17154.09416692657
 20
2338.934240358996
 30
0.0
 11
17182.73443243441
 21
2327.071053955677
 31
0.0
  0
CIRCLE
  5
D0AA
330
1F
100
AcDbEntity
  8
1
100
AcDbCircle
 10
17168.4142996805
 20
2394.231996335748
 30
0.0
 40
11.5
  0
LINE
  5
D0AB
330
1F
100
AcDbEntity
  8
1
  6
CENTER
 48
0.5
100
AcDbLine
 10
17154.09416692657
 20
2388.300403134094
 30
0.0
 11
17182.73443243441
 21
2400.163589537406
 31
0.0
  0
CIRCLE
  5
D0AC
330
1F
100
AcDbEntity
  8
1
100
AcDbCircle
 10
17125.1186116688
 20
2437.527684347451
 30
0.0
 40
11.5
  0
LINE
  5
D0AD
330
1F
100
AcDbEntity
  8
1
  6
CENTER
 48
0.5
100
AcDbLine
 10
17119.18701846714
 20
2423.207551593527
 30
0.0
 11
17131.05020487046
 21
2451.84781710137
 31
0.0
  0
CIRCLE
  5
D111
330
1F
100
AcDbEntity
  8
1
100
AcDbCircle
 10
17094.50393707959
 20
2363.617321746548
 30
0.0
 40
65.00000000000046
  0
LINE
  5
D14F
330
1F
100
AcDbEntity
  8
1
100
AcDbLine
 10
17319.57539029401
 20
2414.617321746547
 30
0.0
 11
17319.57539029401
 21
2312.617321746547
 31
0.0
  0
LINE
  5
D152
330
1F
100
AcDbEntity
  8
1
100
AcDbLine
 10
17319.57539029401
 20
2414.617321746547
 30
0.0
 11
17312.44401944411
 21
2415.636089010818
 31
0.0
  0
ARC
  5
D153
330
1F
100
AcDbEntity
  8
1
100
AcDbCircle
 10
17313.57539029401
 20
2423.555684960107
 30
0.0
 40
8.0
100
AcDbArc
 50
180.0
 51
261.8698976458316
  0
LINE
  5
D166
330
1F
100
AcDbEntity
  8
1
100
AcDbLine
 10
17319.57539029401
 20
2312.617321746547
 30
0.0
 11
17312.44401944411
 21
2311.598554482277
 31
0.0
  0
ARC
  5
D167
330
1F
100
AcDbEntity
  8
1
100
AcDbCircle
 10
17313.57539029401
 20
2303.678958532989
 30
0.0
 40
8.0
100
AcDbArc
 50
98.13010235416841
 51
180.0
  0
CIRCLE
  5
D20D
330
1F
100
AcDbEntity
  8
1
100
AcDbCircle
 10
17869.35830237807
 20
2363.617321746548
 30
0.0
 40
105.0
  0
CIRCLE
  5
D20E
330
1F
100
AcDbEntity
  8
1
  6
CENTER
100
AcDbCircle
 10
17869.35830237807
 20
2363.617321746548
 30
0.0
 40
85.0
  0
LINE
  5
D26C
330
1F
100
AcDbEntity
  8
1
  6
CENTER
 48
0.5
100
AcDbLine
 10
17808.53623315441
 20
2388.81064771059
 30
0.0
 11
17773.12085107482
 21
2403.480179284585
 31
0.0
  0
CIRCLE
  5
D26D
330
1F
100
AcDbEntity
  8
1
100
AcDbCircle
 10
17790.82854211461
 20
2396.14541349758
 30
0.0
 40
11.5
  0
LINE
  5
D26E
330
1F
100
AcDbEntity
  8
1
  6
CENTER
 48
0.5
100
AcDbLine
 10
17808.53623315441
 20
2338.423995782523
 30
0.0
 11
17773.12085107481
 21
2323.754464208527
 31
0.0
  0
CIRCLE
  5
D26F
330
1F
100
AcDbEntity
  8
1
100
AcDbCircle
 10
17790.82854211461
 20
2331.089229995516
 30
0.0
 40
11.5
  0
LINE
  5
D270
330
1F
100
AcDbEntity
  8
1
  6
CENTER
 48
0.5
100
AcDbLine
 10
17844.16497641403
 20
2302.795252522894
 30
0.0
 11
17829.49544484004
 21
2267.379870443296
 31
0.0
  0
CIRCLE
  5
D271
330
1F
100
AcDbEntity
  8
1
100
AcDbCircle
 10
17836.83021062704
 20
2285.087561483088
 30
0.0
 40
11.5
  0
LINE
  5
D272
330
1F
100
AcDbEntity
  8
1
  6
CENTER
 48
0.5
100
AcDbLine
 10
17894.55162834209
 20
2302.795252522887
 30
0.0
 11
17909.22115991609
 21
2267.379870443289
 31
0.0
  0
CIRCLE
  5
D273
330
1F
100
AcDbEntity
  8
1
100
AcDbCircle
 10
17901.8863941291
 20
2285.087561483087
 30
0.0
 40
11.5
  0
LINE
  5
D274
330
1F
100
AcDbEntity
  8
1
  6
CENTER
 48
0.5
100
AcDbLine
 10
17930.18037160172
 20
2338.423995782503
 30
0.0
 11
17965.59575368132
 21
2323.75446420851
 31
0.0
  0
CIRCLE
  5
D275
330
1F
100
AcDbEntity
  8
1
100
AcDbCircle
 10
17947.88806264153
 20
2331.089229995511
 30
0.0
 40
11.5
  0
LINE
  5
D276
330
1F
100
AcDbEntity
  8
1
  6
CENTER
 48
0.5
100
AcDbLine
 10
17930.18037160173
 20
2388.810647710572
 30
0.0
 11
17965.59575368133
 21
2403.480179284569
 31
0.0
  0
CIRCLE
  5
D277
330
1F
100
AcDbEntity
  8
1
100
AcDbCircle
 10
17947.88806264153
 20
2396.145413497582
 30
0.0
 40
11.5
  0
LINE
  5
D278
330
1F
100
AcDbEntity
  8
1
  6
CENTER
 48
0.5
100
AcDbLine
 10
17894.55162834211
 20
2424.4393909702
 30
0.0
 11
17909.2211599161
 21
2459.854773049801
 31
0.0
  0
CIRCLE
  5
D279
330
1F
100
AcDbEntity
  8
1
100
AcDbCircle
 10
17901.8863941291
 20
2442.147082010009
 30
0.0
 40
11.5
  0
CIRCLE
  5
D2E3
330
1F
100
AcDbEntity
  8
1
100
AcDbCircle
 10
17869.35830237807
 20
2363.617321746548
 30
0.0
 40
70.00000000000046
  0
LINE
  5
D315
330
1F
100
AcDbEntity
  8
1
100
AcDbLine
 10
18124.07202643633
 20
2421.117321746548
 30
0.0
 11
18124.07202643634
 21
2306.117321746548
 31
0.0
  0
LINE
  5
D321
330
1F
100
AcDbEntity
  8
1
100
AcDbLine
 10
18114.59771815593
 20
2422.893754549122
 30
0.0
 11
18124.07202643633
 21
2421.117321746548
 31
0.0
  0
ARC
  5
D322
330
1F
100
AcDbEntity
  8
1
100
AcDbCircle
 10
18116.07202643634
 20
2430.756732044597
 30
0.0
 40
8.0
100
AcDbArc
 50
180.0000000000032
 51
259.3803447238437
  0
LINE
  5
D323
330
1F
100
AcDbEntity
  8
1
100
AcDbLine
 10
18114.59771815593
 20
2304.340888943973
 30
0.0
 11
18124.07202643633
 21
2306.117321746548
 31
0.0
  0
ARC
  5
D324
330
1F
100
AcDbEntity
  8
1
100
AcDbCircle
 10
18116.07202643634
 20
2296.477911448499
 30
0.0
 40
8.0
100
AcDbArc
 50
100.6196552761563
 51
179.9999999999966
  0
LINE
  5
D413
330
1F
100
AcDbEntity
  8
1
100
AcDbLine
 10
12746.14191644447
 20
2053.321890976123
 30
0.0
 11
12719.14191644447
 21
2053.321890976124
 31
0.0
  0
LINE
  5
D414
330
1F
100
AcDbEntity
  8
1
100
AcDbLine
 10
12746.14191644447
 20
1823.321890976123
 30
0.0
 11
12719.14191644447
 21
1823.321890976122
 31
0.0
  0
CIRCLE
  5
D430
330
1F
100
AcDbEntity
  8
1
100
AcDbCircle
 10
12490.07290709152
 20
1938.321890976123
 30
0.0
 40
115.0
  0
CIRCLE
  5
D463
330
1F
100
AcDbEntity
  8
1
  6
CENTER
100
AcDbCircle
 10
12490.07290709152
 20
1938.321890976123
 30
0.0
 40
92.5
  0
CIRCLE
  5
D476
330
1F
100
AcDbEntity
  8
1
100
AcDbCircle
 10
12454.67468959774
 20
2023.780747733414
 30
0.0
 40
12.5
  0
LINE
  5
D477
330
1F
100
AcDbEntity
  8
1
  6
CENTER
 48
0.5
100
AcDbLine
 10
12422.32174137402
 20
1966.385342682885
 30
0.0
 11
12386.90635929442
 21
1981.054874256877
 31
0.0
  0
CIRCLE
  5
D478
330
1F
100
AcDbEntity
  8
1
100
AcDbCircle
 10
12404.61405033423
 20
1973.720108469885
 30
0.0
 40
12.5
  0
LINE
  5
D479
330
1F
100
AcDbEntity
  8
1
  6
CENTER
 48
0.5
100
AcDbLine
 10
12422.32174137403
 20
1910.258439269333
 30
0.0
 11
12386.90635929444
 21
1895.588907695335
 31
0.0
  0
CIRCLE
  5
D47A
330
1F
100
AcDbEntity
  8
1
100
AcDbCircle
 10
12404.61405033423
 20
1902.923673482343
 30
0.0
 40
12.5
  0
LINE
  5
D47B
330
1F
100
AcDbEntity
  8
1
  6
CENTER
 48
0.5
100
AcDbLine
 10
12462.00945538477
 20
1870.57072525862
 30
0.0
 11
12447.33992381077
 21
1835.155343179018
 31
0.0
  0
CIRCLE
  5
D47C
330
1F
100
AcDbEntity
  8
1
100
AcDbCircle
 10
12454.67468959776
 20
1852.863034218824
 30
0.0
 40
12.5
  0
LINE
  5
D47D
330
1F
100
AcDbEntity
  8
1
  6
CENTER
 48
0.5
100
AcDbLine
 10
12518.13635879832
 20
1870.570725258631
 30
0.0
 11
12532.80589037232
 21
1835.155343179032
 31
0.0
  0
CIRCLE
  5
D47E
330
1F
100
AcDbEntity
  8
1
100
AcDbCircle
 10
12525.47112458531
 20
1852.863034218833
 30
0.0
 40
12.5
  0
LINE
  5
D47F
330
1F
100
AcDbEntity
  8
1
  6
CENTER
 48
0.5
100
AcDbLine
 10
12557.82407280903
 20
1910.258439269364
 30
0.0
 11
12593.23945488863
 21
1895.58890769537
 31
0.0
  0
CIRCLE
  5
D480
330
1F
100
AcDbEntity
  8
1
100
AcDbCircle
 10
12575.53176384882
 20
1902.923673482359
 30
0.0
 40
12.5
  0
LINE
  5
D481
330
1F
100
AcDbEntity
  8
1
  6
CENTER
 48
0.5
100
AcDbLine
 10
12557.82407280902
 20
1966.385342682914
 30
0.0
 11
12593.23945488862
 21
1981.054874256912
 31
0.0
  0
CIRCLE
  5
D482
330
1F
100
AcDbEntity
  8
1
100
AcDbCircle
 10
12575.53176384881
 20
1973.720108469904
 30
0.0
 40
12.5
  0
LINE
  5
D483
330
1F
100
AcDbEntity
  8
1
  6
CENTER
 48
0.5
100
AcDbLine
 10
12518.13635879829
 20
2006.073056693626
 30
0.0
 11
12532.80589037228
 21
2041.488438773227
 31
0.0
  0
CIRCLE
  5
D484
330
1F
100
AcDbEntity
  8
1
100
AcDbCircle
 10
12525.47112458529
 20
2023.780747733422
 30
0.0
 40
12.5
  0
CIRCLE
  5
D4D8
330
1F
100
AcDbEntity
  8
1
100
AcDbCircle
 10
12490.07290709152
 20
1938.321890976123
 30
0.0
 40
75.0
  0
LINE
  5
D4F4
330
1F
100
AcDbEntity
  8
1
100
AcDbLine
 10
12763.14191644447
 20
2002.321890976124
 30
0.0
 11
12763.14191644448
 21
1874.321890976125
 31
0.0
  0
LINE
  5
D509
330
1F
100
AcDbEntity
  8
1
100
AcDbLine
 10
12753.66760816407
 20
2004.098323778698
 30
0.0
 11
12763.14191644447
 21
2002.321890976124
 31
0.0
  0
ARC
  5
D50A
330
1F
100
AcDbEntity
  8
1
100
AcDbCircle
 10
12755.14191644447
 20
2011.961301274174
 30
0.0
 40
8.0
100
AcDbArc
 50
180.0
 51
259.3803447238446
  0
LINE
  5
D50B
330
1F
100
AcDbEntity
  8
1
100
AcDbLine
 10
12753.66760816407
 20
1872.545458173548
 30
0.0
 11
12763.14191644447
 21
1874.321890976123
 31
0.0
  0
ARC
  5
D50C
330
1F
100
AcDbEntity
  8
1
100
AcDbCircle
 10
12755.14191644447
 20
1864.682480678073
 30
0.0
 40
8.0
100
AcDbArc
 50
100.6196552761554
 51
180.0
  0
LINE
  5
D5CA
330
1F
100
AcDbEntity
  8
1
100
AcDbLine
 10
13487.71670296303
 20
2058.321890976124
 30
0.0
 11
13458.71670296304
 21
2058.321890976124
 31
0.0
  0
LINE
  5
D5CB
330
1F
100
AcDbEntity
  8
1
100
AcDbLine
 10
13487.71670296304
 20
1818.321890976124
 30
0.0
 11
13458.71670296303
 21
1818.321890976123
 31
0.0
  0
CIRCLE
  5
D5CC
330
1F
100
AcDbEntity
  8
1
100
AcDbCircle
 10
13211.4576601813
 20
1938.321890976123
 30
0.0
 40
120.0
  0
CIRCLE
  5
D5F2
330
1F
100
AcDbEntity
  8
1
  6
CENTER
100
AcDbCircle
 10
13211.4576601813
 20
1938.321890976123
 30
0.0
 40
97.50000000000015
  0
CIRCLE
  5
D617
330
1F
100
AcDbEntity
  8
1
100
AcDbCircle
 10
13174.14602552569
 20
2028.400145395971
 30
0.0
 40
12.5
  0
LINE
  5
D62A
330
1F
100
AcDbEntity
  8
1
  6
CENTER
 48
0.5
100
AcDbLine
 10
13139.08709680124
 20
1968.298759844714
 30
0.0
 11
13103.67171472164
 21
1982.968291418709
 31
0.0
  0
CIRCLE
  5
D62B
330
1F
100
AcDbEntity
  8
1
100
AcDbCircle
 10
13121.37940576145
 20
1975.633525631711
 30
0.0
 40
12.5
  0
LINE
  5
D62C
330
1F
100
AcDbEntity
  8
1
  6
CENTER
 48
0.5
100
AcDbLine
 10
13139.08709680125
 20
1908.345022107516
 30
0.0
 11
13103.67171472165
 21
1893.67549053352
 31
0.0
  0
CIRCLE
  5
D62D
330
1F
100
AcDbEntity
  8
1
100
AcDbCircle
 10
13121.37940576145
 20
1901.010256320518
 30
0.0
 40
12.5
  0
LINE
  5
D62E
330
1F
100
AcDbEntity
  8
1
  6
CENTER
 48
0.5
100
AcDbLine
 10
13181.48079131271
 20
1865.95132759607
 30
0.0
 11
13166.81125973872
 21
1830.535945516469
 31
0.0
  0
CIRCLE
  5
D62F
330
1F
100
AcDbEntity
  8
1
100
AcDbCircle
 10
13174.14602552572
 20
1848.243636556269
 30
0.0
 40
12.5
  0
LINE
  5
D630
330
1F
100
AcDbEntity
  8
1
  6
CENTER
 48
0.5
100
AcDbLine
 10
13241.43452904991
 20
1865.951327596075
 30
0.0
 11
13256.1040606239
 21
1830.535945516476
 31
0.0
  0
CIRCLE
  5
D631
330
1F
100
AcDbEntity
  8
1
100
AcDbCircle
 10
13248.7692948369
 20
1848.243636556276
 30
0.0
 40
12.5
  0
LINE
  5
D632
330
1F
100
AcDbEntity
  8
1
  6
CENTER
 48
0.5
100
AcDbLine
 10
13283.82822356135
 20
1908.345022107534
 30
0.0
 11
13319.24360564095
 21
1893.67549053354
 31
0.0
  0
CIRCLE
  5
D633
330
1F
100
AcDbEntity
  8
1
100
AcDbCircle
 10
13301.53591460115
 20
1901.010256320537
 30
0.0
 40
12.5
  0
LINE
  5
D634
330
1F
100
AcDbEntity
  8
1
  6
CENTER
 48
0.5
100
AcDbLine
 10
13283.82822356135
 20
1968.298759844731
 30
0.0
 11
13319.24360564095
 21
1982.968291418727
 31
0.0
  0
CIRCLE
  5
D635
330
1F
100
AcDbEntity
  8
1
100
AcDbCircle
 10
13301.53591460115
 20
1975.633525631729
 30
0.0
 40
12.5
  0
LINE
  5
D636
330
1F
100
AcDbEntity
  8
1
  6
CENTER
 48
0.5
100
AcDbLine
 10
13241.43452904989
 20
2010.692454356178
 30
0.0
 11
13256.10406062389
 21
2046.107836435777
 31
0.0
  0
CIRCLE
  5
D637
330
1F
100
AcDbEntity
  8
1
100
AcDbCircle
 10
13248.76929483689
 20
2028.400145395979
 30
0.0
 40
12.5
  0
LINE
  5
D68F
330
1F
100
AcDbEntity
  8
1
100
AcDbLine
 10
13504.71670296304
 20
2008.821890976124
 30
0.0
 11
13504.71670296303
 21
1867.821890976123
 31
0.0
  0
LINE
  5
D6A4
330
1F
100
AcDbEntity
  8
1
100
AcDbLine
 10
13495.24239468263
 20
2010.598323778699
 30
0.0
 11
13504.71670296304
 21
2008.821890976124
 31
0.0
  0
ARC
  5
D6A5
330
1F
100
AcDbEntity
  8
1
100
AcDbCircle
 10
13496.71670296303
 20
2018.461301274173
 30
0.0
 40
8.0
100
AcDbArc
 50
180.0000000000016
 51
259.3803447238437
  0
LINE
  5
D6AF
330
1F
100
AcDbEntity
  8
1
100
AcDbLine
 10
13495.24239468263
 20
1866.045458173548
 30
0.0
 11
13504.71670296304
 21
1867.821890976123
 31
0.0
  0
ARC
  5
D6B0
330
1F
100
AcDbEntity
  8
1
100
AcDbCircle
 10
13496.71670296303
 20
1858.182480678074
 30
0.0
 40
8.0
100
AcDbArc
 50
100.6196552761563
 51
179.9999999999984
  0
CIRCLE
  5
D7A5
330
1F
100
AcDbEntity
  8
1
100
AcDbCircle
 10
13934.69772340323
 20
1938.321890976123
 30
0.0
 40
137.5
  0
CIRCLE
  5
D7A6
330
1F
100
AcDbEntity
  8
1
  6
CENTER
100
AcDbCircle
 10
13934.69772340323
 20
1938.321890976123
 30
0.0
 40
115.0000000000002
  0
CIRCLE
  5
D7DA
330
1F
100
AcDbEntity
  8
1
100
AcDbCircle
 10
13828.45157716443
 20
1982.330485698093
 30
0.0
 40
12.5
  0
LINE
  5
D7DB
330
1F
100
AcDbEntity
  8
1
  6
CENTER
 48
0.5
100
AcDbLine
 10
13846.07822613997
 20
1975.029288633226
 30
0.0
 11
13810.82492818889
 21
1989.63168276296
 31
0.0
  0
CIRCLE
  5
D7DC
330
1F
100
AcDbEntity
  8
1
100
AcDbCircle
 10
13828.45157716444
 20
1894.313296254122
 30
0.0
 40
12.5
  0
LINE
  5
D7DD
330
1F
100
AcDbEntity
  8
1
  6
CENTER
 48
0.5
100
AcDbLine
 10
13846.07822613999
 20
1901.614493318975
 30
0.0
 11
13810.82492818889
 21
1887.012099189269
 31
0.0
  0
CIRCLE
  5
D7DE
330
1F
100
AcDbEntity
  8
1
100
AcDbCircle
 10
13890.68912868126
 20
1832.075744737318
 30
0.0
 40
12.5
  0
LINE
  5
D7DF
330
1F
100
AcDbEntity
  8
1
  6
CENTER
 48
0.5
100
AcDbLine
 10
13897.99032574613
 20
1849.70239371286
 30
0.0
 11
13883.3879316164
 21
1814.449095761778
 31
0.0
  0
CIRCLE
  5
D7E0
330
1F
100
AcDbEntity
  8
1
100
AcDbCircle
 10
13978.70631812523
 20
1832.075744737332
 30
0.0
 40
12.5
  0
LINE
  5
D7E1
330
1F
100
AcDbEntity
  8
1
  6
CENTER
 48
0.5
100
AcDbLine
 10
13971.40512106038
 20
1849.702393712878
 30
0.0
 11
13986.00751519009
 21
1814.449095761785
 31
0.0
  0
CIRCLE
  5
D7E2
330
1F
100
AcDbEntity
  8
1
100
AcDbCircle
 10
14040.94386964203
 20
1894.313296254155
 30
0.0
 40
12.5
  0
LINE
  5
D7E3
330
1F
100
AcDbEntity
  8
1
  6
CENTER
 48
0.5
100
AcDbLine
 10
14023.3172206665
 20
1901.614493319022
 30
0.0
 11
14058.57051861758
 21
1887.012099189287
 31
0.0
  0
CIRCLE
  5
D7E4
330
1F
100
AcDbEntity
  8
1
100
AcDbCircle
 10
14040.94386964202
 20
1982.330485698124
 30
0.0
 40
12.5
  0
LINE
  5
D7E5
330
1F
100
AcDbEntity
  8
1
  6
CENTER
 48
0.5
100
AcDbLine
 10
14023.31722066648
 20
1975.029288633272
 30
0.0
 11
14058.57051861757
 21
1989.631682762978
 31
0.0
  0
CIRCLE
  5
D7E6
330
1F
100
AcDbEntity
  8
1
100
AcDbCircle
 10
13978.7063181252
 20
2044.56803721493
 30
0.0
 40
12.5
  0
LINE
  5
D7E7
330
1F
100
AcDbEntity
  8
1
  6
CENTER
 48
0.5
100
AcDbLine
 10
13971.40512106034
 20
2026.941388239388
 30
0.0
 11
13986.00751519007
 21
2062.194686190471
 31
0.0
  0
LINE
  5
D7F1
330
1F
100
AcDbEntity
  8
1
100
AcDbLine
 10
14233.09236465124
 20
2021.321890976124
 30
0.0
 11
14233.09236465124
 21
1855.321890976124
 31
0.0
  0
LINE
  5
D7FC
330
1F
100
AcDbEntity
  8
1
100
AcDbLine
 10
14233.09236465124
 20
2021.321890976123
 30
0.0
 11
14221.77717275279
 21
2023.207756292531
 31
0.0
  0
ARC
  5
D7FD
330
1F
100
AcDbEntity
  8
1
100
AcDbCircle
 10
14223.09236465123
 20
2031.098907683187
 30
0.0
 40
8.0
100
AcDbArc
 50
180.0
 51
260.5376777919784
  0
LINE
  5
D819
330
1F
100
AcDbEntity
  8
1
100
AcDbLine
 10
14233.09236465124
 20
1855.321890976124
 30
0.0
 11
14221.77717275279
 21
1853.436025659717
 31
0.0
  0
ARC
  5
D81A
330
1F
100
AcDbEntity
  8
1
100
AcDbCircle
 10
14223.09236465123
 20
1845.54487426906
 30
0.0
 40
8.0
100
AcDbArc
 50
99.4623222080216
 51
180.0
  0
LINE
  5
D927
330
1F
100
AcDbEntity
  8
1
100
AcDbLine
 10
15014.17747254154
 20
2100.821890976124
 30
0.0
 11
14979.17747254154
 21
2100.821890976123
 31
0.0
  0
LINE
  5
D928
330
1F
100
AcDbEntity
  8
1
100
AcDbLine
 10
15014.17747254153
 20
1775.821890976123
 30
0.0
 11
14979.17747254154
 21
1775.821890976123
 31
0.0
  0
CIRCLE
  5
D946
330
1F
100
AcDbEntity
  8
1
100
AcDbCircle
 10
14690.27530117054
 20
1938.321890976123
 30
0.0
 40
162.5
  0
CIRCLE
  5
D9AD
330
1F
100
AcDbEntity
  8
1
  6
CENTER
100
AcDbCircle
 10
14690.27530117054
 20
1938.321890976123
 30
0.0
 40
137.4999999999997
  0
CIRCLE
  5
D9C0
330
1F
100
AcDbEntity
  8
1
100
AcDbCircle
 10
14654.68768246897
 20
2071.136692090878
 30
0.0
 40
13.5
  0
CIRCLE
  5
D9C1
330
1F
100
AcDbEntity
  8
1
100
AcDbCircle
 10
14593.04811875741
 20
2035.549073389295
 30
0.0
 40
13.5
  0
LINE
  5
D9C2
330
1F
100
AcDbEntity
  8
1
  6
CENTER
 48
0.5
100
AcDbLine
 10
14606.53897181952
 20
2022.058220327179
 30
0.0
 11
14579.5572656953
 21
2049.039926451409
 31
0.0
  0
CIRCLE
  5
D9C3
330
1F
100
AcDbEntity
  8
1
100
AcDbCircle
 10
14557.4605000558
 20
1973.909509677751
 30
0.0
 40
13.5
  0
LINE
  5
D9C4
330
1F
100
AcDbEntity
  8
1
  6
CENTER
 48
0.5
100
AcDbLine
 10
14575.88934805737
 20
1968.971514738288
 30
0.0
 11
14539.03165205423
 21
1978.847504617208
 31
0.0
  0
CIRCLE
  5
D9C5
330
1F
100
AcDbEntity
  8
1
100
AcDbCircle
 10
14557.46050005578
 20
1902.734272274557
 30
0.0
 40
13.5
  0
LINE
  5
D9C6
330
1F
100
AcDbEntity
  8
1
  6
CENTER
 48
0.5
100
AcDbLine
 10
14575.88934805735
 20
1907.672267214006
 30
0.0
 11
14539.03165205422
 21
1897.796277335103
 31
0.0
  0
CIRCLE
  5
D9C7
330
1F
100
AcDbEntity
  8
1
100
AcDbCircle
 10
14593.04811875736
 20
1841.094708562999
 30
0.0
 40
13.5
  0
LINE
  5
D9C8
330
1F
100
AcDbEntity
  8
1
  6
CENTER
 48
0.5
100
AcDbLine
 10
14606.53897181949
 20
1854.585561625104
 30
0.0
 11
14579.55726569526
 21
1827.603855500887
 31
0.0
  0
CIRCLE
  5
D9C9
330
1F
100
AcDbEntity
  8
1
100
AcDbCircle
 10
14654.6876824689
 20
1805.507089861383
 30
0.0
 40
13.5
  0
LINE
  5
D9CA
330
1F
100
AcDbEntity
  8
1
  6
CENTER
 48
0.5
100
AcDbLine
 10
14659.62567740837
 20
1823.93593786295
 30
0.0
 11
14649.74968752945
 21
1787.078241859818
 31
0.0
  0
CIRCLE
  5
D9CB
330
1F
100
AcDbEntity
  8
1
100
AcDbCircle
 10
14725.86291987211
 20
1805.507089861368
 30
0.0
 40
13.5
  0
LINE
  5
D9CC
330
1F
100
AcDbEntity
  8
1
  6
CENTER
 48
0.5
100
AcDbLine
 10
14720.92492493266
 20
1823.935937862938
 30
0.0
 11
14730.80091481156
 21
1787.0782418598
 31
0.0
  0
CIRCLE
  5
D9CD
330
1F
100
AcDbEntity
  8
1
100
AcDbCircle
 10
14787.50248358367
 20
1841.094708562952
 30
0.0
 40
13.5
  0
LINE
  5
D9CE
330
1F
100
AcDbEntity
  8
1
  6
CENTER
 48
0.5
100
AcDbLine
 10
14774.01163052156
 20
1854.585561625068
 30
0.0
 11
14800.99333664578
 21
1827.603855500838
 31
0.0
  0
CIRCLE
  5
D9CF
330
1F
100
AcDbEntity
  8
1
100
AcDbCircle
 10
14823.09010228528
 20
1902.734272274498
 30
0.0
 40
13.5
  0
LINE
  5
D9D0
330
1F
100
AcDbEntity
  8
1
  6
CENTER
 48
0.5
100
AcDbLine
 10
14804.66125428371
 20
1907.67226721396
 30
0.0
 11
14841.51895028684
 21
1897.796277335039
 31
0.0
  0
CIRCLE
  5
D9D1
330
1F
100
AcDbEntity
  8
1
100
AcDbCircle
 10
14823.09010228529
 20
1973.90950967769
 30
0.0
 40
13.5
  0
LINE
  5
D9D2
330
1F
100
AcDbEntity
  8
1
  6
CENTER
 48
0.5
100
AcDbLine
 10
14804.66125428371
 20
1968.971514738239
 30
0.0
 11
14841.51895028686
 21
1978.847504617142
 31
0.0
  0
CIRCLE
  5
D9D3
330
1F
100
AcDbEntity
  8
1
100
AcDbCircle
 10
14787.50248358371
 20
2035.549073389254
 30
0.0
 40
13.5
  0
LINE
  5
D9D4
330
1F
100
AcDbEntity
  8
1
  6
CENTER
 48
0.5
100
AcDbLine
 10
14774.01163052159
 20
2022.058220327144
 30
0.0
 11
14800.99333664582
 21
2049.03992645136
 31
0.0
  0
CIRCLE
  5
D9D5
330
1F
100
AcDbEntity
  8
1
100
AcDbCircle
 10
14725.86291987217
 20
2071.136692090862
 30
0.0
 40
13.5
  0
LINE
  5
D9D6
330
1F
100
AcDbEntity
  8
1
  6
CENTER
 48
0.5
100
AcDbLine
 10
14720.9249249327
 20
2052.707844089296
 30
0.0
 11
14730.80091481162
 21
2089.565540092429
 31
0.0
  0
CIRCLE
  5
D9FB
330
1F
100
AcDbEntity
  8
1
100
AcDbCircle
 10
14690.27530117054
 20
1938.321890976123
 30
0.0
 40
117.5
  0
LINE
  5
DA21
330
1F
100
AcDbEntity
  8
1
100
AcDbLine
 10
15035.17747254154
 20
2036.321890976124
 30
0.0
 11
15035.17747254153
 21
1840.321890976123
 31
0.0
  0
LINE
  5
DA36
330
1F
100
AcDbEntity
  8
1
100
AcDbLine
 10
15021.60854346043
 20
2039.035676792344
 30
0.0
 11
15035.17747254154
 21
2036.321890976124
 31
0.0
  0
ARC
  5
DA37
330
1F
100
AcDbEntity
  8
1
100
AcDbCircle
 10
15023.17747254154
 20
2046.880322197871
 30
0.0
 40
8.0
100
AcDbArc
 50
180.0
 51
258.690067525975
  0
LINE
  5
DA38
330
1F
100
AcDbEntity
  8
1
100
AcDbLine
 10
15021.60854346043
 20
1837.608105159902
 30
0.0
 11
15035.17747254154
 21
1840.321890976123
 31
0.0
  0
ARC
  5
DA39
330
1F
100
AcDbEntity
  8
1
100
AcDbCircle
 10
15023.17747254154
 20
1829.763459754374
 30
0.0
 40
8.0
100
AcDbArc
 50
101.3099324740249
 51
180.0
  0
LINE
  5
DB1B
330
1F
100
AcDbEntity
  8
1
100
AcDbLine
 10
16623.40137970335
 20
2123.321890976123
 30
0.0
 11
16583.40137970334
 21
2123.321890976123
 31
0.0
  0
LINE
  5
DB1C
330
1F
100
AcDbEntity
  8
1
100
AcDbLine
 10
16623.40137970333
 20
1753.321890976123
 30
0.0
 11
16583.40137970334
 21
1753.321890976122
 31
0.0
  0
CIRCLE
  5
DB1D
330
1F
100
AcDbEntity
  8
1
100
AcDbCircle
 10
16270.41154638935
 20
1938.321890976123
 30
0.0
 40
185.0
  0
CIRCLE
  5
DB55
330
1F
100
AcDbEntity
  8
1
  6
CENTER
100
AcDbCircle
 10
16270.41154638935
 20
1938.321890976123
 30
0.0
 40
160.0000000000001
  0
CIRCLE
  5
DB69
330
1F
100
AcDbEntity
  8
1
100
AcDbCircle
 10
16229.00049917294
 20
2092.870023182375
 30
0.0
 40
13.5
  0
CIRCLE
  5
DB6A
330
1F
100
AcDbEntity
  8
1
100
AcDbCircle
 10
16157.2744613995
 20
2051.458975965972
 30
0.0
 40
13.5
  0
LINE
  5
DB6B
330
1F
100
AcDbEntity
  8
1
  6
CENTER
 48
0.5
100
AcDbLine
 10
16143.78360833739
 20
2064.949829028083
 30
0.0
 11
16170.76531446162
 21
2037.96812290386
 31
0.0
  0
CIRCLE
  5
DB6C
330
1F
100
AcDbEntity
  8
1
100
AcDbCircle
 10
16115.8634141831
 20
1979.732938192525
 30
0.0
 40
13.5
  0
LINE
  5
DB6D
330
1F
100
AcDbEntity
  8
1
  6
CENTER
 48
0.5
100
AcDbLine
 10
16097.43456618153
 20
1984.670933131983
 30
0.0
 11
16134.29226218467
 21
1974.794943253071
 31
0.0
  0
CIRCLE
  5
DB6E
330
1F
100
AcDbEntity
  8
1
100
AcDbCircle
 10
16115.8634141831
 20
1896.910843759719
 30
0.0
 40
13.5
  0
LINE
  5
DB6F
330
1F
100
AcDbEntity
  8
1
  6
CENTER
 48
0.5
100
AcDbLine
 10
16097.43456618153
 20
1891.972848820264
 30
0.0
 11
16134.29226218467
 21
1901.848838699176
 31
0.0
  0
CIRCLE
  5
DB70
330
1F
100
AcDbEntity
  8
1
100
AcDbCircle
 10
16157.2744613995
 20
1825.184805986278
 30
0.0
 40
13.5
  0
LINE
  5
DB71
330
1F
100
AcDbEntity
  8
1
  6
CENTER
 48
0.5
100
AcDbLine
 10
16143.78360833739
 20
1811.693952924166
 30
0.0
 11
16170.76531446161
 21
1838.675659048389
 31
0.0
  0
CIRCLE
  5
DB72
330
1F
100
AcDbEntity
  8
1
100
AcDbCircle
 10
16229.00049917295
 20
1783.773758769873
 30
0.0
 40
13.5
  0
LINE
  5
DB73
330
1F
100
AcDbEntity
  8
1
  6
CENTER
 48
0.5
100
AcDbLine
 10
16224.06250423349
 20
1765.344910768305
 30
0.0
 11
16233.9384941124
 21
1802.202606771441
 31
0.0
  0
CIRCLE
  5
DB74
330
1F
100
AcDbEntity
  8
1
100
AcDbCircle
 10
16311.82259360576
 20
1783.773758769872
 30
0.0
 40
13.5
  0
LINE
  5
DB75
330
1F
100
AcDbEntity
  8
1
  6
CENTER
 48
0.5
100
AcDbLine
 10
16316.76058854521
 20
1765.344910768305
 30
0.0
 11
16306.8845986663
 21
1802.202606771441
 31
0.0
  0
CIRCLE
  5
DB76
330
1F
100
AcDbEntity
  8
1
100
AcDbCircle
 10
16383.5486313792
 20
1825.184805986277
 30
0.0
 40
13.5
  0
LINE
  5
DB77
330
1F
100
AcDbEntity
  8
1
  6
CENTER
 48
0.5
100
AcDbLine
 10
16397.03948444131
 20
1811.693952924166
 30
0.0
 11
16370.05777831709
 21
1838.675659048389
 31
0.0
  0
CIRCLE
  5
DB78
330
1F
100
AcDbEntity
  8
1
100
AcDbCircle
 10
16424.9596785956
 20
1896.910843759717
 30
0.0
 40
13.5
  0
LINE
  5
DB79
330
1F
100
AcDbEntity
  8
1
  6
CENTER
 48
0.5
100
AcDbLine
 10
16443.38852659717
 20
1891.972848820262
 30
0.0
 11
16406.53083059403
 21
1901.848838699174
 31
0.0
  0
CIRCLE
  5
DB7A
330
1F
100
AcDbEntity
  8
1
100
AcDbCircle
 10
16424.9596785956
 20
1979.732938192527
 30
0.0
 40
13.5
  0
LINE
  5
DB7B
330
1F
100
AcDbEntity
  8
1
  6
CENTER
 48
0.5
100
AcDbLine
 10
16443.38852659717
 20
1984.670933131982
 30
0.0
 11
16406.53083059403
 21
1974.794943253069
 31
0.0
  0
CIRCLE
  5
DB7C
330
1F
100
AcDbEntity
  8
1
100
AcDbCircle
 10
16383.5486313792
 20
2051.458975965971
 30
0.0
 40
13.5
  0
LINE
  5
DB7D
330
1F
100
AcDbEntity
  8
1
  6
CENTER
 48
0.5
100
AcDbLine
 10
16397.03948444131
 20
2064.949829028083
 30
0.0
 11
16370.05777831708
 21
2037.96812290386
 31
0.0
  0
CIRCLE
  5
DB7E
330
1F
100
AcDbEntity
  8
1
100
AcDbCircle
 10
16311.82259360575
 20
2092.870023182375
 30
0.0
 40
13.5
  0
LINE
  5
DB7F
330
1F
100
AcDbEntity
  8
1
  6
CENTER
 48
0.5
100
AcDbLine
 10
16316.76058854521
 20
2111.298871183942
 30
0.0
 11
16306.8845986663
 21
2074.441175180806
 31
0.0
  0
CIRCLE
  5
DB93
330
1F
100
AcDbEntity
  8
1
100
AcDbCircle
 10
16270.41154638935
 20
1938.321890976123
 30
0.0
 40
140.0
  0
LINE
  5
DBCA
330
1F
100
AcDbEntity
  8
1
100
AcDbLine
 10
16645.40137970334
 20
2062.321890976123
 30
0.0
 11
16645.40137970334
 21
1814.321890976124
 31
0.0
  0
LINE
  5
DBE8
330
1F
100
AcDbEntity
  8
1
100
AcDbLine
 10
16629.97029619775
 20
2065.127542522597
 30
0.0
 11
16645.40137970334
 21
2062.321890976123
 31
0.0
  0
ARC
  5
DBE9
330
1F
100
AcDbEntity
  8
1
100
AcDbCircle
 10
16631.40137970334
 20
2072.998501803395
 30
0.0
 40
8.0
100
AcDbArc
 50
179.9999999999966
 51
259.6951535312444
  0
LINE
  5
DBEA
330
1F
100
AcDbEntity
  8
1
100
AcDbLine
 10
16629.97029619775
 20
1811.516239429652
 30
0.0
 11
16645.40137970334
 21
1814.321890976123
 31
0.0
  0
ARC
  5
DBEB
330
1F
100
AcDbEntity
  8
1
100
AcDbCircle
 10
16631.40137970334
 20
1803.645280148852
 30
0.0
 40
8.0
100
AcDbArc
 50
100.3048464687555
 51
180.0000000000032
  0
LINE
  5
DCBD
330
1F
100
AcDbEntity
  8
1
100
AcDbLine
 10
18304.3188423791
 20
2163.321890976124
 30
0.0
 11
18258.3188423791
 21
2163.321890976122
 31
0.0
  0
LINE
  5
DCBE
330
1F
100
AcDbEntity
  8
1
100
AcDbLine
 10
18304.31884237909
 20
1713.321890976123
 30
0.0
 11
18258.31884237909
 21
1713.321890976125
 31
0.0
  0
CIRCLE
  5
DCBF
330
1F
100
AcDbEntity
  8
1
100
AcDbCircle
 10
17930.08741109269
 20
1938.321890976123
 30
0.0
 40
225.0
  0
CIRCLE
  5
DCE5
330
1F
100
AcDbEntity
  8
1
  6
CENTER
100
AcDbCircle
 10
17930.08741109269
 20
1938.321890976123
 30
0.0
 40
195.0000000000002
  0
CIRCLE
  5
DD1B
330
1F
100
AcDbEntity
  8
1
100
AcDbCircle
 10
17879.61769729768
 20
2126.677427102488
 30
0.0
 40
16.5
  0
CIRCLE
  5
DD1C
330
1F
100
AcDbEntity
  8
1
100
AcDbCircle
 10
17792.2015887613
 20
2076.20771330749
 30
0.0
 40
16.5
  0
LINE
  5
DD1D
330
1F
100
AcDbEntity
  8
1
  6
CENTER
 48
0.5
100
AcDbLine
 10
17776.38391750389
 20
2092.025384564902
 30
0.0
 11
17808.01926001871
 21
2060.390042050085
 31
0.0
  0
CIRCLE
  5
DD1E
330
1F
100
AcDbEntity
  8
1
100
AcDbCircle
 10
17741.73187496631
 20
1988.7916047711
 30
0.0
 40
16.5
  0
LINE
  5
DD1F
330
1F
100
AcDbEntity
  8
1
  6
CENTER
 48
0.5
100
AcDbLine
 10
17720.12453419998
 20
1994.581274280022
 30
0.0
 11
17763.33921573265
 21
1983.001935262182
 31
0.0
  0
CIRCLE
  5
DD20
330
1F
100
AcDbEntity
  8
1
100
AcDbCircle
 10
17741.73187496631
 20
1887.852177181118
 30
0.0
 40
16.5
  0
LINE
  5
DD21
330
1F
100
AcDbEntity
  8
1
  6
CENTER
 48
0.5
100
AcDbLine
 10
17720.12453419999
 20
1882.062507672195
 30
0.0
 11
17763.33921573265
 21
1893.641846690047
 31
0.0
  0
CIRCLE
  5
DD22
330
1F
100
AcDbEntity
  8
1
100
AcDbCircle
 10
17792.20158876132
 20
1800.436068644738
 30
0.0
 40
16.5
  0
LINE
  5
DD23
330
1F
100
AcDbEntity
  8
1
  6
CENTER
 48
0.5
100
AcDbLine
 10
17776.38391750391
 20
1784.618397387326
 30
0.0
 11
17808.01926001873
 21
1816.253739902149
 31
0.0
  0
CIRCLE
  5
DD24
330
1F
100
AcDbEntity
  8
1
100
AcDbCircle
 10
17879.61769729771
 20
1749.966354849751
 30
0.0
 40
16.5
  0
LINE
  5
DD25
330
1F
100
AcDbEntity
  8
1
  6
CENTER
 48
0.5
100
AcDbLine
 10
17873.82802778878
 20
1728.359014083417
 30
0.0
 11
17885.40736680662
 21
1771.573695616085
 31
0.0
  0
CIRCLE
  5
DD26
330
1F
100
AcDbEntity
  8
1
100
AcDbCircle
 10
17980.55712488769
 20
1749.966354849758
 30
0.0
 40
16.5
  0
LINE
  5
DD27
330
1F
100
AcDbEntity
  8
1
  6
CENTER
 48
0.5
100
AcDbLine
 10
17986.34679439661
 20
1728.359014083424
 30
0.0
 11
17974.76745537876
 21
1771.573695616089
 31
0.0
  0
CIRCLE
  5
DD28
330
1F
100
AcDbEntity
  8
1
100
AcDbCircle
 10
18067.97323342408
 20
1800.436068644756
 30
0.0
 40
16.5
  0
LINE
  5
DD29
330
1F
100
AcDbEntity
  8
1
  6
CENTER
 48
0.5
100
AcDbLine
 10
18083.79090468148
 20
1784.618397387347
 30
0.0
 11
18052.15556216666
 21
1816.253739902162
 31
0.0
  0
CIRCLE
  5
DD2A
330
1F
100
AcDbEntity
  8
1
100
AcDbCircle
 10
18118.44294721906
 20
1887.852177181146
 30
0.0
 40
16.5
  0
LINE
  5
DD2B
330
1F
100
AcDbEntity
  8
1
  6
CENTER
 48
0.5
100
AcDbLine
 10
18140.05028798539
 20
1882.062507672221
 30
0.0
 11
18096.83560645272
 21
1893.641846690065
 31
0.0
  0
CIRCLE
  5
DD2C
330
1F
100
AcDbEntity
  8
1
100
AcDbCircle
 10
18118.44294721905
 20
1988.79160477113
 30
0.0
 40
16.5
  0
LINE
  5
DD2D
330
1F
100
AcDbEntity
  8
1
  6
CENTER
 48
0.5
100
AcDbLine
 10
18140.05028798539
 20
1994.581274280051
 30
0.0
 11
18096.83560645272
 21
1983.0019352622
 31
0.0
  0
CIRCLE
  5
DD2E
330
1F
100
AcDbEntity
  8
1
100
AcDbCircle
 10
18067.97323342406
 20
2076.207713307509
 30
0.0
 40
16.5
  0
LINE
  5
DD2F
330
1F
100
AcDbEntity
  8
1
  6
CENTER
 48
0.5
100
AcDbLine
 10
18083.79090468147
 20
2092.025384564919
 30
0.0
 11
18052.15556216665
 21
2060.390042050094
 31
0.0
  0
CIRCLE
  5
DD30
330
1F
100
AcDbEntity
  8
1
100
AcDbCircle
 10
17980.55712488766
 20
2126.677427102494
 30
0.0
 40
16.5
  0
LINE
  5
DD31
330
1F
100
AcDbEntity
  8
1
  6
CENTER
 48
0.5
100
AcDbLine
 10
17986.34679439659
 20
2148.284767868829
 30
0.0
 11
17974.76745537875
 21
2105.070086336161
 31
0.0
  0
LINE
  5
DD58
330
1F
100
AcDbEntity
  8
1
100
AcDbLine
 10
18328.31884237909
 20
2091.321890976124
 30
0.0
 11
18328.31884237908
 21
1785.321890976122
 31
0.0
  0
LINE
  5
DD64
330
1F
100
AcDbEntity
  8
1
100
AcDbLine
 10
18312.67485250604
 20
2093.929222621632
 30
0.0
 11
18328.31884237909
 21
2091.321890976124
 31
0.0
  0
ARC
  5
DD65
330
1F
100
AcDbEntity
  8
1
100
AcDbCircle
 10
18314.3188423791
 20
2103.793161859954
 30
0.0
 40
10.0
100
AcDbArc
 50
179.9999999999974
 51
260.537677791977
  0
LINE
  5
DD78
330
1F
100
AcDbEntity
  8
1
100
AcDbLine
 10
18312.67485250604
 20
1782.714559330615
 30
0.0
 11
18328.31884237909
 21
1785.321890976123
 31
0.0
  0
ARC
  5
DD79
330
1F
100
AcDbEntity
  8
1
100
AcDbCircle
 10
18314.3188423791
 20
1772.850620092293
 30
0.0
 40
10.0
100
AcDbArc
 50
99.46232220802301
 51
180.0000000000025
  0
LINE
  5
DE3A
330
1F
100
AcDbEntity
  8
1
100
AcDbLine
 10
12920.67124920778
 20
1456.119440937448
 30
0.0
 11
12872.67124920777
 21
1456.119440937447
 31
0.0
  0
LINE
  5
DE3B
330
1F
100
AcDbEntity
  8
1
100
AcDbLine
 10
12920.67124920778
 20
941.1194409374465
 30
0.0
 11
12872.67124920779
 21
941.1194409374466
 31
0.0
  0
CIRCLE
  5
DE59
330
1F
100
AcDbEntity
  8
1
100
AcDbCircle
 10
12532.50475610003
 20
1198.619440937447
 30
0.0
 40
257.5
  0
CIRCLE
  5
DE7F
330
1F
100
AcDbEntity
  8
1
  6
CENTER
100
AcDbCircle
 10
12532.50475610003
 20
1198.619440937447
 30
0.0
 40
224.9999999999998
  0
CIRCLE
  5
DE95
330
1F
100
AcDbEntity
  8
1
100
AcDbCircle
 10
12345.42409333195
 20
1323.622743366852
 30
0.0
 40
16.5
  0
CIRCLE
  5
DE96
330
1F
100
AcDbEntity
  8
1
100
AcDbCircle
 10
12311.8280680093
 20
1242.514763391069
 30
0.0
 40
16.5
  0
LINE
  5
DE97
330
1F
100
AcDbEntity
  8
1
  6
CENTER
100
AcDbLine
 10
12333.76780830354
 20
1238.150677709443
 30
0.0
 11
12289.88832771506
 21
1246.878849072689
 31
0.0
  0
CIRCLE
  5
DE98
330
1F
100
AcDbEntity
  8
1
100
AcDbCircle
 10
12311.82806800931
 20
1154.724118483814
 30
0.0
 40
16.5
  0
LINE
  5
DE99
330
1F
100
AcDbEntity
  8
1
  6
CENTER
100
AcDbLine
 10
12333.76780830354
 20
1159.088204165429
 30
0.0
 11
12289.88832771507
 21
1150.360032802191
 31
0.0
  0
CIRCLE
  5
DE9A
330
1F
100
AcDbEntity
  8
1
100
AcDbCircle
 10
12345.42409333196
 20
1073.616138508034
 30
0.0
 40
16.5
  0
LINE
  5
DE9B
330
1F
100
AcDbEntity
  8
1
  6
CENTER
100
AcDbLine
 10
12364.02370705064
 20
1086.044003068402
 30
0.0
 11
12326.82447961328
 21
1061.188273947657
 31
0.0
  0
CIRCLE
  5
DE9C
330
1F
100
AcDbEntity
  8
1
100
AcDbCircle
 10
12407.50145367062
 20
1011.538778169373
 30
0.0
 40
16.5
  0
LINE
  5
DE9D
330
1F
100
AcDbEntity
  8
1
  6
CENTER
100
AcDbLine
 10
12419.929318231
 20
1030.138391888051
 30
0.0
 11
12395.07358911025
 21
992.9391644506903
 31
0.0
  0
CIRCLE
  5
DE9E
330
1F
100
AcDbEntity
  8
1
100
AcDbCircle
 10
12488.6094336464
 20
977.9427528467207
 30
0.0
 40
16.5
  0
LINE
  5
DE9F
330
1F
100
AcDbEntity
  8
1
  6
CENTER
100
AcDbLine
 10
12492.97351932803
 20
999.8824931409563
 30
0.0
 11
12484.24534796479
 21
956.0030125524807
 31
0.0
  0
CIRCLE
  5
DEA0
330
1F
100
AcDbEntity
  8
1
100
AcDbCircle
 10
12576.40007855366
 20
977.942752846725
 30
0.0
 40
16.5
  0
LINE
  5
DEA1
330
1F
100
AcDbEntity
  8
1
  6
CENTER
100
AcDbLine
 10
12572.03599287205
 20
999.8824931409616
 30
0.0
 11
12580.76416423529
 21
956.0030125524852
 31
0.0
  0
CIRCLE
  5
DEA2
330
1F
100
AcDbEntity
  8
1
100
AcDbCircle
 10
12657.50805852944
 20
1011.538778169382
 30
0.0
 40
16.5
  0
LINE
  5
DEA3
330
1F
100
AcDbEntity
  8
1
  6
CENTER
100
AcDbLine
 10
12645.08019396908
 20
1030.138391888063
 30
0.0
 11
12669.93592308982
 21
992.9391644506987
 31
0.0
  0
CIRCLE
  5
DEA4
330
1F
100
AcDbEntity
  8
1
100
AcDbCircle
 10
12719.5854188681
 20
1073.616138508043
 30
0.0
 40
16.5
  0
LINE
  5
DEA5
330
1F
100
AcDbEntity
  8
1
  6
CENTER
100
AcDbLine
 10
12700.98580514942
 20
1086.044003068421
 30
0.0
 11
12738.18503258679
 21
1061.188273947671
 31
0.0
  0
CIRCLE
  5
DEA6
330
1F
100
AcDbEntity
  8
1
100
AcDbCircle
 10
12753.18144419075
 20
1154.724118483824
 30
0.0
 40
16.5
  0
LINE
  5
DEA7
330
1F
100
AcDbEntity
  8
1
  6
CENTER
100
AcDbLine
 10
12731.24170389652
 20
1159.088204165452
 30
0.0
 11
12775.12118448499
 21
1150.360032802205
 31
0.0
  0
CIRCLE
  5
DEA8
330
1F
100
AcDbEntity
  8
1
100
AcDbCircle
 10
12753.18144419075
 20
1242.514763391081
 30
0.0
 40
16.5
  0
LINE
  5
DEA9
330
1F
100
AcDbEntity
  8
1
  6
CENTER
100
AcDbLine
 10
12731.24170389651
 20
1238.150677709467
 30
0.0
 11
12775.12118448499
 21
1246.878849072706
 31
0.0
  0
CIRCLE
  5
DEAA
330
1F
100
AcDbEntity
  8
1
100
AcDbCircle
 10
12719.58541886809
 20
1323.622743366861
 30
0.0
 40
16.5
  0
LINE
  5
DEAB
330
1F
100
AcDbEntity
  8
1
  6
CENTER
100
AcDbLine
 10
12700.98580514941
 20
1311.194878806491
 30
0.0
 11
12738.18503258678
 21
1336.050607927236
 31
0.0
  0
CIRCLE
  5
DEAC
330
1F
100
AcDbEntity
  8
1
100
AcDbCircle
 10
12657.50805852943
 20
1385.700103705522
 30
0.0
 40
16.5
  0
LINE
  5
DEAD
330
1F
100
AcDbEntity
  8
1
  6
CENTER
100
AcDbLine
 10
12645.08019396905
 20
1367.100489986844
 30
0.0
 11
12669.93592308981
 21
1404.299717424204
 31
0.0
  0
CIRCLE
  5
DEAE
330
1F
100
AcDbEntity
  8
1
100
AcDbCircle
 10
12576.40007855365
 20
1419.296129028173
 30
0.0
 40
16.5
  0
LINE
  5
DEAF
330
1F
100
AcDbEntity
  8
1
  6
CENTER
100
AcDbLine
 10
12572.03599287202
 20
1397.356388733937
 30
0.0
 11
12580.76416423527
 21
1441.235869322412
 31
0.0
  0
CIRCLE
  5
DEB0
330
1F
100
AcDbEntity
  8
1
100
AcDbCircle
 10
12488.6094336464
 20
1419.296129028172
 30
0.0
 40
16.5
  0
LINE
  5
DEB1
330
1F
100
AcDbEntity
  8
1
  6
CENTER
100
AcDbLine
 10
12492.97351932801
 20
1397.356388733933
 30
0.0
 11
12484.24534796477
 21
1441.235869322409
 31
0.0
  0
CIRCLE
  5
DEB2
330
1F
100
AcDbEntity
  8
1
100
AcDbCircle
 10
12407.50145367061
 20
1385.700103705516
 30
0.0
 40
16.5
  0
LINE
  5
DEB3
330
1F
100
AcDbEntity
  8
1
  6
CENTER
100
AcDbLine
 10
12419.92931823098
 20
1367.100489986831
 30
0.0
 11
12395.07358911024
 21
1404.299717424196
 31
0.0
  0
CIRCLE
  5
DEEB
330
1F
100
AcDbEntity
  8
1
100
AcDbCircle
 10
12532.50475610003
 20
1198.619440937447
 30
0.0
 40
202.5
  0
LINE
  5
DF47
330
1F
100
AcDbEntity
  8
1
100
AcDbLine
 10
12947.67124920778
 20
1378.61944093745
 30
0.0
 11
12947.67124920779
 21
1018.619440937448
 31
0.0
  0
LINE
  5
DF53
330
1F
100
AcDbEntity
  8
1
100
AcDbLine
 10
12929.78277527127
 20
1382.059532079084
 30
0.0
 11
12947.67124920778
 21
1378.619440937449
 31
0.0
  0
ARC
  5
DF54
330
1F
100
AcDbEntity
  8
1
100
AcDbCircle
 10
12931.67124920777
 20
1391.879596548891
 30
0.0
 40
10.0
100
AcDbArc
 50
180.0000000000013
 51
259.1144729453469
  0
LINE
  5
DF5E
330
1F
100
AcDbEntity
  8
1
100
AcDbLine
 10
12929.78277527127
 20
1015.17934979581
 30
0.0
 11
12947.67124920778
 21
1018.619440937445
 31
0.0
  0
ARC
  5
DF5F
330
1F
100
AcDbEntity
  8
1
100
AcDbCircle
 10
12931.67124920777
 20
1005.359285326004
 30
0.0
 40
10.0
100
AcDbArc
 50
100.8855270546531
 51
179.9999999999987
  0
LINE
  5
E020
330
1F
100
AcDbEntity
  8
1
100
AcDbLine
 10
13787.87696863309
 20
1478.619440937447
 30
0.0
 11
13837.8769686331
 21
1478.619440937448
 31
0.0
  0
LINE
  5
E021
330
1F
100
AcDbEntity
  8
1
100
AcDbLine
 10
13787.8769686331
 20
918.6194409374474
 30
0.0
 11
13837.87696863311
 21
918.6194409374476
 31
0.0
  0
CIRCLE
  5
E034
330
1F
100
AcDbEntity
  8
1
100
AcDbCircle
 10
13385.07801944912
 20
1198.619440937447
 30
0.0
 40
280.0
  0
CIRCLE
  5
E048
330
1F
100
AcDbEntity
  8
1
  6
CENTER
 48
2.0
100
AcDbCircle
 10
13385.07801944912
 20
1198.619440937447
 30
0.0
 40
247.5
  0
CIRCLE
  5
E06D
330
1F
100
AcDbEntity
  8
1
100
AcDbCircle
 10
13247.57438677676
 20
1404.408169982326
 30
0.0
 40
16.5
  0
LINE
  5
E06E
330
1F
100
AcDbEntity
  8
1
  6
CENTER
100
AcDbLine
 10
13263.01430318648
 20
1381.300702108478
 30
0.0
 11
13232.13447036705
 21
1427.515637856174
 31
0.0
  0
CIRCLE
  5
E06F
330
1F
100
AcDbEntity
  8
1
100
AcDbCircle
 10
13179.28929040423
 20
1336.123073609797
 30
0.0
 40
16.5
  0
LINE
  5
E070
330
1F
100
AcDbEntity
  8
1
  6
CENTER
100
AcDbLine
 10
13202.39675827808
 20
1320.683157200086
 30
0.0
 11
13156.18182253038
 21
1351.562990019507
 31
0.0
  0
CIRCLE
  5
E071
330
1F
100
AcDbEntity
  8
1
100
AcDbCircle
 10
13142.33366254932
 20
1246.904295636434
 30
0.0
 40
16.5
  0
LINE
  5
E072
330
1F
100
AcDbEntity
  8
1
  6
CENTER
100
AcDbLine
 10
13169.59077937322
 20
1241.48251800105
 30
0.0
 11
13115.0765457254
 21
1252.326073271821
 31
0.0
  0
CIRCLE
  5
E073
330
1F
100
AcDbEntity
  8
1
100
AcDbCircle
 10
13142.33366254932
 20
1150.334586238452
 30
0.0
 40
16.5
  0
LINE
  5
E074
330
1F
100
AcDbEntity
  8
1
  6
CENTER
100
AcDbLine
 10
13169.59077937323
 20
1155.756363873843
 30
0.0
 11
13115.07654572541
 21
1144.912808603061
 31
0.0
  0
CIRCLE
  5
E075
330
1F
100
AcDbEntity
  8
1
100
AcDbCircle
 10
13179.28929040424
 20
1061.115808265095
 30
0.0
 40
16.5
  0
LINE
  5
E076
330
1F
100
AcDbEntity
  8
1
  6
CENTER
100
AcDbLine
 10
13202.39675827809
 20
1076.555724674808
 30
0.0
 11
13156.18182253039
 21
1045.67589185538
 31
0.0
  0
CIRCLE
  5
E077
330
1F
100
AcDbEntity
  8
1
100
AcDbCircle
 10
13247.57438677677
 20
992.8307118925657
 30
0.0
 40
16.5
  0
LINE
  5
E078
330
1F
100
AcDbEntity
  8
1
  6
CENTER
100
AcDbLine
 10
13263.01430318648
 20
1015.938179766415
 30
0.0
 11
13232.13447036705
 21
969.7232440187145
 31
0.0
  0
CIRCLE
  5
E079
330
1F
100
AcDbEntity
  8
1
100
AcDbCircle
 10
13336.79316475013
 20
955.8750840376506
 30
0.0
 40
16.5
  0
LINE
  5
E07A
330
1F
100
AcDbEntity
  8
1
  6
CENTER
100
AcDbLine
 10
13342.21494238551
 20
983.1322008615581
 30
0.0
 11
13331.37138711474
 21
928.6179672137363
 31
0.0
  0
CIRCLE
  5
E07B
330
1F
100
AcDbEntity
  8
1
100
AcDbCircle
 10
13433.36287414811
 20
955.8750840376491
 30
0.0
 40
16.5
  0
LINE
  5
E07C
330
1F
100
AcDbEntity
  8
1
  6
CENTER
100
AcDbLine
 10
13427.94109651272
 20
983.1322008615584
 30
0.0
 11
13438.7846517835
 21
928.6179672137386
 31
0.0
  0
CIRCLE
  5
E07D
330
1F
100
AcDbEntity
  8
1
100
AcDbCircle
 10
13522.58165212147
 20
992.8307118925689
 30
0.0
 40
16.5
  0
LINE
  5
E07E
330
1F
100
AcDbEntity
  8
1
  6
CENTER
100
AcDbLine
 10
13507.14173571176
 20
1015.938179766417
 30
0.0
 11
13538.02156853118
 21
969.7232440187226
 31
0.0
  0
CIRCLE
  5
E07F
330
1F
100
AcDbEntity
  8
1
100
AcDbCircle
 10
13590.866748494
 20
1061.115808265098
 30
0.0
 40
16.5
  0
LINE
  5
E080
330
1F
100
AcDbEntity
  8
1
  6
CENTER
100
AcDbLine
 10
13567.75928062015
 20
1076.55572467481
 30
0.0
 11
13613.97421636785
 21
1045.675891855389
 31
0.0
  0
CIRCLE
  5
E081
330
1F
100
AcDbEntity
  8
1
100
AcDbCircle
 10
13627.82237634891
 20
1150.334586238458
 30
0.0
 40
16.5
  0
LINE
  5
E082
330
1F
100
AcDbEntity
  8
1
  6
CENTER
100
AcDbLine
 10
13600.56525952501
 20
1155.756363873845
 30
0.0
 11
13655.07949317283
 21
1144.912808603074
 31
0.0
  0
CIRCLE
  5
E083
330
1F
100
AcDbEntity
  8
1
100
AcDbCircle
 10
13627.82237634891
 20
1246.904295636443
 30
0.0
 40
16.5
  0
LINE
  5
E084
330
1F
100
AcDbEntity
  8
1
  6
CENTER
100
AcDbLine
 10
13600.56525952501
 20
1241.482518001052
 30
0.0
 11
13655.07949317282
 21
1252.326073271833
 31
0.0
  0
CIRCLE
  5
E085
330
1F
100
AcDbEntity
  8
1
100
AcDbCircle
 10
13590.86674849399
 20
1336.1230736098
 30
0.0
 40
16.5
  0
LINE
  5
E086
330
1F
100
AcDbEntity
  8
1
  6
CENTER
100
AcDbLine
 10
13567.75928062014
 20
1320.683157200088
 30
0.0
 11
13613.97421636784
 21
1351.562990019516
 31
0.0
  0
CIRCLE
  5
E087
330
1F
100
AcDbEntity
  8
1
100
AcDbCircle
 10
13522.58165212146
 20
1404.408169982329
 30
0.0
 40
16.5
  0
LINE
  5
E088
330
1F
100
AcDbEntity
  8
1
  6
CENTER
100
AcDbLine
 10
13507.14173571175
 20
1381.300702108479
 30
0.0
 11
13538.02156853117
 21
1427.51563785618
 31
0.0
  0
CIRCLE
  5
E089
330
1F
100
AcDbEntity
  8
1
100
AcDbCircle
 10
13433.3628741481
 20
1441.363797837247
 30
0.0
 40
16.5
  0
LINE
  5
E08A
330
1F
100
AcDbEntity
  8
1
  6
CENTER
100
AcDbLine
 10
13427.94109651272
 20
1414.106681013337
 30
0.0
 11
13438.78465178349
 21
1468.620914661159
 31
0.0
  0
CIRCLE
  5
E0D6
330
1F
100
AcDbEntity
  8
1
100
AcDbCircle
 10
13385.07801944912
 20
1198.619440937447
 30
0.0
 40
224.9999999999998
  0
LINE
  5
E119
330
1F
100
AcDbEntity
  8
1
100
AcDbLine
 10
13868.8769686331
 20
1399.619440937447
 30
0.0
 11
13868.8769686331
 21
997.619440937448
 31
0.0
  0
LINE
  5
E12E
330
1F
100
AcDbEntity
  8
1
100
AcDbLine
 10
13848.90418078544
 20
1402.948238912057
 30
0.0
 11
13868.8769686331
 21
1399.619440937447
 31
0.0
  0
ARC
  5
E12F
330
1F
100
AcDbEntity
  8
1
100
AcDbCircle
 10
13850.8769686331
 20
1414.784965998044
 30
0.0
 40
12.0
100
AcDbArc
 50
180.0000000000011
 51
260.537677791975
  0
LINE
  5
E139
330
1F
100
AcDbEntity
  8
1
100
AcDbLine
 10
13848.90418078544
 20
994.2906429628374
 30
0.0
 11
13868.8769686331
 21
997.6194409374476
 31
0.0
  0
ARC
  5
E13A
330
1F
100
AcDbEntity
  8
1
100
AcDbCircle
 10
13850.8769686331
 20
982.4539158768514
 30
0.0
 40
12.0
100
AcDbArc
 50
99.46232220802507
 51
179.9999999999989
  0
LINE
  5
E148
330
1F
100
AcDbEntity
  8
1
100
AcDbLine
 10
13978.33035205007
 20
704.1495566258545
 30
0.0
 11
13978.33035205007
 21
1604.149556625855
 31
0.0
  0
LINE
  5
E157
330
1F
100
AcDbEntity
  8
1
100
AcDbLine
 10
13028.33035205007
 20
704.1495566258545
 30
0.0
 11
13028.33035205007
 21
1604.149556625855
 31
0.0
  0
LINE
  5
E1DC
330
1F
100
AcDbEntity
  8
1
100
AcDbLine
 10
14885.47926795767
 20
1513.619440937447
 30
0.0
 11
14941.47926795766
 21
1513.619440937447
 31
0.0
  0
LINE
  5
E1DD
330
1F
100
AcDbEntity
  8
1
100
AcDbLine
 10
14885.47926795767
 20
883.6194409374471
 30
0.0
 11
14941.47926795767
 21
883.6194409374474
 31
0.0
  0
CIRCLE
  5
E1DE
330
1F
100
AcDbEntity
  8
1
100
AcDbCircle
 10
14391.23813726077
 20
1198.619440937447
 30
0.0
 40
315.0
  0
CIRCLE
  5
E216
330
1F
100
AcDbEntity
  8
1
  6
CENTER
 48
2.0
100
AcDbCircle
 10
14391.23813726077
 20
1198.619440937447
 30
0.0
 40
280.0
  0
CIRCLE
  5
E219
330
1F
100
AcDbEntity
  8
1
100
AcDbCircle
 10
14336.61284709626
 20
1473.239319450352
 30
0.0
 40
19.5
  0
CIRCLE
  5
E21A
330
1F
100
AcDbEntity
  8
1
100
AcDbCircle
 10
14235.67847201528
 20
1431.430932382163
 30
0.0
 40
19.5
  0
LINE
  5
E21B
330
1F
100
AcDbEntity
  8
1
  6
CENTER
100
AcDbLine
 10
14250.17885509709
 20
1409.729575501065
 30
0.0
 11
14221.17808893347
 21
1453.132289263258
 31
0.0
  0
CIRCLE
  5
E21C
330
1F
100
AcDbEntity
  8
1
100
AcDbCircle
 10
14158.42664581606
 20
1354.179106182941
 30
0.0
 40
19.5
  0
LINE
  5
E21D
330
1F
100
AcDbEntity
  8
1
  6
CENTER
100
AcDbLine
 10
14180.12800269715
 20
1339.678723101127
 30
0.0
 11
14136.72528893496
 21
1368.679489264752
 31
0.0
  0
CIRCLE
  5
E21E
330
1F
100
AcDbEntity
  8
1
100
AcDbCircle
 10
14116.61825874787
 20
1253.244731101966
 30
0.0
 40
19.5
  0
LINE
  5
E21F
330
1F
100
AcDbEntity
  8
1
  6
CENTER
100
AcDbLine
 10
14142.21675456639
 20
1248.152873697345
 30
0.0
 11
14091.01976292934
 21
1258.336588506589
 31
0.0
  0
CIRCLE
  5
E220
330
1F
100
AcDbEntity
  8
1
100
AcDbCircle
 10
14116.61825874786
 20
1143.994150772936
 30
0.0
 40
19.5
  0
LINE
  5
E221
330
1F
100
AcDbEntity
  8
1
  6
CENTER
100
AcDbLine
 10
14142.21675456639
 20
1149.086008177555
 30
0.0
 11
14091.01976292934
 21
1138.902293368315
 31
0.0
  0
CIRCLE
  5
E222
330
1F
100
AcDbEntity
  8
1
100
AcDbCircle
 10
14158.42664581605
 20
1043.059775691965
 30
0.0
 40
19.5
  0
LINE
  5
E223
330
1F
100
AcDbEntity
  8
1
  6
CENTER
100
AcDbLine
 10
14180.12800269715
 20
1057.560158773775
 30
0.0
 11
14136.72528893495
 21
1028.55939261015
 31
0.0
  0
CIRCLE
  5
E224
330
1F
100
AcDbEntity
  8
1
100
AcDbCircle
 10
14235.67847201528
 20
965.8079494927395
 30
0.0
 40
19.5
  0
LINE
  5
E225
330
1F
100
AcDbEntity
  8
1
  6
CENTER
100
AcDbLine
 10
14250.17885509709
 20
987.5093063738344
 30
0.0
 11
14221.17808893346
 21
944.1065926116426
 31
0.0
  0
CIRCLE
  5
E226
330
1F
100
AcDbEntity
  8
1
100
AcDbCircle
 10
14336.61284709625
 20
923.9995624245455
 30
0.0
 40
19.5
  0
LINE
  5
E227
330
1F
100
AcDbEntity
  8
1
  6
CENTER
100
AcDbLine
 10
14341.70470450087
 20
949.5980582430693
 30
0.0
 11
14331.52098969163
 21
898.4010666060202
 31
0.0
  0
CIRCLE
  5
E228
330
1F
100
AcDbEntity
  8
1
100
AcDbCircle
 10
14445.86342742528
 20
923.9995624245427
 30
0.0
 40
19.5
  0
LINE
  5
E229
330
1F
100
AcDbEntity
  8
1
  6
CENTER
100
AcDbLine
 10
14440.77157002066
 20
949.5980582430684
 30
0.0
 11
14450.9552848299
 21
898.4010666060182
 31
0.0
  0
CIRCLE
  5
E22A
330
1F
100
AcDbEntity
  8
1
100
AcDbCircle
 10
14546.79780250625
 20
965.8079494927324
 30
0.0
 40
19.5
  0
LINE
  5
E22B
330
1F
100
AcDbEntity
  8
1
  6
CENTER
100
AcDbLine
 10
14532.29741942444
 20
987.5093063738312
 30
0.0
 11
14561.29818558806
 21
944.1065926116362
 31
0.0
  0
CIRCLE
  5
E22C
330
1F
100
AcDbEntity
  8
1
100
AcDbCircle
 10
14624.04962870548
 20
1043.059775691955
 30
0.0
 40
19.5
  0
LINE
  5
E22D
330
1F
100
AcDbEntity
  8
1
  6
CENTER
100
AcDbLine
 10
14602.34827182438
 20
1057.560158773769
 30
0.0
 11
14645.75098558658
 21
1028.559392610143
 31
0.0
  0
CIRCLE
  5
E22E
330
1F
100
AcDbEntity
  8
1
100
AcDbCircle
 10
14665.85801577367
 20
1143.994150772929
 30
0.0
 40
19.5
  0
LINE
  5
E22F
330
1F
100
AcDbEntity
  8
1
  6
CENTER
100
AcDbLine
 10
14640.25951995514
 20
1149.08600817755
 30
0.0
 11
14691.4565115922
 21
1138.902293368306
 31
0.0
  0
CIRCLE
  5
E230
330
1F
100
AcDbEntity
  8
1
100
AcDbCircle
 10
14665.85801577367
 20
1253.244731101959
 30
0.0
 40
19.5
  0
LINE
  5
E231
330
1F
100
AcDbEntity
  8
1
  6
CENTER
100
AcDbLine
 10
14640.25951995515
 20
1248.152873697339
 30
0.0
 11
14691.4565115922
 21
1258.336588506579
 31
0.0
  0
CIRCLE
  5
E232
330
1F
100
AcDbEntity
  8
1
100
AcDbCircle
 10
14624.04962870549
 20
1354.179106182931
 30
0.0
 40
19.5
  0
LINE
  5
E233
330
1F
100
AcDbEntity
  8
1
  6
CENTER
100
AcDbLine
 10
14602.34827182439
 20
1339.67872310112
 30
0.0
 11
14645.75098558658
 21
1368.679489264743
 31
0.0
  0
CIRCLE
  5
E234
330
1F
100
AcDbEntity
  8
1
100
AcDbCircle
 10
14546.79780250626
 20
1431.430932382157
 30
0.0
 40
19.5
  0
LINE
  5
E235
330
1F
100
AcDbEntity
  8
1
  6
CENTER
100
AcDbLine
 10
14532.29741942445
 20
1409.729575501062
 30
0.0
 11
14561.29818558808
 21
1453.132289263252
 31
0.0
  0
CIRCLE
  5
E236
330
1F
100
AcDbEntity
  8
1
100
AcDbCircle
 10
14445.86342742529
 20
1473.239319450351
 30
0.0
 40
19.5
  0
LINE
  5
E237
330
1F
100
AcDbEntity
  8
1
  6
CENTER
100
AcDbLine
 10
14440.77157002067
 20
1447.640823631825
 30
0.0
 11
14450.95528482991
 21
1498.837815268875
 31
0.0
  0
CIRCLE
  5
E270
330
1F
100
AcDbEntity
  8
1
100
AcDbCircle
 10
14391.23813726077
 20
1198.619440937447
 30
0.0
 40
254.9999999999998
  0
LINE
  5
E2BE
330
1F
100
AcDbEntity
  8
1
100
AcDbLine
 10
14974.47926795766
 20
1426.619440937447
 30
0.0
 11
14974.47926795766
 21
970.6194409374479
 31
0.0
  0
LINE
  5
E2CA
330
1F
100
AcDbEntity
  8
1
100
AcDbLine
 10
14954.7149399319
 20
1430.325252442277
 30
0.0
 11
14974.47926795766
 21
1426.619440937447
 31
0.0
  0
ARC
  5
E2CB
330
1F
100
AcDbEntity
  8
1
100
AcDbCircle
 10
14957.47926795766
 20
1445.068335246292
 30
0.0
 40
15.0
100
AcDbArc
 50
180.0000000000009
 51
259.3803447238456
  0
LINE
  5
E2DF
330
1F
100
AcDbEntity
  8
1
100
AcDbLine
 10
14954.7149399319
 20
966.9136294326179
 30
0.0
 11
14974.47926795766
 21
970.6194409374475
 31
0.0
  0
ARC
  5
E2E0
330
1F
100
AcDbEntity
  8
1
100
AcDbCircle
 10
14957.47926795766
 20
952.1705466286032
 30
0.0
 40
15.0
100
AcDbArc
 50
100.6196552761543
 51
179.9999999999991
  0
LINE
  5
E2E2
330
1F
100
AcDbEntity
  8
1
100
AcDbLine
 10
15178.33035205006
 20
704.1495566258528
 30
0.0
 11
16778.33035205007
 21
1604.149556625852
 31
0.0
  0
LINE
  5
E2E3
330
1F
100
AcDbEntity
  8
1
100
AcDbLine
 10
16778.33035205007
 20
704.1495566258528
 30
0.0
 11
18428.33035205006
 21
1604.149556625852
 31
0.0
  0
LINE
  5
E2E4
330
1F
100
AcDbEntity
  8
1
100
AcDbLine
 10
12228.33035205007
 20
-495.8504433741491
 30
0.0
 11
13678.33035205006
 21
704.1495566258528
 31
0.0
  0
LINE
  5
E2E5
330
1F
100
AcDbEntity
  8
1
100
AcDbLine
 10
13678.33035205007
 20
-495.8504433741487
 30
0.0
 11
15178.33035205006
 21
704.1495566258528
 31
0.0
  0
CIRCLE
  5
E38E
330
1F
100
AcDbEntity
  8
1
100
AcDbCircle
 10
14990.11009510308
 20
2363.617321746548
 30
0.0
 40
40.0
  0
LINE
  5
E49E
330
1F
100
AcDbEntity
  8
1
100
AcDbLine
 10
12597.90041664996
 20
2418.617321746547
 30
0.0
 11
12598.90041664996
 21
2417.617321746547
 31
0.0
  0
LINE
  5
E49F
330
1F
100
AcDbEntity
  8
1
100
AcDbLine
 10
12598.90041664996
 20
2309.61732174655
 30
0.0
 11
12597.90041664996
 21
2308.617321746551
 31
0.0
  0
LINE
  5
E4A0
330
1F
100
AcDbEntity
  8
1
100
AcDbLine
 10
13198.53731990557
 20
2421.117321746548
 30
0.0
 11
13199.53731990557
 21
2420.117321746548
 31
0.0
  0
LINE
  5
E4A1
330
1F
100
AcDbEntity
  8
1
100
AcDbLine
 10
13198.53731990557
 20
2306.117321746546
 30
0.0
 11
13199.53731990557
 21
2307.117321746546
 31
0.0
  0
LINE
  5
E4A2
330
1F
100
AcDbEntity
  8
1
100
AcDbLine
 10
13808.83384332011
 20
2423.617321746548
 30
0.0
 11
13809.83384332011
 21
2422.617321746548
 31
0.0
  0
LINE
  5
E4A3
330
1F
100
AcDbEntity
  8
1
100
AcDbLine
 10
13809.83384332011
 20
2304.617321746547
 30
0.0
 11
13808.83384332011
 21
2303.617321746547
 31
0.0
  0
LINE
  5
E4A4
330
1F
100
AcDbEntity
  8
1
100
AcDbLine
 10
14468.72277640145
 20
2428.617321746548
 30
0.0
 11
14469.72277640145
 21
2427.617321746548
 31
0.0
  0
LINE
  5
E4A5
330
1F
100
AcDbEntity
  8
1
100
AcDbLine
 10
14469.72277640145
 20
2299.617321746547
 30
0.0
 11
14468.72277640145
 21
2298.617321746547
 31
0.0
  0
LINE
  5
E4A6
330
1F
100
AcDbEntity
  8
1
100
AcDbLine
 10
15159.89619705297
 20
2433.617321746547
 30
0.0
 11
15160.89619705297
 21
2432.617321746547
 31
0.0
  0
LINE
  5
E4A7
330
1F
100
AcDbEntity
  8
1
100
AcDbLine
 10
15160.89619705295
 20
2294.617321746546
 30
0.0
 11
15159.89619705296
 21
2293.617321746546
 31
0.0
  0
LINE
  5
E4A8
330
1F
100
AcDbEntity
  8
1
100
AcDbLine
 10
15864.37750074981
 20
2443.617321746548
 30
0.0
 11
15865.37750074981
 21
2442.617321746548
 31
0.0
  0
LINE
  5
E4A9
330
1F
100
AcDbEntity
  8
1
100
AcDbLine
 10
15865.37750074981
 20
2284.617321746548
 30
0.0
 11
15864.37750074981
 21
2283.617321746548
 31
0.0
  0
LINE
  5
E4AA
330
1F
100
AcDbEntity
  8
1
100
AcDbLine
 10
16563.59951346258
 20
2446.117321746547
 30
0.0
 11
16564.59951346258
 21
2445.117321746547
 31
0.0
  0
LINE
  5
E4AB
330
1F
100
AcDbEntity
  8
1
100
AcDbLine
 10
16564.59951346259
 20
2282.117321746548
 30
0.0
 11
16563.59951346259
 21
2281.117321746548
 31
0.0
  0
LINE
  5
E4AC
330
1F
100
AcDbEntity
  8
1
100
AcDbLine
 10
17304.57539029401
 20
2463.617321746548
 30
0.0
 11
17305.57539029401
 21
2462.617321746548
 31
0.0
  0
LINE
  5
E4AD
330
1F
100
AcDbEntity
  8
1
100
AcDbLine
 10
17305.57539029401
 20
2264.617321746547
 30
0.0
 11
17304.57539029401
 21
2263.617321746547
 31
0.0
  0
LINE
  5
E4AE
330
1F
100
AcDbEntity
  8
1
100
AcDbLine
 10
18107.07202643633
 20
2468.617321746548
 30
0.0
 11
18108.07202643633
 21
2467.617321746548
 31
0.0
  0
LINE
  5
E4AF
330
1F
100
AcDbEntity
  8
1
100
AcDbLine
 10
18108.07202643634
 20
2259.617321746547
 30
0.0
 11
18107.07202643634
 21
2258.617321746547
 31
0.0
  0
LINE
  5
E4B0
330
1F
100
AcDbEntity
  8
1
100
AcDbLine
 10
12746.14191644447
 20
2053.321890976123
 30
0.0
 11
12747.14191644447
 21
2052.321890976123
 31
0.0
  0
LINE
  5
E4B1
330
1F
100
AcDbEntity
  8
1
100
AcDbLine
 10
12746.14191644447
 20
1823.321890976123
 30
0.0
 11
12747.14191644447
 21
1824.321890976123
 31
0.0
  0
LINE
  5
E4B2
330
1F
100
AcDbEntity
  8
1
100
AcDbLine
 10
13487.71670296303
 20
2058.321890976124
 30
0.0
 11
13488.71670296303
 21
2057.321890976124
 31
0.0
  0
LINE
  5
E4B3
330
1F
100
AcDbEntity
  8
1
100
AcDbLine
 10
13487.71670296304
 20
1818.321890976124
 30
0.0
 11
13488.71670296304
 21
1819.321890976124
 31
0.0
  0
LINE
  5
E4B4
330
1F
100
AcDbEntity
  8
1
100
AcDbLine
 10
14214.09236465124
 20
2075.821890976124
 30
0.0
 11
14215.09236465124
 21
2074.821890976124
 31
0.0
  0
LINE
  5
E4B5
330
1F
100
AcDbEntity
  8
1
100
AcDbLine
 10
14214.09236465124
 20
1800.821890976123
 30
0.0
 11
14215.09236465124
 21
1801.821890976123
 31
0.0
  0
LINE
  5
E4B6
330
1F
100
AcDbEntity
  8
1
100
AcDbLine
 10
15014.17747254153
 20
1775.821890976123
 30
0.0
 11
15015.17747254153
 21
1776.821890976123
 31
0.0
  0
LINE
  5
E4B7
330
1F
100
AcDbEntity
  8
1
100
AcDbLine
 10
15014.17747254154
 20
2100.821890976124
 30
0.0
 11
15015.17747254154
 21
2099.821890976125
 31
0.0
  0
LINE
  5
E4B8
330
1F
100
AcDbEntity
  8
1
100
AcDbLine
 10
12920.67124920778
 20
1456.119440937448
 30
0.0
 11
12921.67124920778
 21
1455.119440937449
 31
0.0
  0
LINE
  5
E4B9
330
1F
100
AcDbEntity
  8
1
100
AcDbLine
 10
12921.67124920778
 20
942.1194409374464
 30
0.0
 11
12920.67124920778
 21
941.1194409374465
 31
0.0
  0
LINE
  5
E4BA
330
1F
100
AcDbEntity
  8
1
100
AcDbLine
 10
13837.8769686331
 20
1478.619440937448
 30
0.0
 11
13838.8769686331
 21
1477.619440937448
 31
0.0
  0
LINE
  5
E4BB
330
1F
100
AcDbEntity
  8
1
100
AcDbLine
 10
13838.87696863311
 20
919.6194409374475
 30
0.0
 11
13837.87696863311
 21
918.6194409374476
 31
0.0
  0
LINE
  5
E4BC
330
1F
100
AcDbEntity
  8
1
100
AcDbLine
 10
14941.47926795766
 20
1513.619440937447
 30
0.0
 11
14942.47926795766
 21
1512.619440937447
 31
0.0
  0
LINE
  5
E4BD
330
1F
100
AcDbEntity
  8
1
100
AcDbLine
 10
14941.47926795767
 20
883.6194409374474
 30
0.0
 11
14942.47926795767
 21
884.6194409374474
 31
0.0
  0
ENDSEC
  0
SECTION
  2
OBJECTS
  0
DICTIONARY
  5
C
330
0
100
AcDbDictionary
281
     1
  3
ACAD_COLOR
350
D89
  3
ACAD_GROUP
350
D
  3
ACAD_LAYOUT
350
1A
  3
ACAD_MATERIAL
350
D88
  3
ACAD_MLINESTYLE
350
17
  3
ACAD_PLOTSETTINGS
350
19
  3
ACAD_PLOTSTYLENAME
350
E
  3
ACAD_TABLESTYLE
350
D8A
  3
ACAD_VISUALSTYLE
350
E481
  3
AcDbVariableDictionary
350
7E5
  3
DWGPROPS
350
E4DB
  0
DICTIONARY
  5
E423
330
2
100
AcDbDictionary
280
     1
281
     1
  3
ACAD_LAYERSTATES
360
E424
  0
DICTIONARY
  5
DF
330
1F
100
AcDbDictionary
280
     1
281
     1
  3
ACAD_LAYOUTSELFREF
360
D85
  3
ACAD_SORTENTS
360
E06
  0
DICTIONARY
  5
E1
330
1B
100
AcDbDictionary
280
     1
281
     1
  3
ACAD_LAYOUTSELFREF
360
D84
  0
DICTIONARY
  5
E3
330
23
100
AcDbDictionary
280
     1
281
     1
  3
ACAD_LAYOUTSELFREF
360
D86
  0
DICTIONARY
  5
E4E4
330
9736
100
AcDbDictionary
280
     1
281
     1
  3
ACAD_MTEXT_RT
360
E4E5
  0
DICTIONARY
  5
D89
102
{ACAD_REACTORS
330
C
102
}
330
C
100
AcDbDictionary
281
     1
  0
DICTIONARY
  5
D
102
{ACAD_REACTORS
330
C
102
}
330
C
100
AcDbDictionary
281
     1
  0
DICTIONARY
  5
1A
102
{ACAD_REACTORS
330
C
102
}
330
C
100
AcDbDictionary
281
     1
  3
Model
350
22
  3
ﾚｲｱｳﾄ1
350
1E
  3
ﾚｲｱｳﾄ2
350
26
  0
DICTIONARY
  5
D88
102
{ACAD_REACTORS
330
C
102
}
330
C
100
AcDbDictionary
281
     1
  3
ByBlock
350
E47F
  3
ByLayer
350
E47E
  3
Global
350
E480
  0
DICTIONARY
  5
17
102
{ACAD_REACTORS
330
C
102
}
330
C
100
AcDbDictionary
281
     1
  3
Standard
350
18
  0
DICTIONARY
  5
19
102
{ACAD_REACTORS
330
C
102
}
330
C
100
AcDbDictionary
281
     1
  0
ACDBDICTIONARYWDFLT
  5
E
102
{ACAD_REACTORS
330
C
102
}
330
C
100
AcDbDictionary
281
     1
  3
Normal
350
F
100
AcDbDictionaryWithDefault
340
F
  0
DICTIONARY
  5
D8A
102
{ACAD_REACTORS
330
C
102
}
330
C
100
AcDbDictionary
281
     1
  3
Standard
350
D8B
  0
DICTIONARY
  5
E481
102
{ACAD_REACTORS
330
C
102
}
330
C
100
AcDbDictionary
281
     1
  3
2dWireframe
350
E487
  3
3D Hidden
350
E489
  3
3dWireframe
350
E488
  3
Basic
350
E486
  3
Brighten
350
E48D
  3
ColorChange
350
E491
  3
Conceptual
350
E48A
  3
Dim
350
E48C
  3
Facepattern
350
E490
  3
Flat
350
E482
  3
FlatWithEdges
350
E483
  3
Gouraud
350
E484
  3
GouraudWithEdges
350
E485
  3
Linepattern
350
E48F
  3
Realistic
350
E48B
  3
Thicken
350
E48E
  0
DICTIONARY
  5
7E5
102
{ACAD_REACTORS
330
C
102
}
330
C
100
AcDbDictionary
281
     1
  3
CTABLESTYLE
350
DD2
  3
DIMASSOC
350
2256
  3
INDEXCTL
350
E4DA
  3
PROJECTNAME
350
2257
  3
SORTENTS
350
7E6
  0
XRECORD
  5
E4DB
102
{ACAD_REACTORS
330
C
102
}
330
C
100
AcDbXrecord
280
     1
  1
DWGPROPS COOKIE
  2

  3

  4

  6

  7

  8
sakata-desk1
  9

300
=
301
=
302
=
303
=
304
=
305
=
306
=
307
=
308
=
309
=
 40
4.228154768518518
 41
2452172.781987847
 42
2456067.383345984
  1

 90
        0
  0
DICTIONARY
  5
E424
102
{ACAD_REACTORS
330
E423
102
}
330
E423
100
AcDbDictionary
281
     1
  0
XRECORD
  5
D85
102
{ACAD_REACTORS
330
DF
102
}
330
DF
100
AcDbXrecord
280
     1
340
1F
  0
SORTENTSTABLE
  5
E06
102
{ACAD_REACTORS
330
DF
102
}
330
DF
100
AcDbSortentsTable
330
1F
331
202E
  5
81F1
331
E4B8
  5
3047
331
5DFB
  5
A655
331
26DA
  5
9CD3
331
1B4
  5
348
331
7CA9
  5
A64A
331
4C06
  5
A16F
331
25CB
  5
99AE
331
2B7F
  5
7E86
331
974B
  5
B120
331
970C
  5
A937
331
5F2B
  5
A70E
331
5AEC
  5
A52C
331
5745
  5
A379
331
48BF
  5
9F9D
331
29A8
  5
9F1F
331
7DE0
  5
ED0
331
9714
  5
AA25
331
4FB6
  5
A25D
331
B96B
  5
D1A3
331
971C
  5
AA5C
331
C5F0
  5
D47E
331
99AA
  5
CAB7
331
A086
  5
A40C
331
BAA3
  5
EE8
331
C9FD
  5
D66C
331
C141
  5
7FA2
331
B75C
  5
CF34
331
BB33
  5
FAA
331
D7E5
  5
DD26
331
D62E
  5
DB7F
331
DB1B
  5
7BE3
331
B764
  5
CF37
331
A0E6
  5
A844
331
CD04
  5
4BBA
331
DEA0
  5
E088
331
DBEA
  5
DF47
331
D9C4
  5
DD30
331
D636
  5
DBEB
331
C628
  5
D483
331
E21D
  5
E2E4
331
DEA8
  5
E12E
331
E0D6
  5
D386
331
DD79
  5
E07D
331
DB6B
  5
DE9F
331
D9CC
  5
DD79
331
D7FD
  5
DD2A
331
E2E4
  5
E4BB
331
E225
  5
E4A2
331
DEB0
  5
E172
331
D9D4
  5
DDE8
331
E22D
  5
E4AA
331
E12E
  5
E29F
331
E06F
  5
E21F
331
B29
  5
7DC0
331
247C
  5
974E
331
28B1
  5
9D9B
331
1FBF
  5
813B
331
E4A1
  5
4F5
331
7C42
  5
A838
331
7CE1
  5
3227
331
E4A9
  5
A537
331
2A30
  5
7E8A
331
CF1
  5
7ECE
331
972C
  5
AB8D
331
E4B1
  5
9786
331
23A5
  5
8260
331
9734
  5
AD73
331
821E
  5
A1A5
331
4B37
  5
A0E8
331
A65D
  5
CDCB
331
9F97
  5
CD37
331
A20E
  5
A3E6
331
973C
  5
AD7B
331
8256
  5
A92E
331
6113
  5
A763
331
998B
  5
B5D7
331
9744
  5
AE5E
331
8276
  5
A0EB
331
A01F
  5
5F98
331
B7D4
  5
321D
331
CBBD
  5
D6AF
331
D430
  5
9C7D
331
D0A2
  5
D8F1
331
CF33
  5
D7E7
331
C99E
  5
D634
331
C6E0
  5
D509
331
A4C6
  5
7BB3
331
B735
  5
E89
331
DD22
  5
DF8D
331
DB73
  5
DEA7
331
D271
  5
DA20
331
D0AA
  5
D9CB
331
CF3B
  5
D86A
331
CCBD
  5
A536
331
DE59
  5
7CDF
331
C5E9
  5
305A
331
E235
  5
E4B2
331
E077
  5
E227
331
DD2A
  5
E072
331
DB7B
  5
DEAF
331
D478
  5
DACB
331
D279
  5
DA63
331
C857
  5
D5A3
331
D7A6
  5
972C
331
E07F
  5
E22F
331
D7DE
  5
DD1F
331
DB93
  5
D3AF
331
D617
  5
A901
331
E087
  5
E237
331
DE99
  5
E081
331
E020
  5
8150
331
E1DE
  5
7F9B
331
E216
  5
7F9A
331
7E2
  5
5949
331
45B
  5
15C9
331
E4B9
  5
A1B4
331
2919
  5
9DA3
331
21B6
  5
8258
331
5616
  5
A32A
331
7CAA
  5
A5D5
331
974C
  5
B2DA
331
970D
  5
A946
331
5F2C
  5
A70F
331
5AED
  5
A52D
331
29A9
  5
9F21
331
2753
  5
9D33
331
7BE3
  5
1B5
331
9E08
  5
A83F
331
9715
  5
AA26
331
9AB1
  5
7D76
331
7E11
  5
A843
331
7C03
  5
A777
331
4FB7
  5
A25E
331
7F18
  5
FDC
331
B96C
  5
D1B0
331
971D
  5
AA5D
331
830E
  5
A931
331
C5F1
  5
D47F
331
99AB
  5
CAC4
331
9725
  5
AB34
331
C05A
  5
7C9C
331
D480
  5
DB72
331
C758
  5
D53B
331
A656
  5
CD73
331
A0AF
  5
FDB
331
DB1C
  5
A269
331
D7E6
  5
DD27
331
D62F
  5
DB93
331
D152
  5
D9CF
331
D4D8
  5
D47B
331
D9AD
  5
9714
331
C202
  5
D35F
331
B765
  5
CF38
331
CD05
  5
4BBB
331
DEA1
  5
E089
331
DBEB
  5
DF51
331
D9C5
  5
DD31
331
D637
  5
DC07
331
D321
  5
DA70
331
CF0C
  5
D7E4
331
C8D7
  5
D62E
331
C629
  5
D484
331
E21E
  5
E2E5
331
DEA9
  5
E12F
331
DB6C
  5
DEA0
331
D9CD
  5
DD8D
331
E048
  5
8152
331
D68F
  5
FE4
331
E2E5
  5
E4BC
331
E226
  5
E4A3
331
DEB1
  5
E18C
331
D9D5
  5
DDF5
331
DE3A
  5
7C03
331
E22E
  5
E4AB
331
E12F
  5
E2CA
331
DD1B
  5
CDF2
331
543
  5
3040
331
1F5
  5
727
331
48C0
  5
9F9E
331
247D
  5
9780
331
255
  5
74D
331
2A21
  5
9F25
331
24AD
  5
82F4
331
20F7
  5
8255
331
1FC0
  5
813C
331
E4A2
  5
74E
331
7E21
  5
A409
331
602C
  5
A754
331
7CE2
  5
322B
331
E4AA
  5
EC6
331
972D
  5
AC61
331
8316
  5
A935
331
603C
  5
A75D
331
58EE
  5
A40D
331
820F
  5
7C82
331
E4B2
  5
10DE
331
9735
  5
AD74
331
7C83
  5
A83A
331
5DF5
  5
A5D4
331
9A6A
  5
7D29
331
A65E
  5
CDE5
331
973D
  5
AD7C
331
7F98
  5
A928
331
6114
  5
A764
331
C4D2
  5
D3A2
331
A020
  5
A40A
331
8277
  5
A0EE
331
CBBE
  5
321E
331
C4DA
  5
D3F9
331
C6D9
  5
30EA
331
D6AF
  5
DC2E
331
D0A3
  5
D8FE
331
CF34
  5
D7F1
331
C99F
  5
D635
331
C6E1
  5
D50A
331
C840
  5
9F23
331
BF0B
  5
7C08
331
A4C7
  5
7BCD
331
E070
  5
E220
331
DD23
  5
DF9A
331
DB74
  5
DEA8
331
D272
  5
DA21
331
D0AB
  5
D9CC
331
CF3C
  5
D889
331
BFB3
  5
7C47
331
C850
  5
3144
331
E236
  5
E4B3
331
E078
  5
E228
331
DD2B
  5
E073
331
DB7C
  5
DEB0
331
D479
  5
DAD8
331
C9AF
  5
CF17
331
E080
  5
E230
331
E157
  5
AB22
331
D7DF
  5
DD20
331
D946
  5
7BCE
331
E088
  5
E270
331
DE9A
  5
E082
331
E021
  5
A0EF
331
E2BE
  5
9F98
331
4B38
  5
A0E9
331
2B31
  5
9F8D
331
291A
  5
9DBF
331
E4BA
  5
80A9
331
25B5
  5
9785
331
2030
  5
81FF
331
5617
  5
A32B
331
2406
  5
9715
331
4DD8
  5
A1C1
331
25CD
  5
9C48
331
504
  5
2E29
331
974D
  5
B2E6
331
970E
  5
A953
331
8050
  5
2E28
331
7EF1
  5
10E1
331
9E09
  5
CC6C
331
9716
  5
AA27
331
971E
  5
AA60
331
9EF9
  5
EC2
331
C858
  5
D5B0
331
C5F2
  5
D480
331
BAA5
  5
D1CA
331
99AC
  5
CBBD
331
9726
  5
AB35
331
D481
  5
DB73
331
CCFE
  5
D6F0
331
C143
  5
D323
331
CED5
  5
4C46
331
D7E7
  5
DD28
331
D630
  5
DBCA
331
D153
  5
D9D0
331
C203
  5
D36C
331
CD06
  5
A52F
331
D02C
  5
A412
331
DB1D
  5
7BD0
331
DEA2
  5
E08A
331
D9C6
  5
DD58
331
D322
  5
DA7D
331
CF0D
  5
D7E5
331
D054
  5
CD07
331
C8D8
  5
D62F
331
DB55
  5
825A
331
E21F
  5
E38E
331
DEAA
  5
E139
331
DB6D
  5
DEA1
331
D9CE
  5
DD9A
331
E227
  5
E4A4
331
DEB2
  5
E199
331
D9D6
  5
DE02
331
DE3B
  5
A1B2
331
E22F
  5
E4AC
331
E38E
  5
D151
331
DD1C
  5
DF53
331
1EC9
  5
7F45
331
4FB8
  5
A261
331
48C1
  5
9F9F
331
20F0
  5
8209
331
1FB9
  5
7FA0
331
E4A3
  5
A6FA
331
28B3
  5
9D9C
331
262D
  5
99AF
331
24AE
  5
972B
331
1FC1
  5
813F
331
CCB
  5
7E8B
331
25E
  5
E04
331
602D
  5
A75C
331
7CE3
  5
A53D
331
7E22
  5
A407
331
5CF6
  5
A540
331
5248
  5
A26C
331
E4AB
  5
A4C6
331
4A19
  5
A0D6
331
2794
  5
9D3A
331
2665
  5
9CBD
331
58EF
  5
A40E
331
54B8
  5
A2C0
331
23A7
  5
8261
331
266D
  5
7ED8
331
E4B3
  5
10D5
331
9736
  5
AD75
331
9B52
  5
8151
331
973E
  5
AD9B
331
6115
  5
A765
331
7EC2
  5
9782
331
C960
  5
3216
331
C692
  5
3142
331
998D
  5
B646
331
9CBA
  5
4C7
331
D509
  5
DB77
331
CD96
  5
D7DE
331
CBBF
  5
D6B0
331
A837
  5
CEF9
331
9AA3
  5
7D61
331
D6B0
  5
DC3B
331
D0A4
  5
D90D
331
CF35
  5
D7FB
331
C9A0
  5
D636
331
C6E2
  5
D50B
331
C841
  5
A784
331
B89E
  5
D167
331
C5D3
  5
306C
331
E071
  5
E221
331
E148
  5
AB25
331
DD24
  5
DFA7
331
DB75
  5
DEA9
331
D273
  5
DA34
331
D0AC
  5
D9CD
331
CF3D
  5
D896
331
D927
  5
7BCF
331
C5EB
  5
9F95
331
C851
  5
314A
331
E237
  5
E4B4
331
E079
  5
E229
331
DD2C
  5
E074
331
DB7D
  5
DEB1
331
DA36
  5
DE9A
331
D47A
  5
DAE5
331
E081
  5
E231
331
E089
  5
E283
331
DE9B
  5
E083
331
E4BB
  5
A0F0
331
4B39
  5
A0EA
331
291B
  5
9E06
331
27E4
  5
9D3F
331
21B8
  5
8259
331
5618
  5
A32C
331
2407
  5
9726
331
B24
  5
7DBD
331
5F26
  5
A656
331
5AE7
  5
A462
331
4DD9
  5
A1C2
331
270D
  5
7ED1
331
974E
  5
B2E7
331
970F
  5
AA1D
331
82E0
  5
A930
331
2755
  5
9D36
331
2467
  5
9731
331
7EF2
  5
11E4
331
9E0A
  5
CC79
331
A4C8
  5
A2B2
331
9786
  5
B2EA
331
9717
  5
AA56
331
7CDC
  5
A840
331
5BF7
  5
A538
331
8151
  5
7C0B
331
A4E0
  5
CD66
331
99A5
  5
CA09
331
971F
  5
AA61
331
8169
  5
8203
331
C859
  5
D62D
331
C5F3
  5
D481
331
C05C
  5
D321
331
BAA6
  5
D1D7
331
99AD
  5
CBBF
331
9727
  5
AB36
331
9A5C
  5
7D2D
331
B757
  5
1EA
331
D7E0
  5
DD21
331
D482
  5
DB74
331
CCFF
  5
D6FD
331
D2E3
  5
D47C
331
CA08
  5
D679
331
C144
  5
D324
331
D631
  5
DBE6
331
C762
  5
D548
331
CD07
  5
A52E
331
BD8D
  5
15B6
331
B767
  5
740
331
DEA3
  5
E0D6
331
DD64
  5
E07A
331
D9C7
  5
DD59
331
D323
  5
DA8A
331
C8D9
  5
D630
331
CD37
  5
D166
331
C62B
  5
D4D8
331
E2DF
  5
E4B7
331
E220
  5
E432
331
DEAB
  5
E13A
331
E119
  5
7FBF
331
DB6E
  5
DEA2
331
D9CF
  5
DDA7
331
D413
  5
99AC
331
DCBD
  5
7BEF
331
D07D
  5
5AFB
331
E228
  5
E4A5
331
DEB3
  5
E1A8
331
DCE5
  5
8202
331
E139
  5
E2CB
331
DD1D
  5
DF54
331
DEEB
  5
D395
331
57B0
  5
A3E5
331
48C2
  5
9FEC
331
CBC
  5
7E22
331
48CA
  5
A0D0
331
2A23
  5
9F27
331
28B4
  5
9D9E
331
20F9
  5
8257
331
E4A4
  5
EA1
331
5CF7
  5
A550
331
7CE4
  5
A53C
331
5249
  5
A26D
331
2795
  5
9D3B
331
2666
  5
9CBE
331
24C7
  5
7EF1
331
E4AC
  5
F94
331
972F
  5
ACA9
331
8318
  5
9F96
331
58F0
  5
A40F
331
54B9
  5
A322
331
E4B4
  5
2BCF
331
7C5D
  5
72F
331
9737
  5
AD76
331
7F72
  5
11F0
331
973F
  5
AE56
331
BB4E
  5
D270
331
C693
  5
A752
331
C961
  5
A64B
331
9747
  5
AE5F
331
A3E9
  5
A902
331
D50A
  5
DB78
331
CD97
  5
D7DF
331
CBC0
  5
D6E3
331
9996
  5
CA08
331
C6DB
  5
9F8A
331
D26C
  5
D9D3
331
D0A5
  5
D9C6
331
CF36
  5
D7FC
331
C9A1
  5
D637
331
D463
  5
9C5F
331
C6E3
  5
D50C
331
D5CA
  5
6065
331
BF0D
  5
D2A7
331
B89F
  5
D196
331
C5D4
  5
3071
331
E230
  5
E4AD
331
E072
  5
E222
331
DD25
  5
DFB4
331
DB76
  5
DEAA
331
D928
  5
A2BF
331
D274
  5
DA35
331
D0AD
  5
D9CE
331
CF3E
  5
D8A3
331
D5F2
  5
9781
331
BFB5
  5
D2F6
331
C5EC
  5
A767
331
C852
  5
A65C
331
CE4F
  5
50B1
331
E07A
  5
E22A
331
E270
  5
D379
331
DF53
  5
E1B5
331
DD2D
  5
E075
331
DB7E
  5
DEB2
331
DA37
  5
DE9B
331
D47B
  5
DAF2
331
E082
  5
E232
331
E08A
  5
E292
331
DE9C
  5
E084
331
CFC
  5
7ED7
331
59F8
  5
A414
331
E4BC
  5
9F9B
331
2B33
  5
9F8E
331
26D6
  5
9CD0
331
5619
  5
A32D
331
25C7
  5
99AD
331
2408
  5
9727
331
2201
  5
825B
331
5AE8
  5
A47E
331
4DDA
  5
A1CF
331
25CF
  5
9C49
331
7FB2
  5
2C82
331
9710
  5
AA1E
331
7EF3
  5
A333
331
8052
  5
A263
331
B738
  5
CF0C
331
9E0B
  5
CC95
331
A4C9
  5
A294
331
9718
  5
AA57
331
99A6
  5
CA9D
331
9720
  5
AB1F
331
816A
  5
8204
331
7C1E
  5
37A
331
C9F9
  5
EA4
331
C5F4
  5
D482
331
C05D
  5
D322
331
99AE
  5
CBC0
331
9B1C
  5
7DED
331
BCF6
  5
FE3
331
C743
  5
420
331
D7E1
  5
DD22
331
D62A
  5
DB7B
331
D483
  5
DB75
331
CD00
  5
D724
331
CA09
  5
D6A4
331
B760
  5
396
331
D9C0
  5
A927
331
D632
  5
DBE7
331
C763
  5
D555
331
CB41
  5
322D
331
D7F1
  5
2C48
331
DEA4
  5
E10F
331
E219
  5
A92F
331
DD65
  5
E07B
331
D9C8
  5
DD5A
331
D324
  5
DA97
331
C8DA
  5
D631
331
C62C
  5
D4F4
331
E2E0
  5
E4B8
331
E221
  5
E49E
331
DEAC
  5
E13B
331
DB6F
  5
DEA3
331
DCBE
  5
A20B
331
D9D0
  5
DDB4
331
D414
  5
A3E8
331
D07E
  5
5BF6
331
E229
  5
E4A6
331
E13A
  5
E2DF
331
DD1E
  5
DF5E
331
2219
  5
825D
331
2E7
  5
EBA
331
5BF8
  5
A539
331
48C3
  5
9FF9
331
28AD
  5
9D99
331
5819
  5
A3E9
331
48CB
  5
A0D1
331
E4A5
  5
A650
331
2A24
  5
9F6A
331
28B5
  5
9D9F
331
9728
  5
AB37
331
5CF8
  5
A55D
331
E4AD
  5
A413
331
524A
  5
A27A
331
2667
  5
9CCB
331
7CE5
  5
321A
331
2023
  5
816A
331
77E
  5
3239
331
9730
  5
ACB6
331
54BA
  5
A323
331
7F4B
  5
6FD8
331
27DE
  5
9D3C
331
E4B5
  5
26E2
331
9738
  5
AD77
331
610F
  5
A75E
331
9740
  5
AE5A
331
A37A
  5
6C5E
331
7D75
  5
4EFE
331
C962
  5
3212
331
C7FB
  5
314E
331
BB4F
  5
D271
331
B7D8
  5
D152
331
9A95
  5
7D5C
331
BE56
  5
2C89
331
D819
  5
DD2B
331
D50B
  5
DB79
331
CD98
  5
D7E0
331
CF17
  5
D1BD
331
9D9C
  5
A839
331
C6DC
  5
A768
331
D20D
  5
5E3F
331
D26D
  5
D9D4
331
D5CB
  5
A334
331
D0A6
  5
D9C7
331
CF37
  5
D7FD
331
BF0E
  5
D2E3
331
C5D5
  5
A762
331
BC57
  5
D272
331
C6E4
  5
30A7
331
E231
  5
E4AE
331
E073
  5
E223
331
DD26
  5
DFC1
331
DB77
  5
DEAB
331
D275
  5
DA36
331
CF3F
  5
D8B0
331
BFB6
  5
D315
331
C853
  5
A65B
331
CCD9
  5
4BBC
331
E07B
  5
E22B
331
DF54
  5
E1C2
331
DD2E
  5
E076
331
DB7F
  5
DEB3
331
DA38
  5
DE9C
331
D7DA
  5
DC51
331
D47C
  5
DB6E
331
E083
  5
E233
331
DE95
  5
CE90
331
DE9D
  5
E085
331
23A9
  5
82F5
331
59F9
  5
A439
331
E4BD
  5
9F9A
331
2B34
  5
9F91
331
27E6
  5
9D40
331
26D7
  5
9CD1
331
2409
  5
9729
331
4C7
  5
2E22
331
9748
  5
B012
331
7BC7
  5
A766
331
5AE9
  5
A48B
331
5742
  5
A341
331
4DDB
  5
A1D0
331
29A5
  5
9F0F
331
287E
  5
9D3E
331
2083
  5
8200
331
9711
  5
AA1F
331
7EF4
  5
A332
331
8053
  5
A268
331
7CBE
  5
E7F
331
B739
  5
CF0D
331
9E0C
  5
CCA2
331
9910
  5
B2EB
331
9719
  5
AA58
331
A073
  5
7DBE
331
9721
  5
AB20
331
816B
  5
A25B
331
9A4E
  5
7D28
331
99AF
  5
CC38
331
D7E2
  5
DD23
331
D62B
  5
DB7C
331
D484
  5
DB76
331
CEF8
  5
D7E2
331
CD01
  5
D731
331
C89B
  5
CF3D
331
D9C1
  5
DD2D
331
D633
  5
DBE8
331
C764
  5
D562
331
CB42
  5
9DA0
331
D315
  5
FB9
331
BD8F
  5
D276
331
C625
  5
28A
331
E21A
  5
E2E0
331
DEA5
  5
E119
331
D9C9
  5
DD64
331
E034
  5
8169
331
D166
  5
D9D1
331
D4F4
  5
9784
331
CD89
  5
4B33
331
E222
  5
E49F
331
DEAD
  5
E156
331
D9D1
  5
DDC1
331
D07F
  5
A411
331
DCBF
  5
7BEE
331
E22A
  5
E4A7
331
DD1F
  5
DF5F
331
25D0
  5
9C4A
331
348
  5
F7F
331
5BF9
  5
A53A
331
28AE
  5
9D9A
331
E49E
  5
3057
331
CBE
  5
7E88
331
71F
  5
3055
331
6028
  5
A710
331
581A
  5
A3EA
331
48CC
  5
A0D3
331
2A25
  5
9F89
331
E4A6
  5
EB2
331
9729
  5
AB38
331
8312
  5
A933
331
5CF9
  5
A56A
331
524B
  5
A287
331
2906
  5
9DA1
331
23A2
  5
825E
331
2024
  5
816B
331
E4AE
  5
FD8
331
9920
  5
B5CA
331
9731
  5
ACC3
331
7F4C
  5
7488
331
821B
  5
3050
331
7D26
  5
A842
331
54BB
  5
A326
331
E4B6
  5
2E20
331
7E3D
  5
FA1
331
9739
  5
AD78
331
A20B
  5
99AA
331
6110
  5
A75F
331
7D4E
  5
4AFE
331
A37B
  5
A327
331
9741
  5
AE5B
331
9B6D
  5
7F80
331
7D76
  5
4EFF
331
C7FC
  5
A65D
331
B7D9
  5
D153
331
BC30
  5
9783
331
D81A
  5
DD2C
331
D50C
  5
DB7A
331
CD99
  5
D7E1
331
D20E
  5
9CB9
331
C99B
  5
9E09
331
B899
  5
4AFF
331
C82C
  5
314C
331
DB70
  5
DEA4
331
D26E
  5
D9D5
331
D0A7
  5
D9C8
331
CF38
  5
D819
331
D5CC
  5
5FBF
331
C5D6
  5
A761
331
C6E5
  5
30A6
331
DA21
  5
2C8A
331
E232
  5
E4AF
331
E074
  5
E224
331
DD27
  5
DFCE
331
DB78
  5
DEAC
331
D276
  5
DA37
331
C854
  5
D56F
331
CE51
  5
9D32
331
E07C
  5
E22C
331
DD2F
  5
E077
331
DA39
  5
DE9D
331
D7DB
  5
DC6B
331
D47D
  5
DB6F
331
E084
  5
E234
331
DE96
  5
E07E
331
E2CA
  5
E4B5
331
DE9E
  5
E086
331
2B1
  5
EB0
331
5DF9
  5
A651
331
59FA
  5
A448
331
2B35
  5
9F92
331
27E7
  5
9D76
331
26D8
  5
9CD2
331
2203
  5
825C
331
206C
  5
81FE
331
2926
  5
7EC2
331
9749
  5
B013
331
7ECD
  5
A900
331
82BB
  5
7FA1
331
5AEA
  5
A513
331
5743
  5
A34E
331
2084
  5
8201
331
7D96
  5
4C06
331
9781
  5
B2E8
331
9712
  5
AA20
331
8054
  5
7C07
331
9E0D
  5
CCD9
331
971A
  5
AA59
331
9A3F
  5
7D27
331
9722
  5
AB21
331
816C
  5
A20D
331
9ACE
  5
7DA3
331
BCF8
  5
D274
331
9F25
  5
CCED
331
99B0
  5
CC45
331
CCFA
  5
9D96
331
D020
  5
5DF9
331
D7E3
  5
DD24
331
D62C
  5
DB7D
331
CEF9
  5
D7E3
331
CD02
  5
D7DC
331
D14F
  5
EDA
331
DBE8
  5
DEB4
331
D9C2
  5
DD2E
331
D634
  5
DBE9
331
BD90
  5
D277
331
C8D4
  5
745
331
E21B
  5
E2E2
331
DEA6
  5
E12C
331
D9CA
  5
DD65
331
DB69
  5
CD89
331
D167
  5
D9D2
331
E2E2
  5
E4B9
331
E223
  5
E4A0
331
DEAE
  5
E157
331
D9D2
  5
DDCE
331
D6A4
  5
DC14
331
E22B
  5
E4A8
331
E06D
  5
E21D
331
247A
  5
9732
331
20EC
  5
8208
331
E49F
  5
A760
331
5BFA
  5
A53B
331
1FBD
  5
8022
331
581B
  5
A3F8
331
5194
  5
A262
331
E4A7
  5
A541
331
48CD
  5
A0D4
331
1FC5
  5
8140
331
CCF
  5
7EA1
331
421
  5
10D1
331
972A
  5
AB39
331
5CFA
  5
A5C7
331
E4AF
  5
A40B
331
23A3
  5
825F
331
215C
  5
8256
331
2025
  5
81D9
331
9732
  5
AD6C
331
9A00
  5
7CE0
331
7F4D
  5
A328
331
821C
  5
3053
331
2917
  5
9DA2
331
E4B7
  5
2E07
331
B76A
  5
CF3E
331
A20C
  5
99AB
331
973A
  5
AD79
331
9A10
  5
7CE2
331
7C88
  5
314F
331
A763
  5
CDFF
331
9A87
  5
9C4B
331
9742
  5
AE5C
331
8274
  5
8141
331
9A20
  5
7CE3
331
BE58
  5
D278
331
D080
  5
A410
331
9A30
  5
7D12
331
D0A0
  5
D8D7
331
C99C
  5
D632
331
C6DE
  5
D4FE
331
A065
  5
7D2E
331
DD20
  5
DF73
331
DB71
  5
DEA5
331
D26F
  5
D9D6
331
D0A8
  5
D9C9
331
CF39
  5
D81A
331
C6E6
  5
A751
331
E233
  5
E4B0
331
E075
  5
E225
331
DD28
  5
DFDB
331
DB79
  5
DEAD
331
D277
  5
DA38
331
D476
  5
A8FF
331
C855
  5
D57C
331
C5EF
  5
D47D
331
C726
  5
CF36
331
E07D
  5
E22D
331
DD30
  5
E078
331
D7DC
  5
DC78
331
D47E
  5
DB70
331
DE7F
  5
81DA
331
E085
  5
E235
331
E1DC
  5
A932
331
DF5E
  5
E21B
331
DE97
  5
E07F
331
DD58
  5
7C48
331
E2CB
  5
E4B6
331
DE9F
  5
E087
331
28A
  5
E8A
331
292
  5
EA7
331
27E0
  5
9D3D
331
491
  5
2C92
331
5DFA
  5
A654
331
59FB
  5
A455
331
27E8
  5
9D95
331
D07
  5
7ED9
331
240B
  5
972A
331
1E9E
  5
7F44
331
974A
  5
B11F
331
970B
  5
A936
331
5F2A
  5
A70D
331
5AEB
  5
A52B
331
5744
  5
A35B
331
48BE
  5
9F99
331
29A7
  5
9F1D
331
9782
  5
B2E9
331
9713
  5
AA21
331
4FB5
  5
A25C
331
9E0E
  5
CCDA
331
971B
  5
AA5A
331
B96A
  5
4C41
331
99A9
  5
CAAA
331
7E1F
  5
FD9
331
C9FC
  5
D65D
331
CCFB
  5
A841
331
BCF9
  5
D275
331
B75B
  5
CF32
331
9F26
  5
CD06
331
99B1
  5
CC52
331
D7E4
  5
DD25
331
D62D
  5
DB7E
331
CD03
  5
D7DD
331
C607
  5
CF35
331
C200
  5
9F97
331
9B37
  5
7E1F
331
DBE9
  5
DEEB
331
D9C3
  5
DD2F
331
D635
  5
DBEA
331
D051
  5
9D18
331
E21C
  5
E2E3
331
DEA7
  5
E12D
331
DD78
  5
E07C
331
DB6A
  5
DE9E
331
D9CB
  5
DD78
331
D7FC
  5
DD29
331
E2E3
  5
E4BA
331
E224
  5
E4A1
331
DEAF
  5
E165
331
D9D3
  5
DDDB
331
D6A5
  5
DC21
331
E22C
  5
E4A9
331
E06E
  5
E21E
331
2759
  5
9D38
331
247B
  5
974D
331
29E7
  5
7EA0
331
2769
  5
9D37
331
1FBE
  5
8124
331
729
  5
305B
331
37A
  5
FD7
331
E4A0
  5
4FA
331
581C
  5
A3F9
331
2791
  5
9D39
331
E4A8
  5
EC0
331
972B
  5
AB3E
331
8314
  5
A934
331
7F3E
  5
A919
331
266A
  5
9CCF
331
E4B0
  5
99A9
331
9733
  5
AD72
331
7F4E
  5
A329
331
821D
  5
A196
331
4B36
  5
A0E7
331
B76B
  5
D150
331
A65C
  5
CD96
331
973B
  5
AD7A
331
A20D
  5
A3E7
331
8255
  5
A929
331
7E7F
  5
A8A4
331
7C89
  5
31B6
331
9743
  5
AE5D
331
8275
  5
8143
331
CBBC
  5
D6A5
331
C4D8
  5
D3EC
331
BE59
  5
D279
331
D0A1
  5
D8E4
331
D9FB
  5
D3D2
331
CF32
  5
D7E6
331
C99D
  5
D633
331
C6DF
  5
D4FF
331
DD21
  5
DF80
331
DB72
  5
DEA6
331
D270
  5
D9FB
331
D0A9
  5
D9CA
331
CF3A
  5
D85D
331
BC6A
  5
D273
331
C6E7
  5
A750
331
CCBC
  5
4BE1
331
E234
  5
E4B1
331
E076
  5
E226
331
DD29
  5
DFE8
331
DB7A
  5
DEAE
331
DF47
  5
7CDC
331
D477
  5
DAA4
331
D278
  5
DA39
331
D111
  5
D1E4
331
D7A5
  5
60BB
331
C856
  5
D596
331
CFFA
  5
5D24
331
E07E
  5
E22E
331
DD31
  5
E079
331
D7DD
  5
DC85
331
D47F
  5
DB71
331
E086
  5
E236
331
E1DD
  5
A0D5
331
DF5F
  5
E21C
331
DE98
  5
E080
331
DBCA
  5
7C09
  0
XRECORD
  5
D84
102
{ACAD_REACTORS
330
E1
102
}
330
E1
100
AcDbXrecord
280
     1
340
1B
  0
XRECORD
  5
D86
102
{ACAD_REACTORS
330
E3
102
}
330
E3
100
AcDbXrecord
280
     1
340
23
  0
XRECORD
  5
E4E5
102
{ACAD_REACTORS
330
E4E4
102
}
330
E4E4
100
AcDbXrecord
280
     1
 40
2030.0
  1
\pt150;550A-30K
  0
LAYOUT
  5
22
102
{ACAD_XDICTIONARY
360
E4DE
102
}
102
{ACAD_REACTORS
330
1A
102
}
330
1A
100
AcDbPlotSettings
  1

  2
NEC MultiWriter 2250
  4
A4
  6

 40
5.873749732971191
 41
5.873747825622557
 42
5.873748779296875
 43
5.873748779296875
 44
209.8040008544922
 45
296.9259948730469
 46
0.0
 47
0.0
 48
0.0
 49
0.0
140
0.0
141
0.0
142
1.0
143
20.43075394308488
 70
 11952
 72
     1
 73
     1
 74
     0
  7
nec-mw2250全細線.ctb
 75
     0
147
0.0489458197571053
148
-7023.221482739531
149
864.3427771606072
100
AcDbLayout
  1
Model
 70
     1
 71
     0
 10
0.0
 20
0.0
 11
12.0
 21
9.0
 12
0.0
 22
0.0
 32
0.0
 14
0.0
 24
0.0
 34
0.0
 15
0.0
 25
0.0
 35
0.0
146
0.0
 13
0.0
 23
0.0
 33
0.0
 16
1.0
 26
0.0
 36
0.0
 17
0.0
 27
1.0
 37
0.0
 76
     0
330
1F
331
E470
1001
ACAD_PSEXT
1000
NEC MultiWriter 2250
1000
NEC MultiWriter 2250
1000
LPT1:
1000

1070
     0
  0
LAYOUT
  5
1E
102
{ACAD_XDICTIONARY
360
E4DC
102
}
102
{ACAD_REACTORS
330
1A
102
}
330
1A
100
AcDbPlotSettings
  1

  2
NEC MultiWriter 2250
  4

  6

 40
0.0
 41
0.0
 42
0.0
 43
0.0
 44
0.0
 45
0.0
 46
0.0
 47
0.0
 48
0.0
 49
0.0
140
0.0
141
0.0
142
1.0
143
1.0
 70
   688
 72
     0
 73
     0
 74
     5
  7
nec-mw2250全細線.ctb
 75
    16
147
1.0
148
0.0
149
0.0
100
AcDbLayout
  1
ﾚｲｱｳﾄ1
 70
     1
 71
     1
 10
0.0
 20
0.0
 11
420.0
 21
297.0
 12
0.0
 22
0.0
 32
0.0
 14
1.000000000000000E+20
 24
1.000000000000000E+20
 34
1.000000000000000E+20
 15
-1.000000000000000E+20
 25
-1.000000000000000E+20
 35
-1.000000000000000E+20
146
0.0
 13
0.0
 23
0.0
 33
0.0
 16
1.0
 26
0.0
 36
0.0
 17
0.0
 27
1.0
 37
0.0
 76
     0
330
1B
  0
LAYOUT
  5
26
102
{ACAD_XDICTIONARY
360
E4E0
102
}
102
{ACAD_REACTORS
330
1A
102
}
330
1A
100
AcDbPlotSettings
  1

  2
NEC MultiWriter 2250
  4

  6

 40
0.0
 41
0.0
 42
0.0
 43
0.0
 44
0.0
 45
0.0
 46
0.0
 47
0.0
 48
0.0
 49
0.0
140
0.0
141
0.0
142
1.0
143
1.0
 70
   688
 72
     0
 73
     0
 74
     5
  7
nec-mw2250全細線.ctb
 75
    16
147
1.0
148
0.0
149
0.0
100
AcDbLayout
  1
ﾚｲｱｳﾄ2
 70
     1
 71
     2
 10
0.0
 20
0.0
 11
12.0
 21
9.0
 12
0.0
 22
0.0
 32
0.0
 14
0.0
 24
0.0
 34
0.0
 15
0.0
 25
0.0
 35
0.0
146
0.0
 13
0.0
 23
0.0
 33
0.0
 16
1.0
 26
0.0
 36
0.0
 17
0.0
 27
1.0
 37
0.0
 76
     0
330
23
  0
MATERIAL
  5
E47F
102
{ACAD_XDICTIONARY
360
E4E8
102
}
102
{ACAD_REACTORS
330
D88
102
}
330
D88
100
AcDbMaterial
  1
ByBlock
  0
MATERIAL
  5
E47E
102
{ACAD_XDICTIONARY
360
E4E6
102
}
102
{ACAD_REACTORS
330
D88
102
}
330
D88
100
AcDbMaterial
  1
ByLayer
  0
MATERIAL
  5
E480
102
{ACAD_XDICTIONARY
360
E4EA
102
}
102
{ACAD_REACTORS
330
D88
102
}
330
D88
100
AcDbMaterial
  1
Global
  0
MLINESTYLE
  5
18
102
{ACAD_REACTORS
330
17
102
}
330
17
100
AcDbMlineStyle
  2
STANDARD
 70
     0
  3

 62
   256
 51
90.0
 52
90.0
 71
     2
 49
0.5
 62
   256
  6
BYLAYER
 49
-0.5
 62
   256
  6
BYLAYER
  0
ACDBPLACEHOLDER
  5
F
102
{ACAD_REACTORS
330
E
102
}
330
E
  0
TABLESTYLE
  5
D8B
102
{ACAD_XDICTIONARY
360
E4E2
102
}
102
{ACAD_REACTORS
330
D8A
102
}
330
D8A
100
AcDbTableStyle
  3
Standard
 70
     0
 71
     0
 40
1.5
 41
1.5
280
     0
281
     0
  7
Standard
140
4.5
170
     2
 62
     0
 63
     7
283
     0
274
    -2
284
     1
 64
     0
275
    -2
285
     1
 65
     0
276
    -2
286
     1
 66
     0
277
    -2
287
     1
 67
     0
278
    -2
288
     1
 68
     0
279
    -2
289
     1
 69
     0
  7
Standard
140
6.0
170
     5
 62
     0
 63
     7
283
     0
274
    -2
284
     1
 64
     0
275
    -2
285
     1
 65
     0
276
    -2
286
     1
 66
     0
277
    -2
287
     1
 67
     0
278
    -2
288
     1
 68
     0
279
    -2
289
     1
 69
     0
  7
Standard
140
4.5
170
     5
 62
     0
 63
     7
283
     0
274
    -2
284
     1
 64
     0
275
    -2
285
     1
 65
     0
276
    -2
286
     1
 66
     0
277
    -2
287
     1
 67
     0
278
    -2
288
     1
 68
     0
279
    -2
289
     1
 69
     0
  0
VISUALSTYLE
  5
E487
102
{ACAD_REACTORS
330
E481
102
}
330
E481
100
AcDbVisualStyle
  2
2dWireframe
 70
     4
 71
     0
 72
     2
 73
     0
 90
        0
 40
-0.6
 41
-30.0
 62
     5
 63
     7
 74
     1
 91
        4
 64
     7
 65
   257
 75
     1
175
     1
 42
1.0
 92
        0
 66
   257
 43
1.0
 76
     1
 77
     6
 78
     2
 67
     7
 79
     5
170
     0
171
     0
290
     0
174
     0
 93
        1
 44
0.0
173
     0
291
     0
 45
0.0
1001
ACAD
1000
AcDbSavedByObjectVersion
1070
     0
  0
VISUALSTYLE
  5
E489
102
{ACAD_REACTORS
330
E481
102
}
330
E481
100
AcDbVisualStyle
  2
3D Hidden
 70
     6
 71
     1
 72
     2
 73
     2
 90
        0
 40
-0.6
 41
-30.0
 62
     5
 63
     7
 74
     2
 91
        2
 64
     7
 65
   257
 75
     2
175
     1
 42
40.0
 92
        0
 66
   257
 43
1.0
 76
     1
 77
     6
 78
     2
 67
     7
 79
     3
170
     0
171
     0
290
     0
174
     0
 93
        1
 44
0.0
173
     0
291
     0
 45
0.0
1001
ACAD
1000
AcDbSavedByObjectVersion
1070
     0
  0
VISUALSTYLE
  5
E488
102
{ACAD_REACTORS
330
E481
102
}
330
E481
100
AcDbVisualStyle
  2
3dWireframe
 70
     5
 71
     0
 72
     2
 73
     0
 90
        0
 40
-0.6
 41
-30.0
 62
     5
 63
     7
 74
     1
 91
        4
 64
     7
 65
   257
 75
     1
175
     1
 42
1.0
 92
        0
 66
   257
 43
1.0
 76
     1
 77
     6
 78
     2
 67
     7
 79
     5
170
     0
171
     0
290
     0
174
     0
 93
        1
 44
0.0
173
     0
291
     0
 45
0.0
1001
ACAD
1000
AcDbSavedByObjectVersion
1070
     0
  0
VISUALSTYLE
  5
E486
102
{ACAD_REACTORS
330
E481
102
}
330
E481
100
AcDbVisualStyle
  2
Basic
 70
     7
 71
     1
 72
     0
 73
     1
 90
        0
 40
-0.6
 41
-30.0
 62
     5
 63
     7
 74
     0
 91
        4
 64
     7
 65
   257
 75
     1
175
     1
 42
1.0
 92
        8
 66
     7
 43
1.0
 76
     1
 77
     6
 78
     2
 67
     7
 79
     5
170
     0
171
     0
290
     0
174
     0
 93
        1
 44
0.0
173
     0
291
     1
 45
0.0
1001
ACAD
1000
AcDbSavedByObjectVersion
1070
     0
  0
VISUALSTYLE
  5
E48D
102
{ACAD_REACTORS
330
E481
102
}
330
E481
100
AcDbVisualStyle
  2
Brighten
 70
    12
 71
     2
 72
     2
 73
     0
 90
        0
 40
-0.6
 41
-30.0
 62
     5
 63
     7
 74
     1
 91
        4
 64
     7
 65
   257
 75
     1
175
     1
 42
1.0
 92
        8
 66
     7
 43
1.0
 76
     1
 77
     6
 78
     2
 67
     7
 79
     5
170
     0
171
     0
290
     0
174
     0
 93
        1
 44
50.0
173
     0
291
     1
 45
0.0
1001
ACAD
1000
AcDbSavedByObjectVersion
1070
     0
  0
VISUALSTYLE
  5
E491
102
{ACAD_REACTORS
330
E481
102
}
330
E481
100
AcDbVisualStyle
  2
ColorChange
 70
    16
 71
     2
 72
     2
 73
     3
 90
        0
 40
-0.6
 41
-30.0
 62
     5
 63
     8
 74
     1
 91
        4
 64
     7
 65
   257
 75
     1
175
     1
 42
1.0
 92
        8
 66
     8
 43
1.0
 76
     1
 77
     6
 78
     2
 67
     7
 79
     5
170
     0
171
     0
290
     0
174
     0
 93
        1
 44
0.0
173
     0
291
     1
 45
0.0
1001
ACAD
1000
AcDbSavedByObjectVersion
1070
     0
  0
VISUALSTYLE
  5
E48A
102
{ACAD_REACTORS
330
E481
102
}
330
E481
100
AcDbVisualStyle
  2
Conceptual
 70
     9
 71
     3
 72
     2
 73
     0
 90
        0
 40
-0.6
 41
-30.0
 62
     5
 63
     7
 74
     2
 91
        2
 64
     7
 65
   257
 75
     1
175
     1
 42
40.0
 92
        8
 66
     7
 43
1.0
 76
     1
 77
     6
 78
     2
 67
     7
 79
     3
170
     0
171
     0
290
     0
174
     0
 93
        1
 44
0.0
173
     0
291
     0
 45
0.0
1001
ACAD
1000
AcDbSavedByObjectVersion
1070
     0
  0
VISUALSTYLE
  5
E48C
102
{ACAD_REACTORS
330
E481
102
}
330
E481
100
AcDbVisualStyle
  2
Dim
 70
    11
 71
     2
 72
     2
 73
     0
 90
        0
 40
-0.6
 41
-30.0
 62
     5
 63
     7
 74
     1
 91
        4
 64
     7
 65
   257
 75
     1
175
     1
 42
1.0
 92
        8
 66
     7
 43
1.0
 76
     1
 77
     6
 78
     2
 67
     7
 79
     5
170
     0
171
     0
290
     0
174
     0
 93
        1
 44
-50.0
173
     0
291
     1
 45
0.0
1001
ACAD
1000
AcDbSavedByObjectVersion
1070
     0
  0
VISUALSTYLE
  5
E490
102
{ACAD_REACTORS
330
E481
102
}
330
E481
100
AcDbVisualStyle
  2
Facepattern
 70
    15
 71
     2
 72
     2
 73
     0
 90
        0
 40
-0.6
 41
-30.0
 62
     5
 63
     7
 74
     1
 91
        4
 64
     7
 65
   257
 75
     1
175
     1
 42
1.0
 92
        8
 66
     7
 43
1.0
 76
     1
 77
     6
 78
     2
 67
     7
 79
     5
170
     0
171
     0
290
     0
174
     0
 93
        1
 44
0.0
173
     0
291
     1
 45
0.0
1001
ACAD
1000
AcDbSavedByObjectVersion
1070
     0
  0
VISUALSTYLE
  5
E482
102
{ACAD_REACTORS
330
E481
102
}
330
E481
100
AcDbVisualStyle
  2
Flat
 70
     0
 71
     2
 72
     1
 73
     1
 90
        2
 40
-0.6
 41
30.0
 62
     5
 63
     7
 74
     0
 91
        4
 64
     7
 65
   257
 75
     1
175
     1
 42
1.0
 92
        8
 66
     7
 43
1.0
 76
     1
 77
     6
 78
     2
 67
     7
 79
     5
170
     0
171
     0
290
     0
174
     0
 93
       13
 44
0.0
173
     0
291
     1
 45
0.0
1001
ACAD
1000
AcDbSavedByObjectVersion
1070
     0
  0
VISUALSTYLE
  5
E483
102
{ACAD_REACTORS
330
E481
102
}
330
E481
100
AcDbVisualStyle
  2
FlatWithEdges
 70
     1
 71
     2
 72
     1
 73
     1
 90
        2
 40
-0.6
 41
30.0
 62
     5
 63
     7
 74
     1
 91
        4
 64
     7
 65
   257
 75
     1
175
     1
 42
1.0
 92
        0
 66
   257
 43
1.0
 76
     1
 77
     6
 78
     2
 67
     7
 79
     5
170
     0
171
     0
290
     0
174
     0
 93
       13
 44
0.0
173
     0
291
     1
 45
0.0
1001
ACAD
1000
AcDbSavedByObjectVersion
1070
     0
  0
VISUALSTYLE
  5
E484
102
{ACAD_REACTORS
330
E481
102
}
330
E481
100
AcDbVisualStyle
  2
Gouraud
 70
     2
 71
     2
 72
     2
 73
     1
 90
        2
 40
-0.6
 41
30.0
 62
     5
 63
     7
 74
     0
 91
        4
 64
     7
 65
   257
 75
     1
175
     1
 42
1.0
 92
        0
 66
     7
 43
1.0
 76
     1
 77
     6
 78
     2
 67
     7
 79
     5
170
     0
171
     0
290
     0
174
     0
 93
       13
 44
0.0
173
     0
291
     1
 45
0.0
1001
ACAD
1000
AcDbSavedByObjectVersion
1070
     0
  0
VISUALSTYLE
  5
E485
102
{ACAD_REACTORS
330
E481
102
}
330
E481
100
AcDbVisualStyle
  2
GouraudWithEdges
 70
     3
 71
     2
 72
     2
 73
     1
 90
        2
 40
-0.6
 41
30.0
 62
     5
 63
     7
 74
     1
 91
        4
 64
     7
 65
   257
 75
     1
175
     1
 42
1.0
 92
        0
 66
   257
 43
1.0
 76
     1
 77
     6
 78
     2
 67
     7
 79
     5
170
     0
171
     0
290
     0
174
     0
 93
       13
 44
0.0
173
     0
291
     1
 45
0.0
1001
ACAD
1000
AcDbSavedByObjectVersion
1070
     0
  0
VISUALSTYLE
  5
E48F
102
{ACAD_REACTORS
330
E481
102
}
330
E481
100
AcDbVisualStyle
  2
Linepattern
 70
    14
 71
     2
 72
     2
 73
     0
 90
        0
 40
-0.6
 41
-30.0
 62
     5
 63
     7
 74
     1
 91
        4
 64
     7
 65
   257
 75
     7
175
     7
 42
1.0
 92
        8
 66
     7
 43
1.0
 76
     1
 77
     6
 78
     2
 67
     7
 79
     5
170
     0
171
     0
290
     0
174
     0
 93
        1
 44
0.0
173
     0
291
     1
 45
0.0
1001
ACAD
1000
AcDbSavedByObjectVersion
1070
     0
  0
VISUALSTYLE
  5
E48B
102
{ACAD_REACTORS
330
E481
102
}
330
E481
100
AcDbVisualStyle
  2
Realistic
 70
     8
 71
     2
 72
     2
 73
     0
 90
        0
 40
-0.6
 41
-30.0
 62
     5
 63
     7
 74
     1
 91
        0
 64
     7
 65
   257
 75
     1
175
     1
 42
1.0
 92
        8
 66
     8
 43
1.0
 76
     1
 77
     6
 78
     2
 67
     7
 79
     5
170
     0
171
     0
290
     0
174
     0
 93
       13
 44
0.0
173
     0
291
     0
 45
0.0
1001
ACAD
1000
AcDbSavedByObjectVersion
1070
     0
  0
VISUALSTYLE
  5
E48E
102
{ACAD_REACTORS
330
E481
102
}
330
E481
100
AcDbVisualStyle
  2
Thicken
 70
    13
 71
     2
 72
     2
 73
     0
 90
        0
 40
-0.6
 41
-30.0
 62
     5
 63
     7
 74
     1
 91
        4
 64
     7
 65
   257
 75
     1
175
     1
 42
1.0
 92
       12
 66
     7
 43
1.0
 76
     1
 77
     6
 78
     2
 67
     7
 79
     5
170
     0
171
     0
290
     0
174
     0
 93
        1
 44
0.0
173
     0
291
     1
 45
0.0
1001
ACAD
1000
AcDbSavedByObjectVersion
1070
     0
  0
DICTIONARYVAR
  5
DD2
102
{ACAD_REACTORS
330
7E5
102
}
330
7E5
100
DictionaryVariables
280
     0
  1
STANDARD
  0
DICTIONARYVAR
  5
2256
102
{ACAD_REACTORS
330
7E5
102
}
330
7E5
100
DictionaryVariables
280
     0
  1
1
  0
DICTIONARYVAR
  5
E4DA
102
{ACAD_REACTORS
330
7E5
102
}
330
7E5
100
DictionaryVariables
280
     0
  1
0
  0
DICTIONARYVAR
  5
2257
102
{ACAD_REACTORS
330
7E5
102
}
330
7E5
100
DictionaryVariables
280
     0
  1

  0
DICTIONARYVAR
  5
7E6
102
{ACAD_REACTORS
330
7E5
102
}
330
7E5
100
DictionaryVariables
280
     0
  1
96
  0
DICTIONARY
  5
E4DE
330
22
100
AcDbDictionary
280
     1
281
     1
  3
ACAD_XREC_ROUNDTRIP
360
E4DF
  0
DICTIONARY
  5
E4DC
330
1E
100
AcDbDictionary
280
     1
281
     1
  3
ACAD_XREC_ROUNDTRIP
360
E4DD
  0
DICTIONARY
  5
E4E0
330
26
100
AcDbDictionary
280
     1
281
     1
  3
ACAD_XREC_ROUNDTRIP
360
E4E1
  0
DICTIONARY
  5
E4E8
330
E47F
100
AcDbDictionary
280
     1
281
     1
  3
ACAD_XREC_ROUNDTRIP
360
E4E9
  0
DICTIONARY
  5
E4E6
330
E47E
100
AcDbDictionary
280
     1
281
     1
  3
ACAD_XREC_ROUNDTRIP
360
E4E7
  0
DICTIONARY
  5
E4EA
330
E480
100
AcDbDictionary
280
     1
281
     1
  3
ACAD_XREC_ROUNDTRIP
360
E4EB
  0
DICTIONARY
  5
E4E2
330
D8B
100
AcDbDictionary
280
     1
281
     1
  3
ACAD_XREC_ROUNDTRIP
360
E4E3
  0
XRECORD
  5
E4DF
102
{ACAD_REACTORS
330
E4DE
102
}
330
E4DE
100
AcDbXrecord
280
     1
102
SHADEPLOT
 70
     0
102
SHADEPLOTRESLEVEL
 70
     2
102
SHADEPLOTCUSTOMDPI
 70
   300
  0
XRECORD
  5
E4DD
102
{ACAD_REACTORS
330
E4DC
102
}
330
E4DC
100
AcDbXrecord
280
     1
102
SHADEPLOT
 70
     0
102
SHADEPLOTRESLEVEL
 70
     2
102
SHADEPLOTCUSTOMDPI
 70
   300
  0
XRECORD
  5
E4E1
102
{ACAD_REACTORS
330
E4E0
102
}
330
E4E0
100
AcDbXrecord
280
     1
102
SHADEPLOT
 70
     0
102
SHADEPLOTRESLEVEL
 70
     2
102
SHADEPLOTCUSTOMDPI
 70
   300
  0
XRECORD
  5
E4E9
102
{ACAD_REACTORS
330
E4E8
102
}
330
E4E8
100
AcDbXrecord
280
     1
102
MATERIAL
148
0.0
149
0.0
149
0.0
 93
        0
 94
       63
282
     0
 72
     1
 77
     1
171
     1
175
     1
179
     1
273
     0
  0
XRECORD
  5
E4E7
102
{ACAD_REACTORS
330
E4E6
102
}
330
E4E6
100
AcDbXrecord
280
     1
102
MATERIAL
148
0.0
149
0.0
149
0.0
 93
        0
 94
       63
282
     0
 72
     1
 77
     1
171
     1
175
     1
179
     1
273
     0
  0
XRECORD
  5
E4EB
102
{ACAD_REACTORS
330
E4EA
102
}
330
E4EA
100
AcDbXrecord
280
     1
102
MATERIAL
148
0.0
149
0.0
149
0.0
 93
        0
 94
       63
282
     0
 72
     1
 77
     1
171
     1
175
     1
179
     1
273
     0
  0
XRECORD
  5
E4E3
102
{ACAD_REACTORS
330
E4E2
102
}
330
E4E2
100
AcDbXrecord
280
     1
102
ACAD_ROUNDTRIP_PRE2007_TABLESTYLE
 90
        4
 91
        0
  1

 92
        4
 93
        0
  2

 94
        4
 95
        0
  3

  0
ENDSEC
  0
EOF
