  0
SECTION
  2
HEADER
  9
$ACADVER
  1
AC1015
  9
$ACADMAINTVER
 70
    20
  9
$DWGCODEPAGE
  3
ANSI_932
  9
$INSBASE
 10
0.0
 20
0.0
 30
0.0
  9
$EXTMIN
 10
120.7141134244323
 20
82.82428126459036
 30
-0.0015258207003583
  9
$EXTMAX
 10
445.5706802075387
 20
550.648225209499
 30
0.6011963246869883
  9
$LIMMIN
 10
0.0
 20
0.0
  9
$LIMMAX
 10
840.0
 20
594.0
  9
$ORTHOMODE
 70
     0
  9
$REGENMODE
 70
     1
  9
$FILLMODE
 70
     1
  9
$QTEXTMODE
 70
     0
  9
$MIRRTEXT
 70
     0
  9
$LTSCALE
 40
1.0
  9
$ATTMODE
 70
     1
  9
$TEXTSIZE
 40
0.2
  9
$TRACEWID
 40
0.05
  9
$TEXTSTYLE
  7
STANDARD
  9
$CLAYER
  8
0
  9
$CELTYPE
  6
CONTINUOUS
  9
$CECOLOR
 62
   256
  9
$CELTSCALE
 40
1.0
  9
$DISPSILH
 70
     0
  9
$DIMSCALE
 40
1.0
  9
$DIMASZ
 40
0.18
  9
$DIMEXO
 40
0.0625
  9
$DIMDLI
 40
0.38
  9
$DIMRND
 40
0.0
  9
$DIMDLE
 40
0.0
  9
$DIMEXE
 40
0.18
  9
$DIMTP
 40
0.0
  9
$DIMTM
 40
0.0
  9
$DIMTXT
 40
0.18
  9
$DIMCEN
 40
0.09
  9
$DIMTSZ
 40
0.0
  9
$DIMTOL
 70
     0
  9
$DIMLIM
 70
     0
  9
$DIMTIH
 70
     1
  9
$DIMTOH
 70
     1
  9
$DIMSE1
 70
     0
  9
$DIMSE2
 70
     0
  9
$DIMTAD
 70
     0
  9
$DIMZIN
 70
     0
  9
$DIMBLK
  1

  9
$DIMASO
 70
     1
  9
$DIMSHO
 70
     1
  9
$DIMPOST
  1

  9
$DIMAPOST
  1

  9
$DIMALT
 70
     0
  9
$DIMALTD
 70
     2
  9
$DIMALTF
 40
25.4
  9
$DIMLFAC
 40
1.0
  9
$DIMTOFL
 70
     0
  9
$DIMTVP
 40
0.0
  9
$DIMTIX
 70
     0
  9
$DIMSOXD
 70
     0
  9
$DIMSAH
 70
     0
  9
$DIMBLK1
  1

  9
$DIMBLK2
  1

  9
$DIMSTYLE
  2
Standard
  9
$DIMCLRD
 70
     0
  9
$DIMCLRE
 70
     0
  9
$DIMCLRT
 70
     0
  9
$DIMTFAC
 40
1.0
  9
$DIMGAP
 40
0.09
  9
$DIMJUST
 70
     0
  9
$DIMSD1
 70
     0
  9
$DIMSD2
 70
     0
  9
$DIMTOLJ
 70
     1
  9
$DIMTZIN
 70
     0
  9
$DIMALTZ
 70
     0
  9
$DIMALTTZ
 70
     0
  9
$DIMUPT
 70
     0
  9
$DIMDEC
 70
     4
  9
$DIMTDEC
 70
     4
  9
$DIMALTU
 70
     2
  9
$DIMALTTD
 70
     2
  9
$DIMTXSTY
  7
STANDARD
  9
$DIMAUNIT
 70
     0
  9
$DIMADEC
 70
     0
  9
$DIMALTRND
 40
0.0
  9
$DIMAZIN
 70
     0
  9
$DIMDSEP
 70
    46
  9
$DIMATFIT
 70
     3
  9
$DIMFRAC
 70
     0
  9
$DIMLDRBLK
  1

  9
$DIMLUNIT
 70
     2
  9
$DIMLWD
 70
    -2
  9
$DIMLWE
 70
    -2
  9
$DIMTMOVE
 70
     0
  9
$LUNITS
 70
     2
  9
$LUPREC
 70
     4
  9
$SKETCHINC
 40
0.1
  9
$FILLETRAD
 40
0.0
  9
$AUNITS
 70
     0
  9
$AUPREC
 70
     0
  9
$MENU
  1
.
  9
$ELEVATION
 40
0.0
  9
$PELEVATION
 40
0.0
  9
$THICKNESS
 40
0.0
  9
$LIMCHECK
 70
     0
  9
$CHAMFERA
 40
0.0
  9
$CHAMFERB
 40
0.0
  9
$CHAMFERC
 40
0.0
  9
$CHAMFERD
 40
0.0
  9
$SKPOLY
 70
     0
  9
$TDCREATE
 40
2454284.653066400
  9
$TDUCREATE
 40
2454284.278066400
  9
$TDUPDATE
 40
2454284.654080220
  9
$TDUUPDATE
 40
2454284.279080220
  9
$TDINDWG
 40
0.0010139931
  9
$TDUSRTIMER
 40
0.0010139931
  9
$USRTIMER
 70
     1
  9
$ANGBASE
 50
0.0
  9
$ANGDIR
 70
     0
  9
$PDMODE
 70
     0
  9
$PDSIZE
 40
0.0
  9
$PLINEWID
 40
0.0
  9
$SPLFRAME
 70
     0
  9
$SPLINETYPE
 70
     6
  9
$SPLINESEGS
 70
     8
  9
$HANDSEED
  5
77B
  9
$SURFTAB1
 70
     6
  9
$SURFTAB2
 70
     6
  9
$SURFTYPE
 70
     6
  9
$SURFU
 70
     6
  9
$SURFV
 70
     6
  9
$UCSBASE
  2

  9
$UCSNAME
  2

  9
$UCSORG
 10
0.0
 20
0.0
 30
0.0
  9
$UCSXDIR
 10
1.0
 20
0.0
 30
0.0
  9
$UCSYDIR
 10
0.0
 20
1.0
 30
0.0
  9
$UCSORTHOREF
  2

  9
$UCSORTHOVIEW
 70
     0
  9
$UCSORGTOP
 10
0.0
 20
0.0
 30
0.0
  9
$UCSORGBOTTOM
 10
0.0
 20
0.0
 30
0.0
  9
$UCSORGLEFT
 10
0.0
 20
0.0
 30
0.0
  9
$UCSORGRIGHT
 10
0.0
 20
0.0
 30
0.0
  9
$UCSORGFRONT
 10
0.0
 20
0.0
 30
0.0
  9
$UCSORGBACK
 10
0.0
 20
0.0
 30
0.0
  9
$PUCSBASE
  2

  9
$PUCSNAME
  2

  9
$PUCSORG
 10
0.0
 20
0.0
 30
0.0
  9
$PUCSXDIR
 10
1.0
 20
0.0
 30
0.0
  9
$PUCSYDIR
 10
0.0
 20
1.0
 30
0.0
  9
$PUCSORTHOREF
  2

  9
$PUCSORTHOVIEW
 70
     0
  9
$PUCSORGTOP
 10
0.0
 20
0.0
 30
0.0
  9
$PUCSORGBOTTOM
 10
0.0
 20
0.0
 30
0.0
  9
$PUCSORGLEFT
 10
0.0
 20
0.0
 30
0.0
  9
$PUCSORGRIGHT
 10
0.0
 20
0.0
 30
0.0
  9
$PUCSORGFRONT
 10
0.0
 20
0.0
 30
0.0
  9
$PUCSORGBACK
 10
0.0
 20
0.0
 30
0.0
  9
$USERI1
 70
     0
  9
$USERI2
 70
     0
  9
$USERI3
 70
     0
  9
$USERI4
 70
     0
  9
$USERI5
 70
     0
  9
$USERR1
 40
0.0
  9
$USERR2
 40
0.0
  9
$USERR3
 40
0.0
  9
$USERR4
 40
0.0
  9
$USERR5
 40
0.0
  9
$WORLDVIEW
 70
     1
  9
$SHADEDGE
 70
     3
  9
$SHADEDIF
 70
    70
  9
$TILEMODE
 70
     1
  9
$MAXACTVP
 70
    64
  9
$PINSBASE
 10
0.0
 20
0.0
 30
0.0
  9
$PLIMCHECK
 70
     0
  9
$PEXTMIN
 10
1.000000000000000E+20
 20
1.000000000000000E+20
 30
1.000000000000000E+20
  9
$PEXTMAX
 10
-1.000000000000000E+20
 20
-1.000000000000000E+20
 30
-1.000000000000000E+20
  9
$PLIMMIN
 10
0.0
 20
0.0
  9
$PLIMMAX
 10
12.0
 20
9.0
  9
$UNITMODE
 70
     0
  9
$VISRETAIN
 70
     1
  9
$PLINEGEN
 70
     0
  9
$PSLTSCALE
 70
     1
  9
$TREEDEPTH
 70
  3020
  9
$CMLSTYLE
  2
Standard
  9
$CMLJUST
 70
     0
  9
$CMLSCALE
 40
1.0
  9
$PROXYGRAPHICS
 70
     1
  9
$MEASUREMENT
 70
     0
  9
$CELWEIGHT
370
    -1
  9
$ENDCAPS
280
     0
  9
$JOINSTYLE
280
     0
  9
$LWDISPLAY
290
     0
  9
$INSUNITS
 70
     0
  9
$HYPERLINKBASE
  1

  9
$STYLESHEET
  1

  9
$XEDIT
290
     1
  9
$CEPSNTYPE
380
     0
  9
$PSTYLEMODE
290
     1
  9
$FINGERPRINTGUID
  2
{FEF9B559-5E20-47E0-A7E3-0B1335B46E93}
  9
$VERSIONGUID
  2
{0E7F83FB-A6FC-4B4C-A189-768AC419084F}
  9
$EXTNAMES
290
     1
  9
$PSVPSCALE
 40
0.0
  9
$OLESTARTUP
290
     0
  0
ENDSEC
  0
SECTION
  2
CLASSES
  0
CLASS
  1
ACDBDICTIONARYWDFLT
  2
AcDbDictionaryWithDefault
  3
ObjectDBX Classes
 90
        0
280
     0
281
     0
  0
CLASS
  1
DICTIONARYVAR
  2
AcDbDictionaryVar
  3
ObjectDBX Classes
 90
        0
280
     0
281
     0
  0
CLASS
  1
ACDBPLACEHOLDER
  2
AcDbPlaceHolder
  3
ObjectDBX Classes
 90
        0
280
     0
281
     0
  0
CLASS
  1
LAYOUT
  2
AcDbLayout
  3
ObjectDBX Classes
 90
        0
280
     0
281
     0
  0
ENDSEC
  0
SECTION
  2
TABLES
  0
TABLE
  2
VPORT
  5
8
330
0
100
AcDbSymbolTable
 70
     2
  0
VPORT
  5
773
330
8
100
AcDbSymbolTableRecord
100
AcDbViewportTableRecord
  2
*Active
 70
     0
 10
0.0
 20
0.0
 11
1.0
 21
1.0
 12
420.0000000000001
 22
296.9999999999999
 13
0.0
 23
0.0
 14
1.0
 24
1.0
 15
0.0
 25
0.0
 16
0.0
 26
0.0
 36
1.0
 17
0.0
 27
0.0
 37
0.0
 40
600.7718338441491
 41
1.736842105263157
 42
50.0
 43
0.0
 44
0.0
 50
0.0
 51
0.0
 71
     0
 72
   100
 73
     1
 74
     1
 75
     0
 76
     0
 77
     0
 78
     0
281
     0
 65
     1
110
0.0
120
0.0
130
0.0
111
1.0
121
0.0
131
0.0
112
0.0
122
1.0
132
0.0
 79
     0
146
0.0
  0
ENDTAB
  0
TABLE
  2
LTYPE
  5
5
330
0
100
AcDbSymbolTable
 70
     2
  0
LTYPE
  5
13
330
5
100
AcDbSymbolTableRecord
100
AcDbLinetypeTableRecord
  2
ByBlock
 70
     0
  3

 72
    65
 73
     0
 40
0.0
  0
LTYPE
  5
14
330
5
100
AcDbSymbolTableRecord
100
AcDbLinetypeTableRecord
  2
ByLayer
 70
     0
  3

 72
    65
 73
     0
 40
0.0
  0
LTYPE
  5
15
330
5
100
AcDbSymbolTableRecord
100
AcDbLinetypeTableRecord
  2
CONTINUOUS
 70
     0
  3
Solid line
 72
    65
 73
     0
 40
0.0
  0
LTYPE
  5
24
330
5
100
AcDbSymbolTableRecord
100
AcDbLinetypeTableRecord
  2
LTYPE1
 70
     0
  3
CENTER
 72
    65
 73
     4
 40
30.0
 49
21.0
 74
     0
 49
-3.0
 74
     0
 49
3.0
 74
     0
 49
-3.0
 74
     0
  0
ENDTAB
  0
TABLE
  2
LAYER
  5
2
330
0
100
AcDbSymbolTable
 70
   128
  0
LAYER
  5
10
330
2
100
AcDbSymbolTableRecord
100
AcDbLayerTableRecord
  2
0
 70
     0
 62
     7
  6
CONTINUOUS
370
    -3
390
F
  0
LAYER
  5
25
330
2
100
AcDbSymbolTableRecord
100
AcDbLayerTableRecord
  2
2
 70
     0
 62
     7
  6
CONTINUOUS
370
    -3
390
F
  0
ENDTAB
  0
TABLE
  2
STYLE
  5
3
330
0
100
AcDbSymbolTable
 70
     2
  0
STYLE
  5
11
330
3
100
AcDbSymbolTableRecord
100
AcDbTextStyleTableRecord
  2
STANDARD
 70
     0
 40
0.0
 41
1.0
 50
0.0
 71
     0
 42
0.2
  3
txt
  4

  0
STYLE
  5
A4
330
3
100
AcDbSymbolTableRecord
100
AcDbTextStyleTableRecord
  2
KANJI0
 70
     0
 40
10.0
 41
1.0
 50
0.0
 71
     0
 42
10.0
  3

  4
bigfont
  0
ENDTAB
  0
TABLE
  2
VIEW
  5
6
330
0
100
AcDbSymbolTable
 70
     0
  0
ENDTAB
  0
TABLE
  2
UCS
  5
7
330
0
100
AcDbSymbolTable
 70
     0
  0
ENDTAB
  0
TABLE
  2
APPID
  5
9
330
0
100
AcDbSymbolTable
 70
     1
  0
APPID
  5
12
330
9
100
AcDbSymbolTableRecord
100
AcDbRegAppTableRecord
  2
ACAD
 70
     0
  0
ENDTAB
  0
TABLE
  2
DIMSTYLE
  5
A
330
0
100
AcDbSymbolTable
 70
     1
100
AcDbDimStyleTable
 71
     0
  0
DIMSTYLE
105
76E
330
A
100
AcDbSymbolTableRecord
100
AcDbDimStyleTableRecord
  2
Standard
 70
     0
340
11
  0
ENDTAB
  0
TABLE
  2
BLOCK_RECORD
  5
1
330
0
100
AcDbSymbolTable
 70
     0
  0
BLOCK_RECORD
  5
20
330
1
100
AcDbSymbolTableRecord
100
AcDbBlockTableRecord
  2
*Model_Space
340
23
  0
BLOCK_RECORD
  5
1C
330
1
100
AcDbSymbolTableRecord
100
AcDbBlockTableRecord
  2
*Paper_Space
340
1F
  0
ENDTAB
  0
ENDSEC
  0
SECTION
  2
BLOCKS
  0
BLOCK
  5
21
330
20
100
AcDbEntity
  8
0
100
AcDbBlockBegin
  2
*Model_Space
 70
     0
 10
0.0
 20
0.0
 30
0.0
  3
*Model_Space
  1

  0
ENDBLK
  5
22
330
20
100
AcDbEntity
  8
0
100
AcDbBlockEnd
  0
BLOCK
  5
1D
330
1C
100
AcDbEntity
 67
     1
  8
0
100
AcDbBlockBegin
  2
*Paper_Space
 70
     0
 10
0.0
 20
0.0
 30
0.0
  3
*Paper_Space
  1

  0
ENDBLK
  5
1E
330
1C
100
AcDbEntity
 67
     1
  8
0
100
AcDbBlockEnd
  0
ENDSEC
  0
SECTION
  2
ENTITIES
  0
LINE
  5
A8
330
20
100
AcDbEntity
  8
0
  6
Continuous
 62
     3
100
AcDbLine
 10
277.339
 20
126.936
 30
0.0
 11
309.339
 21
126.936
 31
0.0
  0
LWPOLYLINE
  5
A9
330
20
100
AcDbEntity
  8
0
  6
Continuous
 62
     3
100
AcDbPolyline
 90
        4
 70
     0
 43
0.0
 10
309.339
 20
126.936
 10
309.339
 20
86.93600000000001
 10
277.339
 20
86.93600000000001
 10
277.339
 20
126.936
  0
LINE
  5
AF
330
20
100
AcDbEntity
  8
0
  6
Continuous
 62
     3
100
AcDbLine
 10
281.239
 20
126.936
 30
0.0
 11
281.239
 21
118.936
 31
0.0
  0
LWPOLYLINE
  5
B0
330
20
100
AcDbEntity
  8
0
  6
Continuous
 62
     3
100
AcDbPolyline
 90
        3
 70
     0
 43
0.0
 10
281.239
 20
118.936
 10
305.439
 20
118.936
 10
305.439
 20
126.936
  0
LINE
  5
B5
330
20
100
AcDbEntity
  8
0
  6
Continuous
 62
     3
100
AcDbLine
 10
287.7390000000001
 20
118.936
 30
0.0
 11
287.7390000000001
 21
108.936
 31
0.0
  0
LWPOLYLINE
  5
B6
330
20
100
AcDbEntity
  8
0
  6
Continuous
 62
     3
100
AcDbPolyline
 90
        3
 70
     0
 43
0.0
 10
287.7390000000001
 20
108.936
 10
298.939
 20
108.936
 10
298.939
 20
118.936
  0
LINE
  5
BB
330
20
100
AcDbEntity
  8
0
  6
Continuous
 62
     3
100
AcDbLine
 10
290.339
 20
108.936
 30
0.0
 11
290.339
 21
98.93600000000001
 31
0.0
  0
LWPOLYLINE
  5
BC
330
20
100
AcDbEntity
  8
0
  6
Continuous
 62
     3
100
AcDbPolyline
 90
        3
 70
     0
 43
0.0
 10
290.339
 20
98.93600000000001
 10
296.339
 20
98.93600000000001
 10
296.339
 20
108.936
  0
LINE
  5
C1
330
20
100
AcDbEntity
  8
0
  6
Continuous
 62
     3
100
AcDbLine
 10
290.339
 20
98.93600000000001
 30
0.0
 11
293.339
 21
96.93600000000001
 31
0.0
  0
LINE
  5
C2
330
20
100
AcDbEntity
  8
0
  6
Continuous
 62
     3
100
AcDbLine
 10
293.339
 20
96.93600000000001
 30
0.0
 11
296.339
 21
98.93600000000001
 31
0.0
  0
LINE
  5
C3
330
20
100
AcDbEntity
  8
0
  6
Continuous
 62
     3
100
AcDbLine
 10
300.339
 20
97.63725
 30
0.0
 11
300.339
 21
110.23475
 31
0.0
  0
LINE
  5
C4
330
20
100
AcDbEntity
  8
0
  6
Continuous
 62
     3
100
AcDbLine
 10
309.339
 20
98.236
 30
0.0
 11
300.339
 21
98.51725000000001
 31
0.0
  0
LINE
  5
C5
330
20
100
AcDbEntity
  8
0
  6
Continuous
 62
     3
100
AcDbLine
 10
309.339
 20
109.636
 30
0.0
 11
300.339
 21
109.35475
 31
0.0
  0
LINE
  5
C6
330
20
100
AcDbEntity
  8
0
  6
Continuous
 62
     3
100
AcDbLine
 10
296.339
 20
100.936
 30
0.0
 11
300.339
 21
100.936
 31
0.0
  0
LINE
  5
C7
330
20
100
AcDbEntity
  8
0
  6
Continuous
 62
     3
100
AcDbLine
 10
296.339
 20
106.936
 30
0.0
 11
300.339
 21
106.936
 31
0.0
  0
LWPOLYLINE
  5
C8
330
20
100
AcDbEntity
  8
0
  6
Continuous
 62
     3
100
AcDbPolyline
 90
        3
 70
     0
 43
0.0
 10
285.339
 20
106.036
 10
286.539
 20
103.936
 10
285.339
 20
101.836
  0
LINE
  5
CD
330
20
100
AcDbEntity
  8
0
  6
Continuous
 62
     3
100
AcDbLine
 10
285.339
 20
106.436
 30
0.0
 11
285.339
 21
101.436
 31
0.0
  0
LINE
  5
CE
330
20
100
AcDbEntity
  8
0
  6
Continuous
 62
     3
100
AcDbLine
 10
285.339
 20
101.836
 30
0.0
 11
278.139
 21
101.836
 31
0.0
  0
LINE
  5
CF
330
20
100
AcDbEntity
  8
0
  6
Continuous
 62
     3
100
AcDbLine
 10
285.339
 20
106.036
 30
0.0
 11
278.139
 21
106.036
 31
0.0
  0
LINE
  5
D0
330
20
100
AcDbEntity
  8
0
  6
Continuous
 62
     3
100
AcDbLine
 10
277.339
 20
370.936
 30
0.0
 11
309.339
 21
370.936
 31
0.0
  0
LWPOLYLINE
  5
D1
330
20
100
AcDbEntity
  8
0
  6
Continuous
 62
     3
100
AcDbPolyline
 90
        4
 70
     0
 43
0.0
 10
309.339
 20
370.936
 10
309.339
 20
330.936
 10
277.339
 20
330.936
 10
277.339
 20
370.936
  0
LINE
  5
D7
330
20
100
AcDbEntity
  8
0
  6
Continuous
 62
     3
100
AcDbLine
 10
281.239
 20
330.936
 30
0.0
 11
281.239
 21
338.936
 31
0.0
  0
LWPOLYLINE
  5
D8
330
20
100
AcDbEntity
  8
0
  6
Continuous
 62
     3
100
AcDbPolyline
 90
        4
 70
     0
 43
0.0
 10
287.7390000000001
 20
338.936
 10
287.7390000000001
 20
348.936
 10
298.939
 20
348.936
 10
298.939
 20
338.936
  0
LINE
  5
DE
330
20
100
AcDbEntity
  8
0
  6
Continuous
 62
     3
100
AcDbLine
 10
305.439
 20
338.936
 30
0.0
 11
305.439
 21
330.936
 31
0.0
  0
LINE
  5
DF
330
20
100
AcDbEntity
  8
0
  6
Continuous
 62
     3
100
AcDbLine
 10
291.089
 20
348.936
 30
0.0
 11
291.089
 21
349.686
 31
0.0
  0
LINE
  5
E0
330
20
100
AcDbEntity
  8
0
  6
Continuous
 62
     3
100
AcDbLine
 10
295.589
 20
348.936
 30
0.0
 11
295.589
 21
349.686
 31
0.0
  0
LINE
  5
E1
330
20
100
AcDbEntity
  8
0
  6
Continuous
 62
     3
100
AcDbLine
 10
296.839
 20
358.186
 30
0.0
 11
285.339
 21
358.186
 31
0.0
  0
LINE
  5
E2
330
20
100
AcDbEntity
  8
0
  6
Continuous
 62
     3
100
AcDbLine
 10
296.839
 20
351.686
 30
0.0
 11
300.339
 21
351.686
 31
0.0
  0
LINE
  5
E3
330
20
100
AcDbEntity
  8
0
  6
Continuous
 62
     3
100
AcDbLine
 10
296.839
 20
356.186
 30
0.0
 11
300.339
 21
356.186
 31
0.0
  0
LINE
  5
E4
330
20
100
AcDbEntity
  8
0
  6
Continuous
 62
     3
100
AcDbLine
 10
300.339
 20
347.63725
 30
0.0
 11
300.339
 21
360.23475
 31
0.0
  0
LINE
  5
E5
330
20
100
AcDbEntity
  8
0
  6
Continuous
 62
     3
100
AcDbLine
 10
309.339
 20
348.236
 30
0.0
 11
300.339
 21
348.51725
 31
0.0
  0
LINE
  5
E6
330
20
100
AcDbEntity
  8
0
  6
Continuous
 62
     3
100
AcDbLine
 10
309.339
 20
359.636
 30
0.0
 11
300.339
 21
359.35475
 31
0.0
  0
LINE
  5
E7
330
20
100
AcDbEntity
  8
0
  6
Continuous
 62
     3
100
AcDbLine
 10
285.339
 20
349.686
 30
0.0
 11
296.839
 21
349.686
 31
0.0
  0
LINE
  5
E8
330
20
100
AcDbEntity
  8
0
  6
Continuous
 62
     3
100
AcDbLine
 10
305.439
 20
338.936
 30
0.0
 11
281.239
 21
338.936
 31
0.0
  0
LINE
  5
E9
330
20
100
AcDbEntity
  8
0
  6
Continuous
 62
     3
100
AcDbLine
 10
277.339
 20
347.936
 30
0.0
 11
281.839
 21
347.936
 31
0.0
  0
LINE
  5
EA
330
20
100
AcDbEntity
  8
0
  6
Continuous
 62
     3
100
AcDbLine
 10
277.339
 20
359.936
 30
0.0
 11
281.839
 21
359.936
 31
0.0
  0
LINE
  5
EB
330
20
100
AcDbEntity
  8
0
  6
Continuous
 62
     3
100
AcDbLine
 10
281.839
 20
346.936
 30
0.0
 11
282.839
 21
346.936
 31
0.0
  0
LINE
  5
EC
330
20
100
AcDbEntity
  8
0
  6
Continuous
 62
     3
100
AcDbLine
 10
281.839
 20
360.936
 30
0.0
 11
282.839
 21
360.936
 31
0.0
  0
LINE
  5
ED
330
20
100
AcDbEntity
  8
0
  6
Continuous
 62
     3
100
AcDbLine
 10
282.839
 20
360.936
 30
0.0
 11
282.839
 21
346.936
 31
0.0
  0
LINE
  5
EE
330
20
100
AcDbEntity
  8
0
  6
Continuous
 62
     3
100
AcDbLine
 10
282.839
 20
348.336
 30
0.0
 11
285.339
 21
348.336
 31
0.0
  0
LWPOLYLINE
  5
EF
330
20
100
AcDbEntity
  8
0
  6
Continuous
 62
     3
100
AcDbPolyline
 90
        3
 70
     0
 43
0.0
 10
282.839
 20
359.536
 10
285.339
 20
359.536
 10
285.339
 20
348.336
  0
LINE
  5
F4
330
20
100
AcDbEntity
  8
0
  6
Continuous
 62
     3
100
AcDbLine
 10
281.839
 20
346.936
 30
0.0
 11
281.839
 21
360.936
 31
0.0
  0
LWPOLYLINE
  5
F5
330
20
100
AcDbEntity
  8
0
  6
Continuous
 62
     3
100
AcDbPolyline
 90
        4
 70
     0
 43
0.0
 10
309.339
 20
370.936
 10
318.339
 20
370.936
 10
318.339
 20
86.93600000000001
 10
309.339
 20
86.93600000000001
  0
LINE
  5
FB
330
20
100
AcDbEntity
  8
0
  6
Continuous
 62
     3
100
AcDbLine
 10
318.339
 20
87.68600000000001
 30
0.0
 11
314.339
 21
87.68600000000001
 31
0.0
  0
LINE
  5
FC
330
20
100
AcDbEntity
  8
0
  6
Continuous
 62
     3
100
AcDbLine
 10
314.339
 20
87.68600000000001
 30
0.0
 11
314.339
 21
96.186
 31
0.0
  0
LINE
  5
FD
330
20
100
AcDbEntity
  8
0
  6
Continuous
 62
     3
100
AcDbLine
 10
318.339
 20
96.186
 30
0.0
 11
314.339
 21
96.186
 31
0.0
  0
LINE
  5
FE
330
20
100
AcDbEntity
  8
0
  6
Continuous
 62
     3
100
AcDbLine
 10
314.339
 20
89.686
 30
0.0
 11
309.339
 21
89.686
 31
0.0
  0
LINE
  5
FF
330
20
100
AcDbEntity
  8
0
  6
Continuous
 62
     3
100
AcDbLine
 10
314.339
 20
94.18600000000001
 30
0.0
 11
309.339
 21
94.18600000000001
 31
0.0
  0
LWPOLYLINE
  5
100
330
20
100
AcDbEntity
  8
0
  6
Continuous
 62
     3
100
AcDbPolyline
 90
        3
 70
     0
 43
0.0
 10
318.339
 20
111.686
 10
314.339
 20
111.686
 10
314.339
 20
120.186
  0
LINE
  5
105
330
20
100
AcDbEntity
  8
0
  6
Continuous
 62
     3
100
AcDbLine
 10
318.339
 20
120.186
 30
0.0
 11
314.339
 21
120.186
 31
0.0
  0
LINE
  5
106
330
20
100
AcDbEntity
  8
0
  6
Continuous
 62
     3
100
AcDbLine
 10
314.339
 20
113.686
 30
0.0
 11
309.339
 21
113.686
 31
0.0
  0
LINE
  5
107
330
20
100
AcDbEntity
  8
0
  6
Continuous
 62
     3
100
AcDbLine
 10
314.339
 20
118.186
 30
0.0
 11
309.339
 21
118.186
 31
0.0
  0
LINE
  5
108
330
20
100
AcDbEntity
  8
0
  6
Continuous
 62
     3
100
AcDbLine
 10
318.339
 20
343.436
 30
0.0
 11
309.339
 21
343.436
 31
0.0
  0
LINE
  5
109
330
20
100
AcDbEntity
  8
0
  6
Continuous
 62
     3
100
AcDbLine
 10
318.339
 20
364.436
 30
0.0
 11
309.339
 21
364.436
 31
0.0
  0
LWPOLYLINE
  5
10A
330
20
100
AcDbEntity
  8
0
  6
Continuous
 62
     3
100
AcDbPolyline
 90
        4
 70
     0
 43
0.0
 10
309.339
 20
128.686
 10
310.839
 20
128.686
 10
310.839
 20
139.186
 10
309.339
 20
139.186
  0
LINE
  5
110
330
20
100
AcDbEntity
  8
0
  6
Continuous
 62
     3
100
AcDbLine
 10
313.339
 20
136.036
 30
0.0
 11
313.339
 21
131.836
 31
0.0
  0
LINE
  5
111
330
20
100
AcDbEntity
  8
0
  6
Continuous
 62
     3
100
AcDbLine
 10
313.339
 20
136.036
 30
0.0
 11
318.339
 21
136.036
 31
0.0
  0
LINE
  5
112
330
20
100
AcDbEntity
  8
0
  6
Continuous
 62
     3
100
AcDbLine
 10
313.339
 20
131.836
 30
0.0
 11
318.339
 21
131.836
 31
0.0
  0
LINE
  5
113
330
20
100
AcDbEntity
  8
0
  6
Continuous
 62
     3
100
AcDbLine
 10
310.839
 20
128.686
 30
0.0
 11
313.339
 21
131.836
 31
0.0
  0
LINE
  5
114
330
20
100
AcDbEntity
  8
0
  6
Continuous
 62
     3
100
AcDbLine
 10
310.839
 20
139.186
 30
0.0
 11
313.339
 21
136.036
 31
0.0
  0
LWPOLYLINE
  5
115
330
20
100
AcDbEntity
  8
0
  6
Continuous
 62
     3
100
AcDbPolyline
 90
        4
 70
     0
 43
0.0
 10
309.339
 20
318.686
 10
310.839
 20
318.686
 10
310.839
 20
329.186
 10
309.339
 20
329.186
  0
LINE
  5
11B
330
20
100
AcDbEntity
  8
0
  6
Continuous
 62
     3
100
AcDbLine
 10
313.339
 20
326.036
 30
0.0
 11
313.339
 21
321.836
 31
0.0
  0
LINE
  5
11C
330
20
100
AcDbEntity
  8
0
  6
Continuous
 62
     3
100
AcDbLine
 10
313.339
 20
326.036
 30
0.0
 11
318.339
 21
326.036
 31
0.0
  0
LINE
  5
11D
330
20
100
AcDbEntity
  8
0
  6
Continuous
 62
     3
100
AcDbLine
 10
313.339
 20
321.836
 30
0.0
 11
318.339
 21
321.836
 31
0.0
  0
LINE
  5
11E
330
20
100
AcDbEntity
  8
0
  6
Continuous
 62
     3
100
AcDbLine
 10
310.839
 20
318.686
 30
0.0
 11
313.339
 21
321.836
 31
0.0
  0
LINE
  5
11F
330
20
100
AcDbEntity
  8
0
  6
Continuous
 62
     3
100
AcDbLine
 10
310.839
 20
329.186
 30
0.0
 11
313.339
 21
326.036
 31
0.0
  0
LWPOLYLINE
  5
120
330
20
100
AcDbEntity
  8
0
  6
Continuous
 62
     3
100
AcDbPolyline
 90
        3
 70
     0
 43
0.0
 10
309.339
 20
86.93600000000001
 10
309.339
 20
122.306
 10
309.339
 20
370.936
  0
LWPOLYLINE
  5
125
330
20
100
AcDbEntity
  8
0
  6
Continuous
 62
     3
100
AcDbPolyline
 90
        5
 70
     0
 43
0.0
 10
275.139
 20
345.853096231
 10
275.139
 20
346.936
 10
277.339
 20
346.936
 10
277.339
 20
347.436
 10
278.339
 20
347.436
  0
LINE
  5
12C
330
20
100
AcDbEntity
  8
0
  6
Continuous
 62
     3
100
AcDbLine
 10
263.839
 20
348.436
 30
0.0
 11
266.839
 21
348.436
 31
0.0
  0
LINE
  5
12D
330
20
100
AcDbEntity
  8
0
  6
Continuous
 62
     3
100
AcDbLine
 10
266.839
 20
347.936
 30
0.0
 11
267.839
 21
347.936
 31
0.0
  0
LINE
  5
12E
330
20
100
AcDbEntity
  8
0
  6
Continuous
 62
     3
100
AcDbLine
 10
267.839
 20
348.436
 30
0.0
 11
269.839
 21
348.436
 31
0.0
  0
LINE
  5
12F
330
20
100
AcDbEntity
  8
0
  6
Continuous
 62
     3
100
AcDbLine
 10
282.839
 20
349.836
 30
0.0
 11
281.339
 21
349.836
 31
0.0
  0
LINE
  5
130
330
20
100
AcDbEntity
  8
0
  6
Continuous
 62
     3
100
AcDbLine
 10
278.339
 20
347.436
 30
0.0
 11
278.339
 21
346.936
 31
0.0
  0
LINE
  5
131
330
20
100
AcDbEntity
  8
0
  6
Continuous
 62
     3
100
AcDbLine
 10
277.339
 20
349.436
 30
0.0
 11
269.839
 21
349.436
 31
0.0
  0
LINE
  5
132
330
20
100
AcDbEntity
  8
0
  6
Continuous
 62
     3
100
AcDbLine
 10
277.339
 20
348.936
 30
0.0
 11
281.339
 21
348.936
 31
0.0
  0
LWPOLYLINE
  5
133
330
20
100
AcDbEntity
  8
0
  6
Continuous
 62
     3
100
AcDbPolyline
 90
        3
 70
     0
 43
0.0
 10
278.339
 20
346.936
 10
282.339
 20
346.936
 10
282.839
 20
347.436
  0
LINE
  5
138
330
20
100
AcDbEntity
  8
0
  6
Continuous
 62
     3
100
AcDbLine
 10
275.139
 20
362.018903769
 30
0.0
 11
275.139
 21
360.936
 31
0.0
  0
LWPOLYLINE
  5
139
330
20
100
AcDbEntity
  8
0
  6
Continuous
 62
     3
100
AcDbPolyline
 90
        4
 70
     0
 43
0.0
 10
275.139
 20
360.936
 10
277.339
 20
360.936
 10
277.339
 20
360.436
 10
278.339
 20
360.436
  0
LINE
  5
13F
330
20
100
AcDbEntity
  8
0
  6
Continuous
 62
     3
100
AcDbLine
 10
263.839
 20
359.436
 30
0.0
 11
266.839
 21
359.436
 31
0.0
  0
LINE
  5
140
330
20
100
AcDbEntity
  8
0
  6
Continuous
 62
     3
100
AcDbLine
 10
266.839
 20
359.936
 30
0.0
 11
267.839
 21
359.936
 31
0.0
  0
LINE
  5
141
330
20
100
AcDbEntity
  8
0
  6
Continuous
 62
     3
100
AcDbLine
 10
267.839
 20
359.436
 30
0.0
 11
269.839
 21
359.436
 31
0.0
  0
LINE
  5
142
330
20
100
AcDbEntity
  8
0
  6
Continuous
 62
     3
100
AcDbLine
 10
282.839
 20
358.036
 30
0.0
 11
281.339
 21
358.036
 31
0.0
  0
LINE
  5
143
330
20
100
AcDbEntity
  8
0
  6
Continuous
 62
     3
100
AcDbLine
 10
278.339
 20
360.436
 30
0.0
 11
278.339
 21
360.936
 31
0.0
  0
LINE
  5
144
330
20
100
AcDbEntity
  8
0
  6
Continuous
 62
     3
100
AcDbLine
 10
277.339
 20
358.436
 30
0.0
 11
269.839
 21
358.436
 31
0.0
  0
LINE
  5
145
330
20
100
AcDbEntity
  8
0
  6
Continuous
 62
     3
100
AcDbLine
 10
277.339
 20
358.936
 30
0.0
 11
281.339
 21
358.936
 31
0.0
  0
LWPOLYLINE
  5
146
330
20
100
AcDbEntity
  8
0
  6
Continuous
 62
     3
100
AcDbPolyline
 90
        3
 70
     0
 43
0.0
 10
278.339
 20
360.936
 10
282.339
 20
360.936
 10
282.839
 20
360.436
  0
LINE
  5
14B
330
20
100
AcDbEntity
  8
0
  6
Continuous
 62
     3
100
AcDbLine
 10
266.839
 20
347.936
 30
0.0
 11
266.839
 21
359.936
 31
0.0
  0
LINE
  5
14C
330
20
100
AcDbEntity
  8
0
  6
Continuous
 62
     3
100
AcDbLine
 10
267.839
 20
359.936
 30
0.0
 11
267.839
 21
347.936
 31
0.0
  0
LINE
  5
14D
330
20
100
AcDbEntity
  8
0
  6
Continuous
 62
     3
100
AcDbLine
 10
269.839
 20
359.436
 30
0.0
 11
269.839
 21
348.436
 31
0.0
  0
LINE
  5
14E
330
20
100
AcDbEntity
  8
0
  6
Continuous
 62
     3
100
AcDbLine
 10
277.339
 20
348.936
 30
0.0
 11
277.339
 21
358.936
 31
0.0
  0
LINE
  5
14F
330
20
100
AcDbEntity
  8
0
  6
Continuous
 62
     3
100
AcDbLine
 10
281.339
 20
348.936
 30
0.0
 11
281.339
 21
358.936
 31
0.0
  0
LINE
  5
150
330
20
100
AcDbEntity
  8
0
  6
Continuous
 62
     3
100
AcDbLine
 10
282.839
 20
347.436
 30
0.0
 11
282.839
 21
360.436
 31
0.0
  0
LINE
  5
151
330
20
100
AcDbEntity
  8
0
  6
Continuous
 62
     3
100
AcDbLine
 10
264.339
 20
345.853096231
 30
0.0
 11
275.139
 21
345.853096231
 31
0.0
  0
LINE
  5
152
330
20
100
AcDbEntity
  8
0
  6
Continuous
 62
     3
100
AcDbLine
 10
264.339
 20
345.853096231
 30
0.0
 11
263.839
 21
346.353096231
 31
0.0
  0
LINE
  5
153
330
20
100
AcDbEntity
  8
0
  6
Continuous
 62
     3
100
AcDbLine
 10
264.339
 20
362.018903769
 30
0.0
 11
275.139
 21
362.018903769
 31
0.0
  0
LINE
  5
154
330
20
100
AcDbEntity
  8
0
  6
Continuous
 62
     3
100
AcDbLine
 10
263.839
 20
346.353096231
 30
0.0
 11
263.839
 21
361.518903769
 31
0.0
  0
LINE
  5
155
330
20
100
AcDbEntity
  8
0
  6
Continuous
 62
     3
100
AcDbLine
 10
264.339
 20
362.018903769
 30
0.0
 11
263.839
 21
361.518903769
 31
0.0
  0
LINE
  5
156
330
20
100
AcDbEntity
  8
0
  6
Continuous
 62
     3
100
AcDbLine
 10
264.839
 20
347.936
 30
0.0
 11
267.839
 21
347.936
 31
0.0
  0
LINE
  5
157
330
20
100
AcDbEntity
  8
0
  6
Continuous
 62
     3
100
AcDbLine
 10
267.839
 20
359.936
 30
0.0
 11
267.839
 21
347.936
 31
0.0
  0
LINE
  5
158
330
20
100
AcDbEntity
  8
0
  6
Continuous
 62
     3
100
AcDbLine
 10
267.839
 20
359.936
 30
0.0
 11
264.839
 21
359.936
 31
0.0
  0
LINE
  5
159
330
20
100
AcDbEntity
  8
0
  6
Continuous
 62
     3
100
AcDbLine
 10
263.839
 20
359.436
 30
0.0
 11
264.839
 21
359.436
 31
0.0
  0
LWPOLYLINE
  5
15A
330
20
100
AcDbEntity
  8
0
  6
Continuous
 62
     3
100
AcDbPolyline
 90
        3
 70
     0
 43
0.0
 10
264.839
 20
347.936
 10
264.839
 20
348.436
 10
263.839
 20
348.436
  0
LINE
  5
15F
330
20
100
AcDbEntity
  8
0
  6
Continuous
 62
     3
100
AcDbLine
 10
267.839
 20
350.686
 30
0.0
 11
259.839
 21
350.686
 31
0.0
  0
LINE
  5
160
330
20
100
AcDbEntity
  8
0
  6
Continuous
 62
     3
100
AcDbLine
 10
267.839
 20
357.186
 30
0.0
 11
259.839
 21
357.186
 31
0.0
  0
LINE
  5
161
330
20
100
AcDbEntity
  8
0
  6
Continuous
 62
     3
100
AcDbLine
 10
264.839
 20
359.936
 30
0.0
 11
264.839
 21
359.436
 31
0.0
  0
LINE
  5
162
330
20
100
AcDbEntity
  8
0
  6
Continuous
 62
     3
100
AcDbLine
 10
259.839
 20
346.353096231
 30
0.0
 11
260.339
 21
345.853096231
 31
0.0
  0
LINE
  5
163
330
20
100
AcDbEntity
  8
0
  6
Continuous
 62
     3
100
AcDbLine
 10
259.839
 20
361.518903769
 30
0.0
 11
259.839
 21
346.353096231
 31
0.0
  0
LINE
  5
164
330
20
100
AcDbEntity
  8
0
  6
Continuous
 62
     3
100
AcDbLine
 10
260.339
 20
362.018903769
 30
0.0
 11
259.839
 21
361.518903769
 31
0.0
  0
LINE
  5
165
330
20
100
AcDbEntity
  8
0
  6
Continuous
 62
     3
100
AcDbLine
 10
263.839
 20
361.518903769
 30
0.0
 11
263.839
 21
359.436
 31
0.0
  0
LINE
  5
166
330
20
100
AcDbEntity
  8
0
  6
Continuous
 62
     3
100
AcDbLine
 10
260.339
 20
362.018903769
 30
0.0
 11
263.339
 21
362.018903769
 31
0.0
  0
LINE
  5
167
330
20
100
AcDbEntity
  8
0
  6
Continuous
 62
     3
100
AcDbLine
 10
263.839
 20
361.518903769
 30
0.0
 11
263.339
 21
362.018903769
 31
0.0
  0
LINE
  5
168
330
20
100
AcDbEntity
  8
0
  6
Continuous
 62
     3
100
AcDbLine
 10
263.839
 20
348.436
 30
0.0
 11
263.839
 21
346.353096231
 31
0.0
  0
LINE
  5
169
330
20
100
AcDbEntity
  8
0
  6
Continuous
 62
     3
100
AcDbLine
 10
260.339
 20
345.853096231
 30
0.0
 11
263.339
 21
345.853096231
 31
0.0
  0
LINE
  5
16A
330
20
100
AcDbEntity
  8
0
  6
Continuous
 62
     3
100
AcDbLine
 10
263.839
 20
346.353096231
 30
0.0
 11
263.339
 21
345.853096231
 31
0.0
  0
LWPOLYLINE
  5
16B
330
20
100
AcDbEntity
  8
0
  6
Continuous
 62
     3
100
AcDbPolyline
 90
        3
 70
     0
 43
0.0
 10
270.739
 20
350.936
 10
270.739
 20
348.936
 10
274.739
 20
348.936
  0
LINE
  5
170
330
20
100
AcDbEntity
  8
0
  6
Continuous
 62
     3
100
AcDbLine
 10
274.739
 20
358.936
 30
0.0
 11
270.739
 21
358.936
 31
0.0
  0
LINE
  5
171
330
20
100
AcDbEntity
  8
0
  6
Continuous
 62
     3
100
AcDbLine
 10
270.739
 20
358.936
 30
0.0
 11
270.739
 21
356.936
 31
0.0
  0
LINE
  5
172
330
20
100
AcDbEntity
  8
0
  6
Continuous
 62
     3
100
AcDbLine
 10
274.739
 20
357.936
 30
0.0
 11
274.739
 21
358.936
 31
0.0
  0
LINE
  5
173
330
20
100
AcDbEntity
  8
0
  6
Continuous
 62
     3
100
AcDbLine
 10
274.739
 20
348.936
 30
0.0
 11
274.739
 21
349.936
 31
0.0
  0
LINE
  5
174
330
20
100
AcDbEntity
  8
0
  6
Continuous
 62
     3
100
AcDbLine
 10
270.739
 20
356.936
 30
0.0
 11
250.739
 21
356.936
 31
0.0
  0
LINE
  5
175
330
20
100
AcDbEntity
  8
0
  6
Continuous
 62
     3
100
AcDbLine
 10
290.739
 20
357.636
 30
0.0
 11
290.739
 21
356.436
 31
0.0
  0
LINE
  5
176
330
20
100
AcDbEntity
  8
0
  6
Continuous
 62
     3
100
AcDbLine
 10
290.439
 20
357.936
 30
0.0
 11
290.739
 21
357.636
 31
0.0
  0
LINE
  5
177
330
20
100
AcDbEntity
  8
0
  6
Continuous
 62
     3
100
AcDbLine
 10
290.739
 20
350.236
 30
0.0
 11
290.739
 21
351.436
 31
0.0
  0
LINE
  5
178
330
20
100
AcDbEntity
  8
0
  6
Continuous
 62
     3
100
AcDbLine
 10
290.439
 20
349.936
 30
0.0
 11
290.739
 21
350.236
 31
0.0
  0
LINE
  5
179
330
20
100
AcDbEntity
  8
0
  6
Continuous
 62
     3
100
AcDbLine
 10
290.739
 20
356.436
 30
0.0
 11
298.739
 21
355.311673322
 31
0.0
  0
LINE
  5
17A
330
20
100
AcDbEntity
  8
0
  6
Continuous
 62
     3
100
AcDbLine
 10
298.739
 20
352.560326678
 30
0.0
 11
290.739
 21
351.436
 31
0.0
  0
LINE
  5
17B
330
20
100
AcDbEntity
  8
0
  6
Continuous
 62
     3
100
AcDbLine
 10
298.739
 20
355.311673322
 30
0.0
 11
298.739
 21
352.560326678
 31
0.0
  0
LINE
  5
17C
330
20
100
AcDbEntity
  8
0
  6
Continuous
 62
     3
100
AcDbLine
 10
267.839
 20
356.936
 30
0.0
 11
269.839
 21
356.936
 31
0.0
  0
LINE
  5
17D
330
20
100
AcDbEntity
  8
0
  6
Continuous
 62
     3
100
AcDbLine
 10
267.839
 20
350.936
 30
0.0
 11
269.839
 21
350.936
 31
0.0
  0
LINE
  5
17E
330
20
100
AcDbEntity
  8
0
  6
Continuous
 62
     3
100
AcDbLine
 10
269.839
 20
348.536
 30
0.0
 11
267.839
 21
348.536
 31
0.0
  0
LINE
  5
17F
330
20
100
AcDbEntity
  8
0
  6
Continuous
 62
     3
100
AcDbLine
 10
269.839
 20
359.336
 30
0.0
 11
269.839
 21
348.536
 31
0.0
  0
LWPOLYLINE
  5
180
330
20
100
AcDbEntity
  8
0
  6
Continuous
 62
     3
100
AcDbPolyline
 90
        3
 70
     0
 43
0.0
 10
267.839
 20
348.536
 10
267.839
 20
359.336
 10
269.839
 20
359.336
  0
LINE
  5
185
330
20
100
AcDbEntity
  8
0
  6
Continuous
 62
     3
100
AcDbLine
 10
307.589
 20
329.436
 30
0.0
 11
307.589
 21
330.936
 31
0.0
  0
POINT
  5
186
330
20
100
AcDbEntity
  8
0
  6
Continuous
 62
     3
100
AcDbPoint
 10
281.389
 20
323.936
 30
0.0
  0
LINE
  5
187
330
20
100
AcDbEntity
  8
0
  6
Continuous
 62
     3
100
AcDbLine
 10
281.389
 20
323.936
 30
0.0
 11
281.389
 21
330.936
 31
0.0
  0
LINE
  5
188
330
20
100
AcDbEntity
  8
0
  6
Continuous
 62
     3
100
AcDbLine
 10
305.289
 20
323.936
 30
0.0
 11
305.289
 21
330.936
 31
0.0
  0
LINE
  5
189
330
20
100
AcDbEntity
  8
0
  6
Continuous
 62
     3
100
AcDbLine
 10
278.339
 20
319.936
 30
0.0
 11
277.839
 21
320.436
 31
0.0
  0
LINE
  5
18A
330
20
100
AcDbEntity
  8
0
  6
Continuous
 62
     3
100
AcDbLine
 10
278.339
 20
329.436
 30
0.0
 11
279.089
 21
329.436
 31
0.0
  0
LINE
  5
18B
330
20
100
AcDbEntity
  8
0
  6
Continuous
 62
     3
100
AcDbLine
 10
277.839
 20
320.436
 30
0.0
 11
277.839
 21
328.936
 31
0.0
  0
LINE
  5
18C
330
20
100
AcDbEntity
  8
0
  6
Continuous
 62
     3
100
AcDbLine
 10
278.339
 20
329.436
 30
0.0
 11
277.839
 21
328.936
 31
0.0
  0
LINE
  5
18D
330
20
100
AcDbEntity
  8
0
  6
Continuous
 62
     3
100
AcDbLine
 10
278.339
 20
319.936
 30
0.0
 11
308.339
 21
319.936
 31
0.0
  0
LINE
  5
18E
330
20
100
AcDbEntity
  8
0
  6
Continuous
 62
     3
100
AcDbLine
 10
308.839
 20
320.436
 30
0.0
 11
308.339
 21
319.936
 31
0.0
  0
LINE
  5
18F
330
20
100
AcDbEntity
  8
0
  6
Continuous
 62
     3
100
AcDbLine
 10
307.589
 20
329.436
 30
0.0
 11
308.339
 21
329.436
 31
0.0
  0
LINE
  5
190
330
20
100
AcDbEntity
  8
0
  6
Continuous
 62
     3
100
AcDbLine
 10
308.839
 20
320.436
 30
0.0
 11
308.839
 21
328.936
 31
0.0
  0
LINE
  5
191
330
20
100
AcDbEntity
  8
0
  6
Continuous
 62
     3
100
AcDbLine
 10
308.339
 20
329.436
 30
0.0
 11
308.839
 21
328.936
 31
0.0
  0
LINE
  5
192
330
20
100
AcDbEntity
  8
0
  6
Continuous
 62
     3
100
AcDbLine
 10
307.589
 20
330.936
 30
0.0
 11
279.089
 21
330.936
 31
0.0
  0
LINE
  5
193
330
20
100
AcDbEntity
  8
0
  6
Continuous
 62
     3
100
AcDbLine
 10
279.089
 20
330.936
 30
0.0
 11
279.089
 21
329.436
 31
0.0
  0
LINE
  5
194
330
20
100
AcDbEntity
  8
0
  6
Continuous
 62
     3
100
AcDbLine
 10
280.339
 20
321.936
 30
0.0
 11
306.339
 21
321.936
 31
0.0
  0
LINE
  5
195
330
20
100
AcDbEntity
  8
0
  6
Continuous
 62
     3
100
AcDbLine
 10
280.339
 20
321.936
 30
0.0
 11
280.339
 21
323.936
 31
0.0
  0
LINE
  5
196
330
20
100
AcDbEntity
  8
0
  6
Continuous
 62
     3
100
AcDbLine
 10
306.339
 20
323.936
 30
0.0
 11
306.339
 21
321.936
 31
0.0
  0
LINE
  5
197
330
20
100
AcDbEntity
  8
0
  6
Continuous
 62
     3
100
AcDbLine
 10
306.339
 20
323.936
 30
0.0
 11
280.339
 21
323.936
 31
0.0
  0
LINE
  5
198
330
20
100
AcDbEntity
  8
0
  6
Continuous
 62
     3
100
AcDbLine
 10
279.089
 20
128.436
 30
0.0
 11
279.089
 21
126.936
 31
0.0
  0
POINT
  5
199
330
20
100
AcDbEntity
  8
0
  6
Continuous
 62
     3
100
AcDbPoint
 10
305.289
 20
133.936
 30
0.0
  0
LINE
  5
19A
330
20
100
AcDbEntity
  8
0
  6
Continuous
 62
     3
100
AcDbLine
 10
305.289
 20
133.936
 30
0.0
 11
305.289
 21
126.936
 31
0.0
  0
LINE
  5
19B
330
20
100
AcDbEntity
  8
0
  6
Continuous
 62
     3
100
AcDbLine
 10
281.389
 20
133.936
 30
0.0
 11
281.389
 21
126.936
 31
0.0
  0
LINE
  5
19C
330
20
100
AcDbEntity
  8
0
  6
Continuous
 62
     3
100
AcDbLine
 10
308.339
 20
137.936
 30
0.0
 11
308.839
 21
137.436
 31
0.0
  0
LINE
  5
19D
330
20
100
AcDbEntity
  8
0
  6
Continuous
 62
     3
100
AcDbLine
 10
308.339
 20
128.436
 30
0.0
 11
307.589
 21
128.436
 31
0.0
  0
LINE
  5
19E
330
20
100
AcDbEntity
  8
0
  6
Continuous
 62
     3
100
AcDbLine
 10
308.839
 20
137.436
 30
0.0
 11
308.839
 21
128.936
 31
0.0
  0
LINE
  5
19F
330
20
100
AcDbEntity
  8
0
  6
Continuous
 62
     3
100
AcDbLine
 10
308.339
 20
128.436
 30
0.0
 11
308.839
 21
128.936
 31
0.0
  0
LINE
  5
1A0
330
20
100
AcDbEntity
  8
0
  6
Continuous
 62
     3
100
AcDbLine
 10
308.339
 20
137.936
 30
0.0
 11
278.339
 21
137.936
 31
0.0
  0
LINE
  5
1A1
330
20
100
AcDbEntity
  8
0
  6
Continuous
 62
     3
100
AcDbLine
 10
277.839
 20
137.436
 30
0.0
 11
278.339
 21
137.936
 31
0.0
  0
LINE
  5
1A2
330
20
100
AcDbEntity
  8
0
  6
Continuous
 62
     3
100
AcDbLine
 10
279.089
 20
128.436
 30
0.0
 11
278.339
 21
128.436
 31
0.0
  0
LINE
  5
1A3
330
20
100
AcDbEntity
  8
0
  6
Continuous
 62
     3
100
AcDbLine
 10
277.839
 20
137.436
 30
0.0
 11
277.839
 21
128.936
 31
0.0
  0
LINE
  5
1A4
330
20
100
AcDbEntity
  8
0
  6
Continuous
 62
     3
100
AcDbLine
 10
278.339
 20
128.436
 30
0.0
 11
277.839
 21
128.936
 31
0.0
  0
LINE
  5
1A5
330
20
100
AcDbEntity
  8
0
  6
Continuous
 62
     3
100
AcDbLine
 10
279.089
 20
126.936
 30
0.0
 11
307.589
 21
126.936
 31
0.0
  0
LINE
  5
1A6
330
20
100
AcDbEntity
  8
0
  6
Continuous
 62
     3
100
AcDbLine
 10
307.589
 20
126.936
 30
0.0
 11
307.589
 21
128.436
 31
0.0
  0
LINE
  5
1A7
330
20
100
AcDbEntity
  8
0
  6
Continuous
 62
     3
100
AcDbLine
 10
306.339
 20
135.936
 30
0.0
 11
280.339
 21
135.936
 31
0.0
  0
LINE
  5
1A8
330
20
100
AcDbEntity
  8
0
  6
Continuous
 62
     3
100
AcDbLine
 10
306.339
 20
135.936
 30
0.0
 11
306.339
 21
133.936
 31
0.0
  0
LINE
  5
1A9
330
20
100
AcDbEntity
  8
0
  6
Continuous
 62
     3
100
AcDbLine
 10
280.339
 20
133.936
 30
0.0
 11
280.339
 21
135.936
 31
0.0
  0
LINE
  5
1AA
330
20
100
AcDbEntity
  8
0
  6
Continuous
 62
     3
100
AcDbLine
 10
280.339
 20
133.936
 30
0.0
 11
306.339
 21
133.936
 31
0.0
  0
LINE
  5
1AB
330
20
100
AcDbEntity
  8
0
  6
Continuous
 62
     3
100
AcDbLine
 10
277.339
 20
370.936
 30
0.0
 11
275.339
 21
370.936
 31
0.0
  0
LINE
  5
1AC
330
20
100
AcDbEntity
  8
0
  6
Continuous
 62
     3
100
AcDbLine
 10
275.339
 20
370.936
 30
0.0
 11
275.339
 21
86.93600000000001
 31
0.0
  0
LINE
  5
1AD
330
20
100
AcDbEntity
  8
0
  6
Continuous
 62
     3
100
AcDbLine
 10
275.339
 20
86.93600000000001
 30
0.0
 11
277.339
 21
86.93600000000001
 31
0.0
  0
LINE
  5
1AE
330
20
100
AcDbEntity
  8
0
  6
Continuous
 62
     3
100
AcDbLine
 10
277.339
 20
86.93600000000001
 30
0.0
 11
277.339
 21
370.936
 31
0.0
  0
LINE
  5
1AF
330
20
100
AcDbEntity
  8
0
  6
Continuous
 62
     3
100
AcDbLine
 10
250.739
 20
369.936
 30
0.0
 11
241.739
 21
369.936
 31
0.0
  0
LINE
  5
1B0
330
20
100
AcDbEntity
  8
0
  6
Continuous
 62
     3
100
AcDbLine
 10
250.739
 20
337.936
 30
0.0
 11
241.739
 21
337.936
 31
0.0
  0
ARC
  5
1B1
330
20
100
AcDbEntity
  8
0
  6
Continuous
 62
     3
100
AcDbCircle
 10
282.905666667
 20
353.936
 30
0.0
 40
44.166666667
100
AcDbArc
 50
158.760689448
 51
201.239310552
  0
LINE
  5
1B2
330
20
100
AcDbEntity
  8
0
  6
Continuous
 62
     3
100
AcDbLine
 10
241.739
 20
337.936
 30
0.0
 11
241.739
 21
369.936
 31
0.0
  0
LINE
  5
1B3
330
20
100
AcDbEntity
  8
0
  6
Continuous
 62
     3
100
AcDbLine
 10
312.839
 20
136.436
 30
0.0
 11
312.839
 21
131.436
 31
0.0
  0
LINE
  5
1B4
330
20
100
AcDbEntity
  8
0
  6
Continuous
 62
     3
100
AcDbLine
 10
310.339
 20
138.936
 30
0.0
 11
310.339
 21
128.936
 31
0.0
  0
LINE
  5
1B5
330
20
100
AcDbEntity
  8
0
  6
Continuous
 62
     3
100
AcDbLine
 10
312.839
 20
131.436
 30
0.0
 11
310.339
 21
128.936
 31
0.0
  0
LINE
  5
1B6
330
20
100
AcDbEntity
  8
0
  6
Continuous
 62
     3
100
AcDbLine
 10
310.339
 20
138.936
 30
0.0
 11
312.839
 21
136.436
 31
0.0
  0
LINE
  5
1B7
330
20
100
AcDbEntity
  8
0
  6
Continuous
 62
     3
100
AcDbLine
 10
314.839
 20
131.436
 30
0.0
 11
314.839
 21
136.436
 31
0.0
  0
LINE
  5
1B8
330
20
100
AcDbEntity
  8
0
  6
Continuous
 62
     3
100
AcDbLine
 10
312.839
 20
136.436
 30
0.0
 11
329.539
 21
136.436
 31
0.0
  0
LINE
  5
1B9
330
20
100
AcDbEntity
  8
0
  6
Continuous
 62
     3
100
AcDbLine
 10
329.539
 20
131.436
 30
0.0
 11
312.839
 21
131.436
 31
0.0
  0
LINE
  5
1BA
330
20
100
AcDbEntity
  8
0
  6
Continuous
 62
     3
100
AcDbLine
 10
330.339
 20
135.636
 30
0.0
 11
329.539
 21
136.436
 31
0.0
  0
LINE
  5
1BB
330
20
100
AcDbEntity
  8
0
  6
Continuous
 62
     3
100
AcDbLine
 10
330.339
 20
132.236
 30
0.0
 11
329.539
 21
131.436
 31
0.0
  0
LINE
  5
1BC
330
20
100
AcDbEntity
  8
0
  6
Continuous
 62
     3
100
AcDbLine
 10
330.339
 20
135.636
 30
0.0
 11
330.339
 21
132.236
 31
0.0
  0
LINE
  5
1BD
330
20
100
AcDbEntity
  8
0
  6
Continuous
 62
     3
100
AcDbLine
 10
329.539
 20
136.436
 30
0.0
 11
329.539
 21
131.436
 31
0.0
  0
LINE
  5
1BE
330
20
100
AcDbEntity
  8
0
  6
Continuous
 62
     3
100
AcDbLine
 10
318.339
 20
138.936
 30
0.0
 11
319.339
 21
138.936
 31
0.0
  0
LINE
  5
1BF
330
20
100
AcDbEntity
  8
0
  6
Continuous
 62
     3
100
AcDbLine
 10
319.339
 20
128.936
 30
0.0
 11
318.339
 21
128.936
 31
0.0
  0
LINE
  5
1C0
330
20
100
AcDbEntity
  8
0
  6
Continuous
 62
     3
100
AcDbLine
 10
322.439
 20
129.336
 30
0.0
 11
319.339
 21
129.336
 31
0.0
  0
LINE
  5
1C1
330
20
100
AcDbEntity
  8
0
  6
Continuous
 62
     3
100
AcDbLine
 10
319.339
 20
138.536
 30
0.0
 11
322.439
 21
138.536
 31
0.0
  0
LINE
  5
1C2
330
20
100
AcDbEntity
  8
0
  6
Continuous
 62
     3
100
AcDbLine
 10
322.839
 20
131.436
 30
0.0
 11
322.839
 21
130.536
 31
0.0
  0
LINE
  5
1C3
330
20
100
AcDbEntity
  8
0
  6
Continuous
 62
     3
100
AcDbLine
 10
322.839
 20
137.436
 30
0.0
 11
322.839
 21
136.436
 31
0.0
  0
ARC
  5
1C4
330
20
100
AcDbEntity
  8
0
  6
Continuous
 62
     3
100
AcDbCircle
 10
320.939
 20
137.436
 30
0.0
 40
1.9
100
AcDbArc
 50
328.243136141
 51
38.4
  0
ARC
  5
1C5
330
20
100
AcDbEntity
  8
0
  6
Continuous
 62
     3
100
AcDbCircle
 10
320.939
 20
130.436
 30
0.0
 40
1.9
100
AcDbArc
 50
321.6
 51
31.756863859
  0
LINE
  5
1C6
330
20
100
AcDbEntity
  8
0
  6
Continuous
 62
     3
100
AcDbLine
 10
319.339
 20
131.436
 30
0.0
 11
319.339
 21
128.936
 31
0.0
  0
LINE
  5
1C7
330
20
100
AcDbEntity
  8
0
  6
Continuous
 62
     3
100
AcDbLine
 10
319.339
 20
138.936
 30
0.0
 11
319.339
 21
136.436
 31
0.0
  0
LINE
  5
1C8
330
20
100
AcDbEntity
  8
0
  6
Continuous
 62
     3
100
AcDbLine
 10
319.339
 20
136.436
 30
0.0
 11
319.339
 21
138.536
 31
0.0
  0
LINE
  5
1C9
330
20
100
AcDbEntity
  8
0
  6
Continuous
 62
     3
100
AcDbLine
 10
319.339
 20
129.336
 30
0.0
 11
319.339
 21
131.436
 31
0.0
  0
LINE
  5
1CA
330
20
100
AcDbEntity
  8
0
  6
Continuous
 62
     3
100
AcDbLine
 10
318.339
 20
136.436
 30
0.0
 11
318.339
 21
138.936
 31
0.0
  0
LINE
  5
1CB
330
20
100
AcDbEntity
  8
0
  6
Continuous
 62
     3
100
AcDbLine
 10
318.339
 20
128.936
 30
0.0
 11
318.339
 21
131.436
 31
0.0
  0
LINE
  5
1CC
330
20
100
AcDbEntity
  8
0
  6
Continuous
 62
     3
100
AcDbLine
 10
312.839
 20
326.436
 30
0.0
 11
312.839
 21
321.436
 31
0.0
  0
LINE
  5
1CD
330
20
100
AcDbEntity
  8
0
  6
Continuous
 62
     3
100
AcDbLine
 10
310.339
 20
328.936
 30
0.0
 11
310.339
 21
318.936
 31
0.0
  0
LINE
  5
1CE
330
20
100
AcDbEntity
  8
0
  6
Continuous
 62
     3
100
AcDbLine
 10
312.839
 20
321.436
 30
0.0
 11
310.339
 21
318.936
 31
0.0
  0
LINE
  5
1CF
330
20
100
AcDbEntity
  8
0
  6
Continuous
 62
     3
100
AcDbLine
 10
310.339
 20
328.936
 30
0.0
 11
312.839
 21
326.436
 31
0.0
  0
LINE
  5
1D0
330
20
100
AcDbEntity
  8
0
  6
Continuous
 62
     3
100
AcDbLine
 10
314.839
 20
321.436
 30
0.0
 11
314.839
 21
326.436
 31
0.0
  0
LINE
  5
1D1
330
20
100
AcDbEntity
  8
0
  6
Continuous
 62
     3
100
AcDbLine
 10
312.839
 20
326.436
 30
0.0
 11
329.539
 21
326.436
 31
0.0
  0
LINE
  5
1D2
330
20
100
AcDbEntity
  8
0
  6
Continuous
 62
     3
100
AcDbLine
 10
329.539
 20
321.436
 30
0.0
 11
312.839
 21
321.436
 31
0.0
  0
LINE
  5
1D3
330
20
100
AcDbEntity
  8
0
  6
Continuous
 62
     3
100
AcDbLine
 10
330.339
 20
325.636
 30
0.0
 11
329.539
 21
326.436
 31
0.0
  0
LINE
  5
1D4
330
20
100
AcDbEntity
  8
0
  6
Continuous
 62
     3
100
AcDbLine
 10
330.339
 20
322.236
 30
0.0
 11
329.539
 21
321.436
 31
0.0
  0
LINE
  5
1D5
330
20
100
AcDbEntity
  8
0
  6
Continuous
 62
     3
100
AcDbLine
 10
330.339
 20
325.636
 30
0.0
 11
330.339
 21
322.236
 31
0.0
  0
LINE
  5
1D6
330
20
100
AcDbEntity
  8
0
  6
Continuous
 62
     3
100
AcDbLine
 10
329.539
 20
326.436
 30
0.0
 11
329.539
 21
321.436
 31
0.0
  0
LINE
  5
1D7
330
20
100
AcDbEntity
  8
0
  6
Continuous
 62
     3
100
AcDbLine
 10
318.339
 20
328.936
 30
0.0
 11
319.339
 21
328.936
 31
0.0
  0
LINE
  5
1D8
330
20
100
AcDbEntity
  8
0
  6
Continuous
 62
     3
100
AcDbLine
 10
319.339
 20
318.936
 30
0.0
 11
318.339
 21
318.936
 31
0.0
  0
LINE
  5
1D9
330
20
100
AcDbEntity
  8
0
  6
Continuous
 62
     3
100
AcDbLine
 10
322.439
 20
319.336
 30
0.0
 11
319.339
 21
319.336
 31
0.0
  0
LINE
  5
1DA
330
20
100
AcDbEntity
  8
0
  6
Continuous
 62
     3
100
AcDbLine
 10
319.339
 20
328.536
 30
0.0
 11
322.439
 21
328.536
 31
0.0
  0
LINE
  5
1DB
330
20
100
AcDbEntity
  8
0
  6
Continuous
 62
     3
100
AcDbLine
 10
322.839
 20
321.436
 30
0.0
 11
322.839
 21
320.536
 31
0.0
  0
LINE
  5
1DC
330
20
100
AcDbEntity
  8
0
  6
Continuous
 62
     3
100
AcDbLine
 10
322.839
 20
327.436
 30
0.0
 11
322.839
 21
326.436
 31
0.0
  0
ARC
  5
1DD
330
20
100
AcDbEntity
  8
0
  6
Continuous
 62
     3
100
AcDbCircle
 10
320.939
 20
327.436
 30
0.0
 40
1.9
100
AcDbArc
 50
328.243136141
 51
38.4
  0
ARC
  5
1DE
330
20
100
AcDbEntity
  8
0
  6
Continuous
 62
     3
100
AcDbCircle
 10
320.939
 20
320.436
 30
0.0
 40
1.9
100
AcDbArc
 50
321.6
 51
31.756863859
  0
LINE
  5
1DF
330
20
100
AcDbEntity
  8
0
  6
Continuous
 62
     3
100
AcDbLine
 10
319.339
 20
321.436
 30
0.0
 11
319.339
 21
318.936
 31
0.0
  0
LINE
  5
1E0
330
20
100
AcDbEntity
  8
0
  6
Continuous
 62
     3
100
AcDbLine
 10
319.339
 20
328.936
 30
0.0
 11
319.339
 21
326.436
 31
0.0
  0
LINE
  5
1E1
330
20
100
AcDbEntity
  8
0
  6
Continuous
 62
     3
100
AcDbLine
 10
319.339
 20
326.436
 30
0.0
 11
319.339
 21
328.536
 31
0.0
  0
LINE
  5
1E2
330
20
100
AcDbEntity
  8
0
  6
Continuous
 62
     3
100
AcDbLine
 10
319.339
 20
319.336
 30
0.0
 11
319.339
 21
321.436
 31
0.0
  0
LINE
  5
1E3
330
20
100
AcDbEntity
  8
0
  6
Continuous
 62
     3
100
AcDbLine
 10
318.339
 20
326.436
 30
0.0
 11
318.339
 21
328.936
 31
0.0
  0
LINE
  5
1E4
330
20
100
AcDbEntity
  8
0
  6
Continuous
 62
     3
100
AcDbLine
 10
318.339
 20
318.936
 30
0.0
 11
318.339
 21
321.436
 31
0.0
  0
LINE
  5
1E5
330
20
100
AcDbEntity
  8
0
  6
Continuous
 62
     3
100
AcDbLine
 10
296.839
 20
355.578700908
 30
0.0
 11
296.839
 21
358.186
 31
0.0
  0
LINE
  5
1E6
330
20
100
AcDbEntity
  8
0
  6
Continuous
 62
     3
100
AcDbLine
 10
296.839
 20
349.686
 30
0.0
 11
296.839
 21
352.293299092
 31
0.0
  0
LINE
  5
1E7
330
20
100
AcDbEntity
  8
0
  6
Continuous
 62
     3
100
AcDbLine
 10
274.739
 20
357.936
 30
0.0
 11
290.439
 21
357.936
 31
0.0
  0
LINE
  5
1E8
330
20
100
AcDbEntity
  8
0
  6
Continuous
 62
     3
100
AcDbLine
 10
274.739
 20
349.936
 30
0.0
 11
290.439
 21
349.936
 31
0.0
  0
CIRCLE
  5
1E9
330
20
100
AcDbEntity
  8
0
  6
Continuous
 62
     3
100
AcDbCircle
 10
284.089
 20
358.836
 30
0.0
 40
0.95
  0
LINE
  5
1EA
330
20
100
AcDbEntity
  8
0
  6
Continuous
 62
     3
100
AcDbLine
 10
283.139
 20
358.836
 30
0.0
 11
283.139
 21
353.936
 31
0.0
  0
LINE
  5
1EB
330
20
100
AcDbEntity
  8
0
  6
Continuous
 62
     3
100
AcDbLine
 10
285.039
 20
358.836
 30
0.0
 11
285.039
 21
353.936
 31
0.0
  0
CIRCLE
  5
1EC
330
20
100
AcDbEntity
  8
0
  6
Continuous
 62
     3
100
AcDbCircle
 10
284.089
 20
349.036
 30
0.0
 40
0.95
  0
LINE
  5
1ED
330
20
100
AcDbEntity
  8
0
  6
Continuous
 62
     3
100
AcDbLine
 10
283.139
 20
349.036
 30
0.0
 11
283.139
 21
353.936
 31
0.0
  0
LINE
  5
1EE
330
20
100
AcDbEntity
  8
0
  6
Continuous
 62
     3
100
AcDbLine
 10
285.039
 20
349.036
 30
0.0
 11
285.039
 21
353.936
 31
0.0
  0
LINE
  5
1EF
330
20
100
AcDbEntity
  8
0
  6
Continuous
 62
     3
100
AcDbLine
 10
280.339
 20
323.436
 30
0.0
 11
280.339
 21
327.436
 31
0.0
  0
LINE
  5
1F0
330
20
100
AcDbEntity
  8
0
  6
Continuous
 62
     3
100
AcDbLine
 10
306.339
 20
323.436
 30
0.0
 11
306.339
 21
327.436
 31
0.0
  0
LINE
  5
1F1
330
20
100
AcDbEntity
  8
0
  6
Continuous
 62
     3
100
AcDbLine
 10
281.439
 20
327.436
 30
0.0
 11
280.339
 21
327.436
 31
0.0
  0
LINE
  5
1F2
330
20
100
AcDbEntity
  8
0
  6
Continuous
 62
     3
100
AcDbLine
 10
306.339
 20
327.436
 30
0.0
 11
305.239
 21
327.436
 31
0.0
  0
LINE
  5
1F3
330
20
100
AcDbEntity
  8
0
  6
Continuous
 62
     3
100
AcDbLine
 10
289.339
 20
341.936
 30
0.0
 11
289.339
 21
344.436
 31
0.0
  0
LINE
  5
1F4
330
20
100
AcDbEntity
  8
0
  6
Continuous
 62
     3
100
AcDbLine
 10
297.339
 20
341.936
 30
0.0
 11
297.339
 21
344.436
 31
0.0
  0
LINE
  5
1F5
330
20
100
AcDbEntity
  8
0
  6
Continuous
 62
     3
100
AcDbLine
 10
281.439
 20
327.436
 30
0.0
 11
281.439
 21
334.936
 31
0.0
  0
LINE
  5
1F6
330
20
100
AcDbEntity
  8
0
  6
Continuous
 62
     3
100
AcDbLine
 10
281.939
 20
335.436
 30
0.0
 11
287.839
 21
335.436
 31
0.0
  0
LINE
  5
1F7
330
20
100
AcDbEntity
  8
0
  6
Continuous
 62
     3
100
AcDbLine
 10
281.439
 20
334.936
 30
0.0
 11
281.939
 21
335.436
 31
0.0
  0
LWPOLYLINE
  5
1F8
330
20
100
AcDbEntity
  8
0
  6
Continuous
 62
     3
100
AcDbPolyline
 90
        3
 70
     0
 43
0.0
 10
305.239
 20
327.436
 10
305.239
 20
334.936
 10
304.739
 20
335.436
  0
LINE
  5
1FD
330
20
100
AcDbEntity
  8
0
  6
Continuous
 62
     3
100
AcDbLine
 10
287.839
 20
341.636
 30
0.0
 11
287.839
 21
335.436
 31
0.0
  0
LINE
  5
1FE
330
20
100
AcDbEntity
  8
0
  6
Continuous
 62
     3
100
AcDbLine
 10
288.139
 20
341.936
 30
0.0
 11
289.339
 21
341.936
 31
0.0
  0
LINE
  5
1FF
330
20
100
AcDbEntity
  8
0
  6
Continuous
 62
     3
100
AcDbLine
 10
287.839
 20
341.636
 30
0.0
 11
288.139
 21
341.936
 31
0.0
  0
LINE
  5
200
330
20
100
AcDbEntity
  8
0
  6
Continuous
 62
     3
100
AcDbLine
 10
289.339
 20
344.436
 30
0.0
 11
288.139
 21
344.436
 31
0.0
  0
LINE
  5
201
330
20
100
AcDbEntity
  8
0
  6
Continuous
 62
     3
100
AcDbLine
 10
287.839
 20
344.736
 30
0.0
 11
288.139
 21
344.436
 31
0.0
  0
LINE
  5
202
330
20
100
AcDbEntity
  8
0
  6
Continuous
 62
     3
100
AcDbLine
 10
287.839
 20
345.136
 30
0.0
 11
287.839
 21
344.736
 31
0.0
  0
LINE
  5
203
330
20
100
AcDbEntity
  8
0
  6
Continuous
 62
     3
100
AcDbLine
 10
288.139
 20
345.436
 30
0.0
 11
287.839
 21
345.136
 31
0.0
  0
LINE
  5
204
330
20
100
AcDbEntity
  8
0
  6
Continuous
 62
     3
100
AcDbLine
 10
298.539
 20
345.436
 30
0.0
 11
288.139
 21
345.436
 31
0.0
  0
LINE
  5
205
330
20
100
AcDbEntity
  8
0
  6
Continuous
 62
     3
100
AcDbLine
 10
298.839
 20
345.136
 30
0.0
 11
298.539
 21
345.436
 31
0.0
  0
LINE
  5
206
330
20
100
AcDbEntity
  8
0
  6
Continuous
 62
     3
100
AcDbLine
 10
297.339
 20
344.436
 30
0.0
 11
298.539
 21
344.436
 31
0.0
  0
LINE
  5
207
330
20
100
AcDbEntity
  8
0
  6
Continuous
 62
     3
100
AcDbLine
 10
298.839
 20
344.736
 30
0.0
 11
298.839
 21
345.136
 31
0.0
  0
LINE
  5
208
330
20
100
AcDbEntity
  8
0
  6
Continuous
 62
     3
100
AcDbLine
 10
298.539
 20
344.436
 30
0.0
 11
298.839
 21
344.736
 31
0.0
  0
LINE
  5
209
330
20
100
AcDbEntity
  8
0
  6
Continuous
 62
     3
100
AcDbLine
 10
298.539
 20
341.936
 30
0.0
 11
297.339
 21
341.936
 31
0.0
  0
LINE
  5
20A
330
20
100
AcDbEntity
  8
0
  6
Continuous
 62
     3
100
AcDbLine
 10
298.839
 20
341.636
 30
0.0
 11
298.539
 21
341.936
 31
0.0
  0
LINE
  5
20B
330
20
100
AcDbEntity
  8
0
  6
Continuous
 62
     3
100
AcDbLine
 10
298.839
 20
335.436
 30
0.0
 11
304.739
 21
335.436
 31
0.0
  0
LINE
  5
20C
330
20
100
AcDbEntity
  8
0
  6
Continuous
 62
     3
100
AcDbLine
 10
298.839
 20
341.636
 30
0.0
 11
298.839
 21
335.436
 31
0.0
  0
LINE
  5
20D
330
20
100
AcDbEntity
  8
0
  6
Continuous
 62
     3
100
AcDbLine
 10
280.339
 20
323.436
 30
0.0
 11
306.339
 21
323.436
 31
0.0
  0
CIRCLE
  5
20E
330
20
100
AcDbEntity
  8
0
  6
Continuous
 62
     3
100
AcDbCircle
 10
288.439
 20
343.186
 30
0.0
 40
0.95
  0
LINE
  5
20F
330
20
100
AcDbEntity
  8
0
  6
Continuous
 62
     3
100
AcDbLine
 10
288.439
 20
342.236
 30
0.0
 11
293.339
 21
342.236
 31
0.0
  0
LINE
  5
210
330
20
100
AcDbEntity
  8
0
  6
Continuous
 62
     3
100
AcDbLine
 10
288.439
 20
344.1359999999999
 30
0.0
 11
293.339
 21
344.1359999999999
 31
0.0
  0
CIRCLE
  5
211
330
20
100
AcDbEntity
  8
0
  6
Continuous
 62
     3
100
AcDbCircle
 10
298.239
 20
343.186
 30
0.0
 40
0.95
  0
LINE
  5
212
330
20
100
AcDbEntity
  8
0
  6
Continuous
 62
     3
100
AcDbLine
 10
298.239
 20
342.236
 30
0.0
 11
293.339
 21
342.236
 31
0.0
  0
LINE
  5
213
330
20
100
AcDbEntity
  8
0
  6
Continuous
 62
     3
100
AcDbLine
 10
298.239
 20
344.1359999999999
 30
0.0
 11
293.339
 21
344.1359999999999
 31
0.0
  0
LINE
  5
214
330
20
100
AcDbEntity
  8
0
  6
Continuous
 62
     3
100
AcDbLine
 10
289.305666667
 20
314.936
 30
0.0
 11
297.372333333
 21
314.936
 31
0.0
  0
LINE
  5
215
330
20
100
AcDbEntity
  8
0
  6
Continuous
 62
     3
100
AcDbLine
 10
285.089
 20
319.936
 30
0.0
 11
285.089
 21
321.936
 31
0.0
  0
LINE
  5
216
330
20
100
AcDbEntity
  8
0
  6
Continuous
 62
     3
100
AcDbLine
 10
301.589
 20
319.936
 30
0.0
 11
301.589
 21
321.936
 31
0.0
  0
LINE
  5
217
330
20
100
AcDbEntity
  8
0
  6
Continuous
 62
     3
100
AcDbLine
 10
285.089
 20
137.936
 30
0.0
 11
285.089
 21
135.936
 31
0.0
  0
LINE
  5
218
330
20
100
AcDbEntity
  8
0
  6
Continuous
 62
     3
100
AcDbLine
 10
301.589
 20
137.936
 30
0.0
 11
301.589
 21
135.936
 31
0.0
  0
LINE
  5
219
330
20
100
AcDbEntity
  8
0
  6
Continuous
 62
     3
100
AcDbLine
 10
278.339
 20
101.436
 30
0.0
 11
278.339
 21
106.436
 31
0.0
  0
LINE
  5
21A
330
20
100
AcDbEntity
  8
0
  6
Continuous
 62
     3
100
AcDbLine
 10
282.339
 20
101.436
 30
0.0
 11
277.339
 21
101.436
 31
0.0
  0
LINE
  5
21B
330
20
100
AcDbEntity
  8
0
  6
Continuous
 62
     3
100
AcDbLine
 10
282.339
 20
106.436
 30
0.0
 11
277.339
 21
106.436
 31
0.0
  0
LINE
  5
21C
330
20
100
AcDbEntity
  8
0
  6
Continuous
 62
     3
100
AcDbLine
 10
277.339
 20
99.43600000000001
 30
0.0
 11
277.339
 21
108.436
 31
0.0
  0
LINE
  5
21D
330
20
100
AcDbEntity
  8
0
  6
Continuous
 62
     3
100
AcDbLine
 10
275.339
 20
108.436
 30
0.0
 11
277.339
 21
108.436
 31
0.0
  0
LINE
  5
21E
330
20
100
AcDbEntity
  8
0
  6
Continuous
 62
     3
100
AcDbLine
 10
277.339
 20
99.43600000000001
 30
0.0
 11
275.339
 21
99.43600000000001
 31
0.0
  0
LINE
  5
21F
330
20
100
AcDbEntity
  8
0
  6
Continuous
 62
     3
100
AcDbLine
 10
282.339
 20
101.436
 30
0.0
 11
282.339
 21
106.436
 31
0.0
  0
ARC
  5
220
330
20
100
AcDbEntity
  8
0
  6
Continuous
 62
     3
100
AcDbCircle
 10
276.672333333
 20
97.87382217400001
 30
0.0
 40
4.333333332999999
100
AcDbArc
 50
152.204227504
 51
207.795772496
  0
ARC
  5
221
330
20
100
AcDbEntity
  8
0
  6
Continuous
 62
     3
100
AcDbCircle
 10
270.912276439
 20
97.87382217400001
 30
0.0
 40
4.416162502999999
100
AcDbArc
 50
332.769257336
 51
27.23074266400001
  0
LINE
  5
222
330
20
100
AcDbEntity
  8
0
  6
Continuous
 62
     3
100
AcDbLine
 10
274.839
 20
95.853096231
 30
0.0
 11
272.839
 21
95.853096231
 31
0.0
  0
ARC
  5
223
330
20
100
AcDbEntity
  8
0
  6
Continuous
 62
     3
100
AcDbCircle
 10
288.922333333
 20
103.936
 30
0.0
 40
16.583333333
100
AcDbArc
 50
165.894645945
 51
194.105354055
  0
ARC
  5
224
330
20
100
AcDbEntity
  8
0
  6
Continuous
 62
     3
100
AcDbCircle
 10
276.672333333
 20
109.998177826
 30
0.0
 40
4.333333332999999
100
AcDbArc
 50
152.204227504
 51
207.795772496
  0
ARC
  5
225
330
20
100
AcDbEntity
  8
0
  6
Continuous
 62
     3
100
AcDbCircle
 10
271.005666667
 20
109.998177826
 30
0.0
 40
4.333333332999999
100
AcDbArc
 50
332.204227504
 51
27.795772496
  0
ARC
  5
226
330
20
100
AcDbEntity
  8
0
  6
Continuous
 62
     3
100
AcDbCircle
 10
258.755666667
 20
103.936
 30
0.0
 40
16.583333333
100
AcDbArc
 50
345.894645945
 51
14.105354055
  0
LINE
  5
227
330
20
100
AcDbEntity
  8
0
  6
Continuous
 62
     3
100
AcDbLine
 10
272.839
 20
99.89454811600001
 30
0.0
 11
274.839
 21
99.89454811600001
 31
0.0
  0
LINE
  5
228
330
20
100
AcDbEntity
  8
0
  6
Continuous
 62
     3
100
AcDbLine
 10
272.839
 20
112.018903769
 30
0.0
 11
274.839
 21
112.018903769
 31
0.0
  0
LINE
  5
229
330
20
100
AcDbEntity
  8
0
  6
Continuous
 62
     3
100
AcDbLine
 10
272.339
 20
97.873822999
 30
0.0
 11
272.339
 21
109.998176658
 31
0.0
  0
LINE
  5
22A
330
20
100
AcDbEntity
  8
0
  6
Continuous
 62
     3
100
AcDbLine
 10
275.339
 20
109.998176658
 30
0.0
 11
275.339
 21
97.873822999
 31
0.0
  0
LINE
  5
22B
330
20
100
AcDbEntity
  8
0
  6
Continuous
 62
     3
100
AcDbLine
 10
274.839
 20
107.977451884
 30
0.0
 11
272.839
 21
107.977451884
 31
0.0
  0
LINE
  5
22C
330
20
100
AcDbEntity
  8
0
  6
Continuous
 62
     3
100
AcDbLine
 10
314.339
 20
88.436
 30
0.0
 11
314.339
 21
95.43600000000001
 31
0.0
  0
LINE
  5
22D
330
20
100
AcDbEntity
  8
0
  6
Continuous
 62
     3
100
AcDbLine
 10
314.339
 20
88.436
 30
0.0
 11
315.539
 21
88.536
 31
0.0
  0
LINE
  5
22E
330
20
100
AcDbEntity
  8
0
  6
Continuous
 62
     3
100
AcDbLine
 10
314.339
 20
95.43600000000001
 30
0.0
 11
315.539
 21
95.33599999999999
 31
0.0
  0
ARC
  5
22F
330
20
100
AcDbEntity
  8
0
  6
Continuous
 62
     3
100
AcDbCircle
 10
315.239
 20
93.83599999999999
 30
0.0
 40
1.5
100
AcDbArc
 50
22.4
 51
79.0
  0
ARC
  5
230
330
20
100
AcDbEntity
  8
0
  6
Continuous
 62
     3
100
AcDbCircle
 10
315.239
 20
90.036
 30
0.0
 40
1.5
100
AcDbArc
 50
281.0
 51
337.6
  0
ARC
  5
231
330
20
100
AcDbEntity
  8
0
  6
Continuous
 62
     3
100
AcDbCircle
 10
307.139
 20
91.93600000000001
 30
0.0
 40
9.8
100
AcDbArc
 50
345.7
 51
14.2
  0
LINE
  5
232
330
20
100
AcDbEntity
  8
0
  6
Continuous
 62
     3
100
AcDbLine
 10
302.339
 20
93.136
 30
0.0
 11
302.339
 21
90.736
 31
0.0
  0
LINE
  5
233
330
20
100
AcDbEntity
  8
0
  6
Continuous
 62
     3
100
AcDbLine
 10
303.139
 20
89.936
 30
0.0
 11
302.339
 21
90.736
 31
0.0
  0
LINE
  5
234
330
20
100
AcDbEntity
  8
0
  6
Continuous
 62
     3
100
AcDbLine
 10
303.139
 20
93.93600000000001
 30
0.0
 11
302.339
 21
93.136
 31
0.0
  0
LINE
  5
235
330
20
100
AcDbEntity
  8
0
  6
Continuous
 62
     3
100
AcDbLine
 10
303.139
 20
93.93600000000001
 30
0.0
 11
303.139
 21
89.936
 31
0.0
  0
LINE
  5
236
330
20
100
AcDbEntity
  8
0
  6
Continuous
 62
     3
100
AcDbLine
 10
314.339
 20
89.936
 30
0.0
 11
303.139
 21
89.936
 31
0.0
  0
LINE
  5
237
330
20
100
AcDbEntity
  8
0
  6
Continuous
 62
     3
100
AcDbLine
 10
314.339
 20
93.93600000000001
 30
0.0
 11
303.139
 21
93.93600000000001
 31
0.0
  0
LINE
  5
238
330
20
100
AcDbEntity
  8
0
  6
Continuous
 62
     3
100
AcDbLine
 10
314.339
 20
112.436
 30
0.0
 11
314.339
 21
119.436
 31
0.0
  0
LINE
  5
239
330
20
100
AcDbEntity
  8
0
  6
Continuous
 62
     3
100
AcDbLine
 10
314.339
 20
112.436
 30
0.0
 11
315.539
 21
112.536
 31
0.0
  0
LINE
  5
23A
330
20
100
AcDbEntity
  8
0
  6
Continuous
 62
     3
100
AcDbLine
 10
314.339
 20
119.436
 30
0.0
 11
315.539
 21
119.336
 31
0.0
  0
ARC
  5
23B
330
20
100
AcDbEntity
  8
0
  6
Continuous
 62
     3
100
AcDbCircle
 10
315.239
 20
117.836
 30
0.0
 40
1.5
100
AcDbArc
 50
22.4
 51
79.0
  0
ARC
  5
23C
330
20
100
AcDbEntity
  8
0
  6
Continuous
 62
     3
100
AcDbCircle
 10
315.239
 20
114.036
 30
0.0
 40
1.5
100
AcDbArc
 50
281.0
 51
337.6
  0
ARC
  5
23D
330
20
100
AcDbEntity
  8
0
  6
Continuous
 62
     3
100
AcDbCircle
 10
307.139
 20
115.936
 30
0.0
 40
9.8
100
AcDbArc
 50
345.7
 51
14.2
  0
LINE
  5
23E
330
20
100
AcDbEntity
  8
0
  6
Continuous
 62
     3
100
AcDbLine
 10
302.339
 20
117.136
 30
0.0
 11
302.339
 21
114.736
 31
0.0
  0
LINE
  5
23F
330
20
100
AcDbEntity
  8
0
  6
Continuous
 62
     3
100
AcDbLine
 10
303.139
 20
113.936
 30
0.0
 11
302.339
 21
114.736
 31
0.0
  0
LINE
  5
240
330
20
100
AcDbEntity
  8
0
  6
Continuous
 62
     3
100
AcDbLine
 10
303.139
 20
117.936
 30
0.0
 11
302.339
 21
117.136
 31
0.0
  0
LINE
  5
241
330
20
100
AcDbEntity
  8
0
  6
Continuous
 62
     3
100
AcDbLine
 10
303.139
 20
117.936
 30
0.0
 11
303.139
 21
113.936
 31
0.0
  0
LINE
  5
242
330
20
100
AcDbEntity
  8
0
  6
Continuous
 62
     3
100
AcDbLine
 10
314.339
 20
113.936
 30
0.0
 11
303.139
 21
113.936
 31
0.0
  0
LINE
  5
243
330
20
100
AcDbEntity
  8
0
  6
Continuous
 62
     3
100
AcDbLine
 10
314.339
 20
117.936
 30
0.0
 11
303.139
 21
117.936
 31
0.0
  0
LINE
  5
244
330
20
100
AcDbEntity
  8
0
  6
Continuous
 62
     3
100
AcDbLine
 10
250.739
 20
350.936
 30
0.0
 11
270.739
 21
350.936
 31
0.0
  0
LINE
  5
245
330
20
100
AcDbEntity
  8
0
  6
Continuous
 62
     3
100
AcDbLine
 10
250.739
 20
353.936
 30
0.0
 11
250.739
 21
337.936
 31
0.0
  0
LINE
  5
246
330
20
100
AcDbEntity
  8
0
  6
Continuous
 62
     3
100
AcDbLine
 10
250.739
 20
353.936
 30
0.0
 11
250.739
 21
369.936
 31
0.0
  0
LINE
  5
247
330
20
100
AcDbEntity
  8
0
  6
Continuous
 62
     3
100
AcDbLine
 10
289.339
 20
326.936
 30
0.0
 11
293.339
 21
326.936
 31
0.0
  0
LINE
  5
248
330
20
100
AcDbEntity
  8
0
  6
Continuous
 62
     3
100
AcDbLine
 10
297.339
 20
326.936
 30
0.0
 11
293.339
 21
326.936
 31
0.0
  0
LINE
  5
249
330
20
100
AcDbEntity
  8
0
  6
Continuous
 62
     3
100
AcDbLine
 10
301.339
 20
326.936
 30
0.0
 11
293.339
 21
326.936
 31
0.0
  0
LINE
  5
24A
330
20
100
AcDbEntity
  8
0
  6
Continuous
 62
     3
100
AcDbLine
 10
285.339
 20
326.936
 30
0.0
 11
293.339
 21
326.936
 31
0.0
  0
LINE
  5
24B
330
20
100
AcDbEntity
  8
0
  6
Continuous
 62
     3
100
AcDbLine
 10
285.089
 20
323.436
 30
0.0
 11
285.089
 21
329.436
 31
0.0
  0
LINE
  5
24C
330
20
100
AcDbEntity
  8
0
  6
Continuous
 62
     3
100
AcDbLine
 10
301.589
 20
323.436
 30
0.0
 11
301.589
 21
329.436
 31
0.0
  0
LINE
  5
24D
330
20
100
AcDbEntity
  8
0
  6
Continuous
 62
     3
100
AcDbLine
 10
285.089
 20
329.436
 30
0.0
 11
301.589
 21
329.436
 31
0.0
  0
LINE
  5
24E
330
20
100
AcDbEntity
  8
0
  6
Continuous
 62
     3
100
AcDbLine
 10
296.339
 20
329.436
 30
0.0
 11
296.339
 21
345.436
 31
0.0
  0
LINE
  5
24F
330
20
100
AcDbEntity
  8
0
  6
Continuous
 62
     3
100
AcDbLine
 10
290.339
 20
329.436
 30
0.0
 11
290.339
 21
345.436
 31
0.0
  0
LINE
  5
250
330
20
100
AcDbEntity
  8
0
  6
Continuous
 62
     3
100
AcDbLine
 10
306.339
 20
132.436
 30
0.0
 11
306.339
 21
128.436
 31
0.0
  0
LINE
  5
251
330
20
100
AcDbEntity
  8
0
  6
Continuous
 62
     3
100
AcDbLine
 10
280.339
 20
132.436
 30
0.0
 11
280.339
 21
128.436
 31
0.0
  0
LINE
  5
252
330
20
100
AcDbEntity
  8
0
  6
Continuous
 62
     3
100
AcDbLine
 10
305.239
 20
128.436
 30
0.0
 11
306.339
 21
128.436
 31
0.0
  0
LINE
  5
253
330
20
100
AcDbEntity
  8
0
  6
Continuous
 62
     3
100
AcDbLine
 10
280.339
 20
128.436
 30
0.0
 11
281.439
 21
128.436
 31
0.0
  0
LINE
  5
254
330
20
100
AcDbEntity
  8
0
  6
Continuous
 62
     3
100
AcDbLine
 10
297.339
 20
113.936
 30
0.0
 11
297.339
 21
111.436
 31
0.0
  0
LINE
  5
255
330
20
100
AcDbEntity
  8
0
  6
Continuous
 62
     3
100
AcDbLine
 10
289.339
 20
113.936
 30
0.0
 11
289.339
 21
111.436
 31
0.0
  0
LINE
  5
256
330
20
100
AcDbEntity
  8
0
  6
Continuous
 62
     3
100
AcDbLine
 10
300.839
 20
124.436
 30
0.0
 11
303.839
 21
124.436
 31
0.0
  0
LINE
  5
257
330
20
100
AcDbEntity
  8
0
  6
Continuous
 62
     3
100
AcDbLine
 10
301.139
 20
125.436
 30
0.0
 11
303.539
 21
125.436
 31
0.0
  0
LINE
  5
258
330
20
100
AcDbEntity
  8
0
  6
Continuous
 62
     3
100
AcDbLine
 10
302.339
 20
126.136
 30
0.0
 11
303.539
 21
125.436
 31
0.0
  0
LINE
  5
259
330
20
100
AcDbEntity
  8
0
  6
Continuous
 62
     3
100
AcDbLine
 10
301.139
 20
125.436
 30
0.0
 11
302.339
 21
126.136
 31
0.0
  0
LINE
  5
25A
330
20
100
AcDbEntity
  8
0
  6
Continuous
 62
     3
100
AcDbLine
 10
303.539
 20
125.436
 30
0.0
 11
303.539
 21
120.436
 31
0.0
  0
LINE
  5
25B
330
20
100
AcDbEntity
  8
0
  6
Continuous
 62
     3
100
AcDbLine
 10
301.139
 20
120.436
 30
0.0
 11
301.139
 21
125.436
 31
0.0
  0
LINE
  5
25C
330
20
100
AcDbEntity
  8
0
  6
Continuous
 62
     3
100
AcDbLine
 10
282.839
 20
124.436
 30
0.0
 11
285.839
 21
124.436
 31
0.0
  0
LINE
  5
25D
330
20
100
AcDbEntity
  8
0
  6
Continuous
 62
     3
100
AcDbLine
 10
283.139
 20
125.436
 30
0.0
 11
285.539
 21
125.436
 31
0.0
  0
LINE
  5
25E
330
20
100
AcDbEntity
  8
0
  6
Continuous
 62
     3
100
AcDbLine
 10
284.339
 20
126.136
 30
0.0
 11
285.539
 21
125.436
 31
0.0
  0
LINE
  5
25F
330
20
100
AcDbEntity
  8
0
  6
Continuous
 62
     3
100
AcDbLine
 10
283.139
 20
125.436
 30
0.0
 11
284.339
 21
126.136
 31
0.0
  0
LINE
  5
260
330
20
100
AcDbEntity
  8
0
  6
Continuous
 62
     3
100
AcDbLine
 10
285.539
 20
125.436
 30
0.0
 11
285.539
 21
120.436
 31
0.0
  0
LINE
  5
261
330
20
100
AcDbEntity
  8
0
  6
Continuous
 62
     3
100
AcDbLine
 10
283.139
 20
120.436
 30
0.0
 11
283.139
 21
125.436
 31
0.0
  0
LINE
  5
262
330
20
100
AcDbEntity
  8
0
  6
Continuous
 62
     3
100
AcDbLine
 10
305.239
 20
128.436
 30
0.0
 11
305.239
 21
120.936
 31
0.0
  0
LINE
  5
263
330
20
100
AcDbEntity
  8
0
  6
Continuous
 62
     3
100
AcDbLine
 10
304.739
 20
120.436
 30
0.0
 11
298.839
 21
120.436
 31
0.0
  0
LINE
  5
264
330
20
100
AcDbEntity
  8
0
  6
Continuous
 62
     3
100
AcDbLine
 10
305.239
 20
120.936
 30
0.0
 11
304.739
 21
120.436
 31
0.0
  0
LINE
  5
265
330
20
100
AcDbEntity
  8
0
  6
Continuous
 62
     3
100
AcDbLine
 10
281.439
 20
128.436
 30
0.0
 11
281.439
 21
120.936
 31
0.0
  0
LINE
  5
266
330
20
100
AcDbEntity
  8
0
  6
Continuous
 62
     3
100
AcDbLine
 10
281.439
 20
120.936
 30
0.0
 11
281.939
 21
120.436
 31
0.0
  0
LINE
  5
267
330
20
100
AcDbEntity
  8
0
  6
Continuous
 62
     3
100
AcDbLine
 10
298.839
 20
114.236
 30
0.0
 11
298.839
 21
120.436
 31
0.0
  0
LINE
  5
268
330
20
100
AcDbEntity
  8
0
  6
Continuous
 62
     3
100
AcDbLine
 10
298.539
 20
113.936
 30
0.0
 11
297.339
 21
113.936
 31
0.0
  0
LINE
  5
269
330
20
100
AcDbEntity
  8
0
  6
Continuous
 62
     3
100
AcDbLine
 10
298.839
 20
114.236
 30
0.0
 11
298.539
 21
113.936
 31
0.0
  0
LINE
  5
26A
330
20
100
AcDbEntity
  8
0
  6
Continuous
 62
     3
100
AcDbLine
 10
297.339
 20
111.436
 30
0.0
 11
298.539
 21
111.436
 31
0.0
  0
LINE
  5
26B
330
20
100
AcDbEntity
  8
0
  6
Continuous
 62
     3
100
AcDbLine
 10
298.839
 20
111.136
 30
0.0
 11
298.539
 21
111.436
 31
0.0
  0
LINE
  5
26C
330
20
100
AcDbEntity
  8
0
  6
Continuous
 62
     3
100
AcDbLine
 10
298.839
 20
110.736
 30
0.0
 11
298.839
 21
111.136
 31
0.0
  0
LINE
  5
26D
330
20
100
AcDbEntity
  8
0
  6
Continuous
 62
     3
100
AcDbLine
 10
298.539
 20
110.436
 30
0.0
 11
298.839
 21
110.736
 31
0.0
  0
LINE
  5
26E
330
20
100
AcDbEntity
  8
0
  6
Continuous
 62
     3
100
AcDbLine
 10
288.139
 20
110.436
 30
0.0
 11
298.539
 21
110.436
 31
0.0
  0
LINE
  5
26F
330
20
100
AcDbEntity
  8
0
  6
Continuous
 62
     3
100
AcDbLine
 10
287.839
 20
110.736
 30
0.0
 11
288.139
 21
110.436
 31
0.0
  0
LINE
  5
270
330
20
100
AcDbEntity
  8
0
  6
Continuous
 62
     3
100
AcDbLine
 10
289.339
 20
111.436
 30
0.0
 11
288.139
 21
111.436
 31
0.0
  0
LINE
  5
271
330
20
100
AcDbEntity
  8
0
  6
Continuous
 62
     3
100
AcDbLine
 10
287.839
 20
111.136
 30
0.0
 11
287.839
 21
110.736
 31
0.0
  0
LINE
  5
272
330
20
100
AcDbEntity
  8
0
  6
Continuous
 62
     3
100
AcDbLine
 10
288.139
 20
111.436
 30
0.0
 11
287.839
 21
111.136
 31
0.0
  0
LINE
  5
273
330
20
100
AcDbEntity
  8
0
  6
Continuous
 62
     3
100
AcDbLine
 10
288.139
 20
113.936
 30
0.0
 11
289.339
 21
113.936
 31
0.0
  0
LINE
  5
274
330
20
100
AcDbEntity
  8
0
  6
Continuous
 62
     3
100
AcDbLine
 10
287.839
 20
114.236
 30
0.0
 11
288.139
 21
113.936
 31
0.0
  0
LINE
  5
275
330
20
100
AcDbEntity
  8
0
  6
Continuous
 62
     3
100
AcDbLine
 10
287.839
 20
120.436
 30
0.0
 11
281.939
 21
120.436
 31
0.0
  0
LINE
  5
276
330
20
100
AcDbEntity
  8
0
  6
Continuous
 62
     3
100
AcDbLine
 10
287.839
 20
114.236
 30
0.0
 11
287.839
 21
120.436
 31
0.0
  0
LINE
  5
277
330
20
100
AcDbEntity
  8
0
  6
Continuous
 62
     3
100
AcDbLine
 10
306.339
 20
132.436
 30
0.0
 11
280.339
 21
132.436
 31
0.0
  0
CIRCLE
  5
278
330
20
100
AcDbEntity
  8
0
  6
Continuous
 62
     3
100
AcDbCircle
 10
288.439
 20
112.686
 30
0.0
 40
0.95
  0
LINE
  5
279
330
20
100
AcDbEntity
  8
0
  6
Continuous
 62
     3
100
AcDbLine
 10
288.439
 20
111.736
 30
0.0
 11
293.339
 21
111.736
 31
0.0
  0
LINE
  5
27A
330
20
100
AcDbEntity
  8
0
  6
Continuous
 62
     3
100
AcDbLine
 10
288.439
 20
113.636
 30
0.0
 11
293.339
 21
113.636
 31
0.0
  0
CIRCLE
  5
27B
330
20
100
AcDbEntity
  8
0
  6
Continuous
 62
     3
100
AcDbCircle
 10
298.239
 20
112.686
 30
0.0
 40
0.95
  0
LINE
  5
27C
330
20
100
AcDbEntity
  8
0
  6
Continuous
 62
     3
100
AcDbLine
 10
298.239
 20
111.736
 30
0.0
 11
293.339
 21
111.736
 31
0.0
  0
LINE
  5
27D
330
20
100
AcDbEntity
  8
0
  6
Continuous
 62
     3
100
AcDbLine
 10
298.239
 20
113.636
 30
0.0
 11
293.339
 21
113.636
 31
0.0
  0
LINE
  5
27E
330
20
100
AcDbEntity
  8
0
  6
Continuous
 62
     3
100
AcDbLine
 10
288.712333333
 20
140.936
 30
0.0
 11
297.965666667
 21
140.936
 31
0.0
  0
LINE
  5
27F
330
20
100
AcDbEntity
  8
0
  6
Continuous
 62
     3
100
AcDbLine
 10
288.712333333
 20
128.936
 30
0.0
 11
293.339
 21
128.936
 31
0.0
  0
LINE
  5
280
330
20
100
AcDbEntity
  8
0
  6
Continuous
 62
     3
100
AcDbLine
 10
297.965666667
 20
128.936
 30
0.0
 11
293.339
 21
128.936
 31
0.0
  0
LINE
  5
281
330
20
100
AcDbEntity
  8
0
  6
Continuous
 62
     3
100
AcDbLine
 10
301.339
 20
128.936
 30
0.0
 11
293.339
 21
128.936
 31
0.0
  0
LINE
  5
282
330
20
100
AcDbEntity
  8
0
  6
Continuous
 62
     3
100
AcDbLine
 10
285.339
 20
128.936
 30
0.0
 11
293.339
 21
128.936
 31
0.0
  0
LINE
  5
283
330
20
100
AcDbEntity
  8
0
  6
Continuous
 62
     3
100
AcDbLine
 10
285.089
 20
132.436
 30
0.0
 11
285.089
 21
126.436
 31
0.0
  0
LINE
  5
284
330
20
100
AcDbEntity
  8
0
  6
Continuous
 62
     3
100
AcDbLine
 10
301.589
 20
132.436
 30
0.0
 11
301.589
 21
126.436
 31
0.0
  0
LINE
  5
285
330
20
100
AcDbEntity
  8
0
  6
Continuous
 62
     3
100
AcDbLine
 10
301.589
 20
126.436
 30
0.0
 11
285.089
 21
126.436
 31
0.0
  0
LINE
  5
286
330
20
100
AcDbEntity
  8
0
  6
Continuous
 62
     3
100
AcDbLine
 10
301.339
 20
326.936
 30
0.0
 11
301.339
 21
128.936
 31
0.0
  0
LINE
  5
287
330
20
100
AcDbEntity
  8
0
  6
Continuous
 62
     3
100
AcDbLine
 10
285.339
 20
128.936
 30
0.0
 11
285.339
 21
326.936
 31
0.0
  0
LINE
  5
288
330
20
100
AcDbEntity
  8
0
  6
Continuous
 62
     3
100
AcDbLine
 10
290.339
 20
126.436
 30
0.0
 11
290.339
 21
110.436
 31
0.0
  0
LINE
  5
289
330
20
100
AcDbEntity
  8
0
  6
Continuous
 62
     3
100
AcDbLine
 10
296.339
 20
126.436
 30
0.0
 11
296.339
 21
110.436
 31
0.0
  0
LINE
  5
28A
330
20
100
AcDbEntity
  8
0
  6
Continuous
 62
     3
100
AcDbLine
 10
289.289
 20
203.833
 30
0.0
 11
289.289
 21
200.333
 31
0.0
  0
LINE
  5
28B
330
20
100
AcDbEntity
  8
0
  6
Continuous
 62
     3
100
AcDbLine
 10
297.389
 20
200.333
 30
0.0
 11
297.389
 21
203.833
 31
0.0
  0
LINE
  5
28C
330
20
100
AcDbEntity
  8
0
  6
Continuous
 62
     3
100
AcDbLine
 10
297.389
 20
203.833
 30
0.0
 11
289.289
 21
203.833
 31
0.0
  0
LINE
  5
28D
330
20
100
AcDbEntity
  8
0
  6
Continuous
 62
     3
100
AcDbLine
 10
297.389
 20
200.333
 30
0.0
 11
296.339
 21
200.333
 31
0.0
  0
LINE
  5
28E
330
20
100
AcDbEntity
  8
0
  6
Continuous
 62
     3
100
AcDbLine
 10
290.339
 20
200.333
 30
0.0
 11
289.289
 21
200.333
 31
0.0
  0
LINE
  5
28F
330
20
100
AcDbEntity
  8
0
  6
Continuous
 62
     3
100
AcDbLine
 10
290.339
 20
200.333
 30
0.0
 11
290.339
 21
194.333
 31
0.0
  0
LINE
  5
290
330
20
100
AcDbEntity
  8
0
  6
Continuous
 62
     3
100
AcDbLine
 10
296.339
 20
200.333
 30
0.0
 11
296.339
 21
194.333
 31
0.0
  0
LINE
  5
291
330
20
100
AcDbEntity
  8
0
  6
Continuous
 62
     3
100
AcDbLine
 10
290.339
 20
194.333
 30
0.0
 11
293.339
 21
189.633
 31
0.0
  0
LINE
  5
292
330
20
100
AcDbEntity
  8
0
  6
Continuous
 62
     3
100
AcDbLine
 10
296.339
 20
194.333
 30
0.0
 11
293.339
 21
189.633
 31
0.0
  0
LINE
  5
293
330
20
100
AcDbEntity
  8
0
  6
Continuous
 62
     3
100
AcDbLine
 10
289.339
 20
128.936
 30
0.0
 11
288.639
 21
326.936
 31
0.0
  0
LINE
  5
294
330
20
100
AcDbEntity
  8
0
  6
Continuous
 62
     3
100
AcDbLine
 10
297.339
 20
128.936
 30
0.0
 11
298.039
 21
326.936
 31
0.0
  0
ARC
  5
295
330
20
100
AcDbEntity
  8
0
  6
Continuous
 62
     3
100
AcDbCircle
 10
360.798353263
 20
103.936
 30
0.0
 40
19.774353263
100
AcDbArc
 50
153.81256986
 51
206.18743014
  0
LINE
  5
296
330
20
100
AcDbEntity
  8
0
  6
Continuous
 62
     3
100
AcDbLine
 10
341.024
 20
115.97
 30
0.0
 11
341.024
 21
91.902
 31
0.0
  0
ARC
  5
297
330
20
100
AcDbEntity
  8
0
  6
Continuous
 62
     3
100
AcDbCircle
 10
345.948919236
 20
116.715878841
 30
0.0
 40
4.981080678999999
100
AcDbArc
 50
125.988003007
 51
234.462456173
  0
ARC
  5
298
330
20
100
AcDbEntity
  8
0
  6
Continuous
 62
     3
100
AcDbCircle
 10
345.948919236
 20
91.15612115899999
 30
0.0
 40
4.981080678999999
100
AcDbArc
 50
125.537543827
 51
234.011996993
  0
LINE
  5
299
330
20
100
AcDbEntity
  8
0
  6
Continuous
 62
     3
100
AcDbLine
 10
353.0116
 20
112.6626
 30
0.0
 11
343.043223855
 21
112.6626
 31
0.0
  0
LINE
  5
29A
330
20
100
AcDbEntity
  8
0
  6
Continuous
 62
     3
100
AcDbLine
 10
353.0116
 20
95.20940000000001
 30
0.0
 11
343.041548451
 21
95.20940000000001
 31
0.0
  0
LINE
  5
29B
330
20
100
AcDbEntity
  8
0
  6
Continuous
 62
     3
100
AcDbLine
 10
353.0116
 20
120.7774
 30
0.0
 11
343.053734377
 21
120.7774
 31
0.0
  0
LINE
  5
29C
330
20
100
AcDbEntity
  8
0
  6
Continuous
 62
     3
100
AcDbLine
 10
353.0116
 20
87.09459999999999
 30
0.0
 11
343.053734377
 21
87.09459999999999
 31
0.0
  0
LINE
  5
29D
330
20
100
AcDbEntity
  8
0
  6
Continuous
 62
     3
100
AcDbLine
 10
355.024
 20
91.902
 30
0.0
 11
355.024
 21
115.97
 31
0.0
  0
ARC
  5
29E
330
20
100
AcDbEntity
  8
0
  6
Continuous
 62
     3
100
AcDbCircle
 10
350.0842581130001
 20
116.709678392
 30
0.0
 40
4.994814713999999
100
AcDbArc
 50
305.879053051
 51
53.91621231100001
  0
ARC
  5
29F
330
20
100
AcDbEntity
  8
0
  6
Continuous
 62
     3
100
AcDbCircle
 10
350.0842581130001
 20
91.162321608
 30
0.0
 40
4.994814713999999
100
AcDbArc
 50
306.083787689
 51
54.12094694899998
  0
ARC
  5
2A0
330
20
100
AcDbEntity
  8
0
  6
Continuous
 62
     3
100
AcDbCircle
 10
335.266981113
 20
103.936
 30
0.0
 40
19.774353263
100
AcDbArc
 50
333.81256986
 51
26.18743014
  0
LINE
  5
2A1
330
20
100
AcDbEntity
  8
0
  6
Continuous
 62
     3
100
AcDbLine
 10
355.024
 20
113.936732723
 30
0.0
 11
364.679
 21
113.936732723
 31
0.0
  0
LINE
  5
2A2
330
20
100
AcDbEntity
  8
0
  6
Continuous
 62
     3
100
AcDbLine
 10
365.539
 20
113.076732723
 30
0.0
 11
365.539
 21
103.936
 31
0.0
  0
LINE
  5
2A3
330
20
100
AcDbEntity
  8
0
  6
Continuous
 62
     3
100
AcDbLine
 10
364.679
 20
113.936732723
 30
0.0
 11
365.539
 21
113.076732723
 31
0.0
  0
LINE
  5
2A4
330
20
100
AcDbEntity
  8
0
  6
Continuous
 62
     3
100
AcDbLine
 10
355.024
 20
93.93526727700001
 30
0.0
 11
364.679
 21
93.93526727700001
 31
0.0
  0
LINE
  5
2A5
330
20
100
AcDbEntity
  8
0
  6
Continuous
 62
     3
100
AcDbLine
 10
365.539
 20
94.79526727700001
 30
0.0
 11
365.539
 21
103.936
 31
0.0
  0
LINE
  5
2A6
330
20
100
AcDbEntity
  8
0
  6
Continuous
 62
     3
100
AcDbLine
 10
364.679
 20
93.93526727700001
 30
0.0
 11
365.539
 21
94.79526727700001
 31
0.0
  0
LINE
  5
2A7
330
20
100
AcDbEntity
  8
0
  6
Continuous
 62
     3
100
AcDbLine
 10
365.539
 20
108.936
 30
0.0
 11
355.024
 21
108.936
 31
0.0
  0
LINE
  5
2A8
330
20
100
AcDbEntity
  8
0
  6
Continuous
 62
     3
100
AcDbLine
 10
365.539
 20
98.93600000000001
 30
0.0
 11
355.024
 21
98.93600000000001
 31
0.0
  0
LINE
  5
2A9
330
20
100
AcDbEntity
  8
0
  6
Continuous
 62
     3
100
AcDbLine
 10
341.024
 20
113.936732723
 30
0.0
 11
332.199
 21
113.936732723
 31
0.0
  0
LINE
  5
2AA
330
20
100
AcDbEntity
  8
0
  6
Continuous
 62
     3
100
AcDbLine
 10
331.339
 20
113.076732723
 30
0.0
 11
331.339
 21
103.936
 31
0.0
  0
LINE
  5
2AB
330
20
100
AcDbEntity
  8
0
  6
Continuous
 62
     3
100
AcDbLine
 10
332.199
 20
113.936732723
 30
0.0
 11
331.339
 21
113.076732723
 31
0.0
  0
LINE
  5
2AC
330
20
100
AcDbEntity
  8
0
  6
Continuous
 62
     3
100
AcDbLine
 10
341.024
 20
93.93526727700001
 30
0.0
 11
332.199
 21
93.93526727700001
 31
0.0
  0
LINE
  5
2AD
330
20
100
AcDbEntity
  8
0
  6
Continuous
 62
     3
100
AcDbLine
 10
331.339
 20
94.79526727700001
 30
0.0
 11
331.339
 21
103.936
 31
0.0
  0
LINE
  5
2AE
330
20
100
AcDbEntity
  8
0
  6
Continuous
 62
     3
100
AcDbLine
 10
332.199
 20
93.93526727700001
 30
0.0
 11
331.339
 21
94.79526727700001
 31
0.0
  0
LINE
  5
2AF
330
20
100
AcDbEntity
  8
0
  6
Continuous
 62
     3
100
AcDbLine
 10
331.339
 20
108.936
 30
0.0
 11
341.024
 21
108.936
 31
0.0
  0
LINE
  5
2B0
330
20
100
AcDbEntity
  8
0
  6
Continuous
 62
     3
100
AcDbLine
 10
331.339
 20
98.93600000000001
 30
0.0
 11
341.024
 21
98.93600000000001
 31
0.0
  0
LWPOLYLINE
  5
2B1
330
20
100
AcDbEntity
  8
0
  6
Continuous
 62
     3
100
AcDbPolyline
 90
        3
 70
     0
 43
0.0
 10
325.339
 20
103.936
 10
325.339
 20
95.936
 10
324.839
 20
95.43600000000001
  0
LINE
  5
2B6
330
20
100
AcDbEntity
  8
0
  6
Continuous
 62
     3
100
AcDbLine
 10
315.339
 20
95.936
 30
0.0
 11
315.339
 21
103.936
 31
0.0
  0
LINE
  5
2B7
330
20
100
AcDbEntity
  8
0
  6
Continuous
 62
     3
100
AcDbLine
 10
324.839
 20
95.43600000000001
 30
0.0
 11
315.839
 21
95.43600000000001
 31
0.0
  0
LINE
  5
2B8
330
20
100
AcDbEntity
  8
0
  6
Continuous
 62
     3
100
AcDbLine
 10
315.339
 20
95.936
 30
0.0
 11
315.839
 21
95.43600000000001
 31
0.0
  0
LWPOLYLINE
  5
2B9
330
20
100
AcDbEntity
  8
0
  6
Continuous
 62
     3
100
AcDbPolyline
 90
        3
 70
     0
 43
0.0
 10
325.339
 20
103.936
 10
325.339
 20
111.936
 10
324.839
 20
112.436
  0
LINE
  5
2BE
330
20
100
AcDbEntity
  8
0
  6
Continuous
 62
     3
100
AcDbLine
 10
315.339
 20
111.936
 30
0.0
 11
315.339
 21
103.936
 31
0.0
  0
LINE
  5
2BF
330
20
100
AcDbEntity
  8
0
  6
Continuous
 62
     3
100
AcDbLine
 10
324.839
 20
112.436
 30
0.0
 11
315.839
 21
112.436
 31
0.0
  0
LINE
  5
2C0
330
20
100
AcDbEntity
  8
0
  6
Continuous
 62
     3
100
AcDbLine
 10
315.339
 20
111.936
 30
0.0
 11
315.839
 21
112.436
 31
0.0
  0
LINE
  5
2C1
330
20
100
AcDbEntity
  8
0
  6
Continuous
 62
     3
100
AcDbLine
 10
325.339
 20
96.98098125999999
 30
0.0
 11
325.339
 21
103.936
 31
0.0
  0
LINE
  5
2C2
330
20
100
AcDbEntity
  8
0
  6
Continuous
 62
     3
100
AcDbLine
 10
325.339
 20
110.89101874
 30
0.0
 11
325.339
 21
103.936
 31
0.0
  0
LINE
  5
2C3
330
20
100
AcDbEntity
  8
0
  6
Continuous
 62
     3
100
AcDbLine
 10
337.339
 20
109.546763351
 30
0.0
 11
337.339
 21
103.936
 31
0.0
  0
LINE
  5
2C4
330
20
100
AcDbEntity
  8
0
  6
Continuous
 62
     3
100
AcDbLine
 10
336.370236312
 20
97.32572462200002
 30
0.0
 11
336.370236312
 21
110.546275378
 31
0.0
  0
LINE
  5
2C5
330
20
100
AcDbEntity
  8
0
  6
Continuous
 62
     3
100
AcDbLine
 10
336.370236312
 20
110.546275378
 30
0.0
 11
337.339
 21
109.546763351
 31
0.0
  0
LINE
  5
2C6
330
20
100
AcDbEntity
  8
0
  6
Continuous
 62
     3
100
AcDbLine
 10
336.370236312
 20
97.32572462200002
 30
0.0
 11
337.339
 21
98.325236649
 31
0.0
  0
LINE
  5
2C7
330
20
100
AcDbEntity
  8
0
  6
Continuous
 62
     3
100
AcDbLine
 10
337.339
 20
98.325236649
 30
0.0
 11
337.339
 21
103.936
 31
0.0
  0
LINE
  5
2C8
330
20
100
AcDbEntity
  8
0
  6
Continuous
 62
     3
100
AcDbLine
 10
336.370236312
 20
110.546275378
 30
0.0
 11
325.339
 21
110.89101874
 31
0.0
  0
LINE
  5
2C9
330
20
100
AcDbEntity
  8
0
  6
Continuous
 62
     3
100
AcDbLine
 10
336.370236312
 20
97.32572462200002
 30
0.0
 11
325.339
 21
96.98098125999999
 31
0.0
  0
LINE
  5
2CA
330
20
100
AcDbEntity
  8
0
  6
Continuous
 62
     3
100
AcDbLine
 10
327.439
 20
109.856153812
 30
0.0
 11
327.439
 21
110.827030316
 31
0.0
  0
LINE
  5
2CB
330
20
100
AcDbEntity
  8
0
  6
Continuous
 62
     3
100
AcDbLine
 10
327.439
 20
98.01584618799999
 30
0.0
 11
327.439
 21
97.044969684
 31
0.0
  0
LINE
  5
2CC
330
20
100
AcDbEntity
  8
0
  6
Continuous
 62
     3
100
AcDbLine
 10
315.339
 20
110.89101874
 30
0.0
 11
315.339
 21
103.936
 31
0.0
  0
LINE
  5
2CD
330
20
100
AcDbEntity
  8
0
  6
Continuous
 62
     3
100
AcDbLine
 10
315.339
 20
96.98098125999999
 30
0.0
 11
315.339
 21
103.936
 31
0.0
  0
LINE
  5
2CE
330
20
100
AcDbEntity
  8
0
  6
Continuous
 62
     3
100
AcDbLine
 10
303.339
 20
98.325236649
 30
0.0
 11
303.339
 21
103.936
 31
0.0
  0
LINE
  5
2CF
330
20
100
AcDbEntity
  8
0
  6
Continuous
 62
     3
100
AcDbLine
 10
304.307763688
 20
110.546275378
 30
0.0
 11
304.307763688
 21
97.32572462200002
 31
0.0
  0
LINE
  5
2D0
330
20
100
AcDbEntity
  8
0
  6
Continuous
 62
     3
100
AcDbLine
 10
304.307763688
 20
97.32572462200002
 30
0.0
 11
303.339
 21
98.325236649
 31
0.0
  0
LINE
  5
2D1
330
20
100
AcDbEntity
  8
0
  6
Continuous
 62
     3
100
AcDbLine
 10
304.307763688
 20
110.546275378
 30
0.0
 11
303.339
 21
109.546763351
 31
0.0
  0
LINE
  5
2D2
330
20
100
AcDbEntity
  8
0
  6
Continuous
 62
     3
100
AcDbLine
 10
303.339
 20
109.546763351
 30
0.0
 11
303.339
 21
103.936
 31
0.0
  0
LINE
  5
2D3
330
20
100
AcDbEntity
  8
0
  6
Continuous
 62
     3
100
AcDbLine
 10
304.307763688
 20
97.32572462200002
 30
0.0
 11
315.339
 21
96.98098125999999
 31
0.0
  0
LINE
  5
2D4
330
20
100
AcDbEntity
  8
0
  6
Continuous
 62
     3
100
AcDbLine
 10
304.307763688
 20
110.546275378
 30
0.0
 11
315.339
 21
110.89101874
 31
0.0
  0
LINE
  5
2D5
330
20
100
AcDbEntity
  8
0
  6
Continuous
 62
     3
100
AcDbLine
 10
313.239
 20
98.01584618799999
 30
0.0
 11
313.239
 21
97.044969684
 31
0.0
  0
LINE
  5
2D6
330
20
100
AcDbEntity
  8
0
  6
Continuous
 62
     3
100
AcDbLine
 10
313.239
 20
109.856153812
 30
0.0
 11
313.239
 21
110.827030316
 31
0.0
  0
LWPOLYLINE
  5
2D7
330
20
100
AcDbEntity
  8
0
  6
Continuous
 62
     3
100
AcDbPolyline
 90
        3
 70
     0
 43
0.0
 10
381.539
 20
103.936
 10
381.539
 20
95.936
 10
381.039
 20
95.43600000000001
  0
LINE
  5
2DC
330
20
100
AcDbEntity
  8
0
  6
Continuous
 62
     3
100
AcDbLine
 10
371.539
 20
95.936
 30
0.0
 11
371.539
 21
103.936
 31
0.0
  0
LINE
  5
2DD
330
20
100
AcDbEntity
  8
0
  6
Continuous
 62
     3
100
AcDbLine
 10
381.039
 20
95.43600000000001
 30
0.0
 11
372.039
 21
95.43600000000001
 31
0.0
  0
LINE
  5
2DE
330
20
100
AcDbEntity
  8
0
  6
Continuous
 62
     3
100
AcDbLine
 10
371.539
 20
95.936
 30
0.0
 11
372.039
 21
95.43600000000001
 31
0.0
  0
LWPOLYLINE
  5
2DF
330
20
100
AcDbEntity
  8
0
  6
Continuous
 62
     3
100
AcDbPolyline
 90
        3
 70
     0
 43
0.0
 10
381.539
 20
103.936
 10
381.539
 20
111.936
 10
381.039
 20
112.436
  0
LINE
  5
2E4
330
20
100
AcDbEntity
  8
0
  6
Continuous
 62
     3
100
AcDbLine
 10
371.539
 20
111.936
 30
0.0
 11
371.539
 21
103.936
 31
0.0
  0
LINE
  5
2E5
330
20
100
AcDbEntity
  8
0
  6
Continuous
 62
     3
100
AcDbLine
 10
381.039
 20
112.436
 30
0.0
 11
372.039
 21
112.436
 31
0.0
  0
LINE
  5
2E6
330
20
100
AcDbEntity
  8
0
  6
Continuous
 62
     3
100
AcDbLine
 10
371.539
 20
111.936
 30
0.0
 11
372.039
 21
112.436
 31
0.0
  0
LINE
  5
2E7
330
20
100
AcDbEntity
  8
0
  6
Continuous
 62
     3
100
AcDbLine
 10
381.539
 20
96.98098125999999
 30
0.0
 11
381.539
 21
103.936
 31
0.0
  0
LINE
  5
2E8
330
20
100
AcDbEntity
  8
0
  6
Continuous
 62
     3
100
AcDbLine
 10
381.539
 20
110.89101874
 30
0.0
 11
381.539
 21
103.936
 31
0.0
  0
LINE
  5
2E9
330
20
100
AcDbEntity
  8
0
  6
Continuous
 62
     3
100
AcDbLine
 10
393.539
 20
109.546763351
 30
0.0
 11
393.539
 21
103.936
 31
0.0
  0
LINE
  5
2EA
330
20
100
AcDbEntity
  8
0
  6
Continuous
 62
     3
100
AcDbLine
 10
392.570236312
 20
97.32572462200002
 30
0.0
 11
392.570236312
 21
110.546275378
 31
0.0
  0
LINE
  5
2EB
330
20
100
AcDbEntity
  8
0
  6
Continuous
 62
     3
100
AcDbLine
 10
392.570236312
 20
110.546275378
 30
0.0
 11
393.539
 21
109.546763351
 31
0.0
  0
LINE
  5
2EC
330
20
100
AcDbEntity
  8
0
  6
Continuous
 62
     3
100
AcDbLine
 10
392.570236312
 20
97.32572462200002
 30
0.0
 11
393.539
 21
98.325236649
 31
0.0
  0
LINE
  5
2ED
330
20
100
AcDbEntity
  8
0
  6
Continuous
 62
     3
100
AcDbLine
 10
393.539
 20
98.325236649
 30
0.0
 11
393.539
 21
103.936
 31
0.0
  0
LINE
  5
2EE
330
20
100
AcDbEntity
  8
0
  6
Continuous
 62
     3
100
AcDbLine
 10
392.570236312
 20
110.546275378
 30
0.0
 11
381.539
 21
110.89101874
 31
0.0
  0
LINE
  5
2EF
330
20
100
AcDbEntity
  8
0
  6
Continuous
 62
     3
100
AcDbLine
 10
392.570236312
 20
97.32572462200002
 30
0.0
 11
381.539
 21
96.98098125999999
 31
0.0
  0
LINE
  5
2F0
330
20
100
AcDbEntity
  8
0
  6
Continuous
 62
     3
100
AcDbLine
 10
383.639
 20
109.856153812
 30
0.0
 11
383.639
 21
110.827030316
 31
0.0
  0
LINE
  5
2F1
330
20
100
AcDbEntity
  8
0
  6
Continuous
 62
     3
100
AcDbLine
 10
383.639
 20
98.01584618799999
 30
0.0
 11
383.639
 21
97.044969684
 31
0.0
  0
LINE
  5
2F2
330
20
100
AcDbEntity
  8
0
  6
Continuous
 62
     3
100
AcDbLine
 10
371.539
 20
110.89101874
 30
0.0
 11
371.539
 21
103.936
 31
0.0
  0
LINE
  5
2F3
330
20
100
AcDbEntity
  8
0
  6
Continuous
 62
     3
100
AcDbLine
 10
371.539
 20
96.98098125999999
 30
0.0
 11
371.539
 21
103.936
 31
0.0
  0
LINE
  5
2F4
330
20
100
AcDbEntity
  8
0
  6
Continuous
 62
     3
100
AcDbLine
 10
359.539
 20
98.325236649
 30
0.0
 11
359.539
 21
103.936
 31
0.0
  0
LINE
  5
2F5
330
20
100
AcDbEntity
  8
0
  6
Continuous
 62
     3
100
AcDbLine
 10
360.507763688
 20
110.546275378
 30
0.0
 11
360.507763688
 21
97.32572462200002
 31
0.0
  0
LINE
  5
2F6
330
20
100
AcDbEntity
  8
0
  6
Continuous
 62
     3
100
AcDbLine
 10
360.507763688
 20
97.32572462200002
 30
0.0
 11
359.539
 21
98.325236649
 31
0.0
  0
LINE
  5
2F7
330
20
100
AcDbEntity
  8
0
  6
Continuous
 62
     3
100
AcDbLine
 10
360.507763688
 20
110.546275378
 30
0.0
 11
359.539
 21
109.546763351
 31
0.0
  0
LINE
  5
2F8
330
20
100
AcDbEntity
  8
0
  6
Continuous
 62
     3
100
AcDbLine
 10
359.539
 20
109.546763351
 30
0.0
 11
359.539
 21
103.936
 31
0.0
  0
LINE
  5
2F9
330
20
100
AcDbEntity
  8
0
  6
Continuous
 62
     3
100
AcDbLine
 10
360.507763688
 20
97.32572462200002
 30
0.0
 11
371.539
 21
96.98098125999999
 31
0.0
  0
LINE
  5
2FA
330
20
100
AcDbEntity
  8
0
  6
Continuous
 62
     3
100
AcDbLine
 10
360.507763688
 20
110.546275378
 30
0.0
 11
371.539
 21
110.89101874
 31
0.0
  0
LINE
  5
2FB
330
20
100
AcDbEntity
  8
0
  6
Continuous
 62
     3
100
AcDbLine
 10
369.439
 20
98.01584618799999
 30
0.0
 11
369.439
 21
97.044969684
 31
0.0
  0
LINE
  5
2FC
330
20
100
AcDbEntity
  8
0
  6
Continuous
 62
     3
100
AcDbLine
 10
369.439
 20
109.856153812
 30
0.0
 11
369.439
 21
110.827030316
 31
0.0
  0
LINE
  5
2FD
330
20
100
AcDbEntity
  8
0
  6
Continuous
 62
     3
100
AcDbLine
 10
396.289
 20
122.436
 30
0.0
 11
387.539
 21
122.436
 31
0.0
  0
LWPOLYLINE
  5
2FE
330
20
100
AcDbEntity
  8
0
  6
Continuous
 62
     3
100
AcDbPolyline
 90
        3
 70
     0
 43
0.0
 10
434.7889999999999
 20
122.436
 10
443.5389999999999
 20
122.436
 10
443.5389999999999
 20
94.43600000000001
  0
LINE
  5
303
330
20
100
AcDbEntity
  8
0
  6
Continuous
 62
     3
100
AcDbLine
 10
387.539
 20
122.436
 30
0.0
 11
387.539
 21
94.43600000000001
 31
0.0
  0
LINE
  5
304
330
20
100
AcDbEntity
  8
0
  6
Continuous
 62
     3
100
AcDbLine
 10
432.5389999999999
 20
124.936
 30
0.0
 11
432.5389999999999
 21
119.436
 31
0.0
  0
LINE
  5
305
330
20
100
AcDbEntity
  8
0
  6
Continuous
 62
     3
100
AcDbLine
 10
398.539
 20
119.436
 30
0.0
 11
398.539
 21
124.936
 31
0.0
  0
LWPOLYLINE
  5
306
330
20
100
AcDbEntity
  8
0
  6
Continuous
 62
     3
100
AcDbPolyline
 90
        4
 70
     0
 43
0.0
 10
424.0389999999999
 20
88.93600000000001
 10
424.0389999999999
 20
92.436
 10
407.0389999999999
 20
92.436
 10
407.0389999999999
 20
88.93600000000001
  0
LINE
  5
30C
330
20
100
AcDbEntity
  8
0
  6
Continuous
 62
     3
100
AcDbLine
 10
414.439
 20
113.936
 30
0.0
 11
414.439
 21
109.936
 31
0.0
  0
LINE
  5
30D
330
20
100
AcDbEntity
  8
0
  6
Continuous
 62
     3
100
AcDbLine
 10
416.6389999999999
 20
113.936
 30
0.0
 11
416.6389999999999
 21
109.936
 31
0.0
  0
LINE
  5
30E
330
20
100
AcDbEntity
  8
0
  6
Continuous
 62
     3
100
AcDbLine
 10
421.039
 20
119.436
 30
0.0
 11
421.039
 21
113.936
 31
0.0
  0
LINE
  5
30F
330
20
100
AcDbEntity
  8
0
  6
Continuous
 62
     3
100
AcDbLine
 10
410.0389999999999
 20
119.436
 30
0.0
 11
410.0389999999999
 21
117.936
 31
0.0
  0
LINE
  5
310
330
20
100
AcDbEntity
  8
0
  6
Continuous
 62
     3
100
AcDbLine
 10
420.5389999999999
 20
99.936
 30
0.0
 11
420.5389999999999
 21
92.436
 31
0.0
  0
LINE
  5
311
330
20
100
AcDbEntity
  8
0
  6
Continuous
 62
     3
100
AcDbLine
 10
410.5389999999999
 20
99.936
 30
0.0
 11
410.5389999999999
 21
92.436
 31
0.0
  0
LINE
  5
312
330
20
100
AcDbEntity
  8
0
  6
Continuous
 62
     3
100
AcDbLine
 10
421.539
 20
99.936
 30
0.0
 11
421.539
 21
100.936
 31
0.0
  0
LINE
  5
313
330
20
100
AcDbEntity
  8
0
  6
Continuous
 62
     3
100
AcDbLine
 10
410.5389999999999
 20
109.936
 30
0.0
 11
410.5389999999999
 21
100.936
 31
0.0
  0
LINE
  5
314
330
20
100
AcDbEntity
  8
0
  6
Continuous
 62
     3
100
AcDbLine
 10
409.539
 20
100.936
 30
0.0
 11
409.539
 21
99.936
 31
0.0
  0
LINE
  5
315
330
20
100
AcDbEntity
  8
0
  6
Continuous
 62
     3
100
AcDbLine
 10
421.539
 20
100.936
 30
0.0
 11
409.539
 21
100.936
 31
0.0
  0
LINE
  5
316
330
20
100
AcDbEntity
  8
0
  6
Continuous
 62
     3
100
AcDbLine
 10
421.539
 20
99.936
 30
0.0
 11
409.539
 21
99.936
 31
0.0
  0
LINE
  5
317
330
20
100
AcDbEntity
  8
0
  6
Continuous
 62
     3
100
AcDbLine
 10
407.0389999999999
 20
119.436
 30
0.0
 11
407.0389999999999
 21
117.936
 31
0.0
  0
LINE
  5
318
330
20
100
AcDbEntity
  8
0
  6
Continuous
 62
     3
100
AcDbLine
 10
402.0389999999999
 20
119.436
 30
0.0
 11
402.0389999999999
 21
117.936
 31
0.0
  0
LINE
  5
319
330
20
100
AcDbEntity
  8
0
  6
Continuous
 62
     3
100
AcDbLine
 10
402.0389999999999
 20
117.936
 30
0.0
 11
410.0389999999999
 21
117.936
 31
0.0
  0
LINE
  5
31A
330
20
100
AcDbEntity
  8
0
  6
Continuous
 62
     3
100
AcDbLine
 10
400.539
 20
110.2035
 30
0.0
 11
400.539
 21
97.66849999999999
 31
0.0
  0
LINE
  5
31B
330
20
100
AcDbEntity
  8
0
  6
Continuous
 62
     3
100
AcDbLine
 10
387.539
 20
109.636
 30
0.0
 11
400.539
 21
109.311
 31
0.0
  0
LINE
  5
31C
330
20
100
AcDbEntity
  8
0
  6
Continuous
 62
     3
100
AcDbLine
 10
387.539
 20
98.236
 30
0.0
 11
400.539
 21
98.56100000000001
 31
0.0
  0
LINE
  5
31D
330
20
100
AcDbEntity
  8
0
  6
Continuous
 62
     3
100
AcDbLine
 10
400.539
 20
109.311
 30
0.0
 11
402.5389999999999
 21
109.311
 31
0.0
  0
LINE
  5
31E
330
20
100
AcDbEntity
  8
0
  6
Continuous
 62
     3
100
AcDbLine
 10
402.5389999999999
 20
117.936
 30
0.0
 11
402.5389999999999
 21
109.311
 31
0.0
  0
LINE
  5
31F
330
20
100
AcDbEntity
  8
0
  6
Continuous
 62
     3
100
AcDbLine
 10
406.5389999999999
 20
113.936
 30
0.0
 11
406.5389999999999
 21
98.56100000000001
 31
0.0
  0
LINE
  5
320
330
20
100
AcDbEntity
  8
0
  6
Continuous
 62
     3
100
AcDbLine
 10
400.539
 20
98.56100000000001
 30
0.0
 11
406.5389999999999
 21
98.56100000000001
 31
0.0
  0
LINE
  5
321
330
20
100
AcDbEntity
  8
0
  6
Continuous
 62
     3
100
AcDbLine
 10
430.539
 20
97.66849999999999
 30
0.0
 11
430.539
 21
110.2035
 31
0.0
  0
LINE
  5
322
330
20
100
AcDbEntity
  8
0
  6
Continuous
 62
     3
100
AcDbLine
 10
443.5389999999999
 20
98.236
 30
0.0
 11
430.539
 21
98.56100000000001
 31
0.0
  0
LINE
  5
323
330
20
100
AcDbEntity
  8
0
  6
Continuous
 62
     3
100
AcDbLine
 10
443.5389999999999
 20
109.636
 30
0.0
 11
430.539
 21
109.311
 31
0.0
  0
LINE
  5
324
330
20
100
AcDbEntity
  8
0
  6
Continuous
 62
     3
100
AcDbLine
 10
404.7889999999999
 20
94.43600000000001
 30
0.0
 11
387.539
 21
94.43600000000001
 31
0.0
  0
LWPOLYLINE
  5
325
330
20
100
AcDbEntity
  8
0
  6
Continuous
 62
     3
100
AcDbPolyline
 90
        3
 70
     0
 43
0.0
 10
443.5389999999999
 20
94.43600000000001
 10
426.2889999999999
 20
94.43600000000001
 10
426.2889999999999
 20
88.93600000000001
  0
LINE
  5
32A
330
20
100
AcDbEntity
  8
0
  6
Continuous
 62
     3
100
AcDbLine
 10
404.7889999999999
 20
94.43600000000001
 30
0.0
 11
404.7889999999999
 21
88.93600000000001
 31
0.0
  0
LINE
  5
32B
330
20
100
AcDbEntity
  8
0
  6
Continuous
 62
     3
100
AcDbLine
 10
426.2889999999999
 20
88.93600000000001
 30
0.0
 11
404.7889999999999
 21
88.93600000000001
 31
0.0
  0
LINE
  5
32C
330
20
100
AcDbEntity
  8
0
  6
Continuous
 62
     3
100
AcDbLine
 10
430.539
 20
101.436
 30
0.0
 11
420.5389999999999
 21
101.436
 31
0.0
  0
LINE
  5
32D
330
20
100
AcDbEntity
  8
0
  6
Continuous
 62
     3
100
AcDbLine
 10
430.539
 20
106.436
 30
0.0
 11
420.5389999999999
 21
106.436
 31
0.0
  0
LINE
  5
32E
330
20
100
AcDbEntity
  8
0
  6
Continuous
 62
     3
100
AcDbLine
 10
420.5389999999999
 20
100.936
 30
0.0
 11
420.5389999999999
 21
109.936
 31
0.0
  0
LINE
  5
32F
330
20
100
AcDbEntity
  8
0
  6
Continuous
 62
     3
100
AcDbLine
 10
396.289
 20
124.936
 30
0.0
 11
396.289
 21
122.436
 31
0.0
  0
LINE
  5
330
330
20
100
AcDbEntity
  8
0
  6
Continuous
 62
     3
100
AcDbLine
 10
434.7889999999999
 20
122.436
 30
0.0
 11
434.7889999999999
 21
124.936
 31
0.0
  0
LINE
  5
331
330
20
100
AcDbEntity
  8
0
  6
Continuous
 62
     3
100
AcDbLine
 10
387.539
 20
130.436
 30
0.0
 11
387.539
 21
122.936
 31
0.0
  0
LINE
  5
332
330
20
100
AcDbEntity
  8
0
  6
Continuous
 62
     3
100
AcDbLine
 10
400.039
 20
130.436
 30
0.0
 11
387.539
 21
130.436
 31
0.0
  0
LINE
  5
333
330
20
100
AcDbEntity
  8
0
  6
Continuous
 62
     3
100
AcDbLine
 10
443.5389999999999
 20
154.436
 30
0.0
 11
443.5389999999999
 21
122.936
 31
0.0
  0
LINE
  5
334
330
20
100
AcDbEntity
  8
0
  6
Continuous
 62
     3
100
AcDbLine
 10
443.5389999999999
 20
154.436
 30
0.0
 11
431.0389999999999
 21
154.436
 31
0.0
  0
LWPOLYLINE
  5
335
330
20
100
AcDbEntity
  8
0
  6
Continuous
 62
     3
100
AcDbPolyline
 90
        4
 70
     0
 43
0.0
 10
442.039
 20
122.936
 10
442.039
 20
124.936
 10
438.039
 20
124.936
 10
438.039
 20
123.636
  0
LINE
  5
33B
330
20
100
AcDbEntity
  8
0
  6
Continuous
 62
     3
100
AcDbLine
 10
436.0389999999999
 20
123.636
 30
0.0
 11
436.0389999999999
 21
125.936
 31
0.0
  0
LWPOLYLINE
  5
33C
330
20
100
AcDbEntity
  8
0
  6
Continuous
 62
     3
100
AcDbPolyline
 90
        4
 70
     0
 43
0.0
 10
389.039
 20
122.936
 10
389.039
 20
124.936
 10
393.039
 20
124.936
 10
393.039
 20
123.636
  0
LINE
  5
342
330
20
100
AcDbEntity
  8
0
  6
Continuous
 62
     3
100
AcDbLine
 10
395.039
 20
123.636
 30
0.0
 11
395.039
 21
125.936
 31
0.0
  0
ARC
  5
343
330
20
100
AcDbEntity
  8
0
  6
Continuous
 62
     3
100
AcDbCircle
 10
433.539
 20
125.936
 30
0.0
 40
2.5
100
AcDbArc
 50
0.0
 51
156.421821522
  0
ARC
  5
344
330
20
100
AcDbEntity
  8
0
  6
Continuous
 62
     3
100
AcDbCircle
 10
397.539
 20
125.936
 30
0.0
 40
2.5
100
AcDbArc
 50
23.578178478
 51
180.0
  0
LINE
  5
345
330
20
100
AcDbEntity
  8
0
  6
Continuous
 62
     3
100
AcDbLine
 10
443.5389999999999
 20
150.636
 30
0.0
 11
428.5389999999999
 21
150.261
 31
0.0
  0
LINE
  5
346
330
20
100
AcDbEntity
  8
0
  6
Continuous
 62
     3
100
AcDbLine
 10
443.5389999999999
 20
139.236
 30
0.0
 11
428.5389999999999
 21
139.611
 31
0.0
  0
LINE
  5
347
330
20
100
AcDbEntity
  8
0
  6
Continuous
 62
     3
100
AcDbLine
 10
421.239
 20
163.936
 30
0.0
 11
420.9389999999999
 21
151.936
 31
0.0
  0
LINE
  5
348
330
20
100
AcDbEntity
  8
0
  6
Continuous
 62
     3
100
AcDbLine
 10
409.839
 20
163.936
 30
0.0
 11
410.139
 21
151.936
 31
0.0
  0
LINE
  5
349
330
20
100
AcDbEntity
  8
0
  6
Continuous
 62
     3
100
AcDbLine
 10
400.039
 20
153.936
 30
0.0
 11
400.039
 21
130.436
 31
0.0
  0
LINE
  5
34A
330
20
100
AcDbEntity
  8
0
  6
Continuous
 62
     3
100
AcDbLine
 10
404.7889999999999
 20
156.936
 30
0.0
 11
403.0389999999999
 21
156.936
 31
0.0
  0
ARC
  5
34B
330
20
100
AcDbEntity
  8
0
  6
Continuous
 62
     3
100
AcDbCircle
 10
403.0389999999999
 20
153.936
 30
0.0
 40
3.0
100
AcDbArc
 50
90.0
 51
180.0
  0
LINE
  5
34C
330
20
100
AcDbEntity
  8
0
  6
Continuous
 62
     3
100
AcDbLine
 10
431.0389999999999
 20
154.936
 30
0.0
 11
431.0389999999999
 21
154.436
 31
0.0
  0
LINE
  5
34D
330
20
100
AcDbEntity
  8
0
  6
Continuous
 62
     3
100
AcDbLine
 10
429.039
 20
156.936
 30
0.0
 11
426.2889999999999
 21
156.936
 31
0.0
  0
ARC
  5
34E
330
20
100
AcDbEntity
  8
0
  6
Continuous
 62
     3
100
AcDbCircle
 10
429.039
 20
154.936
 30
0.0
 40
2.0
100
AcDbArc
 50
0.0
 51
90.0
  0
LINE
  5
34F
330
20
100
AcDbEntity
  8
0
  6
Continuous
 62
     3
100
AcDbLine
 10
402.5389999999999
 20
150.936
 30
0.0
 11
402.5389999999999
 21
126.936
 31
0.0
  0
ARC
  5
350
330
20
100
AcDbEntity
  8
0
  6
Continuous
 62
     3
100
AcDbCircle
 10
403.5389999999999
 20
150.936
 30
0.0
 40
1.0
100
AcDbArc
 50
90.0
 51
180.0
  0
LINE
  5
351
330
20
100
AcDbEntity
  8
0
  6
Continuous
 62
     3
100
AcDbLine
 10
428.5389999999999
 20
150.936
 30
0.0
 11
428.5389999999999
 21
126.936
 31
0.0
  0
LINE
  5
352
330
20
100
AcDbEntity
  8
0
  6
Continuous
 62
     3
100
AcDbLine
 10
427.5389999999999
 20
151.936
 30
0.0
 11
403.5389999999999
 21
151.936
 31
0.0
  0
ARC
  5
353
330
20
100
AcDbEntity
  8
0
  6
Continuous
 62
     3
100
AcDbCircle
 10
427.5389999999999
 20
150.936
 30
0.0
 40
1.0
100
AcDbArc
 50
0.0
 51
90.0
  0
LINE
  5
354
330
20
100
AcDbEntity
  8
0
  6
Continuous
 62
     3
100
AcDbLine
 10
426.2889999999999
 20
163.436
 30
0.0
 11
426.2889999999999
 21
156.936
 31
0.0
  0
LINE
  5
355
330
20
100
AcDbEntity
  8
0
  6
Continuous
 62
     3
100
AcDbLine
 10
426.2889999999999
 20
163.436
 30
0.0
 11
425.7889999999999
 21
163.936
 31
0.0
  0
LINE
  5
356
330
20
100
AcDbEntity
  8
0
  6
Continuous
 62
     3
100
AcDbLine
 10
404.7889999999999
 20
163.436
 30
0.0
 11
404.7889999999999
 21
156.936
 31
0.0
  0
LINE
  5
357
330
20
100
AcDbEntity
  8
0
  6
Continuous
 62
     3
100
AcDbLine
 10
425.7889999999999
 20
163.936
 30
0.0
 11
405.2889999999999
 21
163.936
 31
0.0
  0
LINE
  5
358
330
20
100
AcDbEntity
  8
0
  6
Continuous
 62
     3
100
AcDbLine
 10
404.7889999999999
 20
163.436
 30
0.0
 11
405.2889999999999
 21
163.936
 31
0.0
  0
LINE
  5
359
330
20
100
AcDbEntity
  8
0
  6
Continuous
 62
     3
100
AcDbLine
 10
407.139
 20
88.93600000000001
 30
0.0
 11
407.139
 21
90.936
 31
0.0
  0
LINE
  5
35A
330
20
100
AcDbEntity
  8
0
  6
Continuous
 62
     3
100
AcDbLine
 10
410.0389999999999
 20
90.936
 30
0.0
 11
410.0389999999999
 21
92.93600000000001
 31
0.0
  0
LINE
  5
35B
330
20
100
AcDbEntity
  8
0
  6
Continuous
 62
     3
100
AcDbLine
 10
409.539
 20
92.93600000000001
 30
0.0
 11
409.539
 21
97.93600000000001
 31
0.0
  0
LINE
  5
35C
330
20
100
AcDbEntity
  8
0
  6
Continuous
 62
     3
100
AcDbLine
 10
412.9389999999999
 20
97.93600000000001
 30
0.0
 11
412.9389999999999
 21
99.936
 31
0.0
  0
LWPOLYLINE
  5
35D
330
20
100
AcDbEntity
  8
0
  6
Continuous
 62
     3
100
AcDbPolyline
 90
        3
 70
     0
 43
0.0
 10
412.9389999999999
 20
99.936
 10
418.139
 20
99.936
 10
418.139
 20
97.93600000000001
  0
LINE
  5
362
330
20
100
AcDbEntity
  8
0
  6
Continuous
 62
     3
100
AcDbLine
 10
421.539
 20
97.93600000000001
 30
0.0
 11
421.539
 21
92.93600000000001
 31
0.0
  0
LINE
  5
363
330
20
100
AcDbEntity
  8
0
  6
Continuous
 62
     3
100
AcDbLine
 10
421.039
 20
92.93600000000001
 30
0.0
 11
421.039
 21
90.936
 31
0.0
  0
LINE
  5
364
330
20
100
AcDbEntity
  8
0
  6
Continuous
 62
     3
100
AcDbLine
 10
423.939
 20
90.936
 30
0.0
 11
423.939
 21
88.93600000000001
 31
0.0
  0
LINE
  5
365
330
20
100
AcDbEntity
  8
0
  6
Continuous
 62
     3
100
AcDbLine
 10
407.139
 20
90.936
 30
0.0
 11
423.939
 21
90.936
 31
0.0
  0
LINE
  5
366
330
20
100
AcDbEntity
  8
0
  6
Continuous
 62
     3
100
AcDbLine
 10
421.539
 20
92.93600000000001
 30
0.0
 11
409.539
 21
92.93600000000001
 31
0.0
  0
LINE
  5
367
330
20
100
AcDbEntity
  8
0
  6
Continuous
 62
     3
100
AcDbLine
 10
409.539
 20
97.93600000000001
 30
0.0
 11
421.539
 21
97.93600000000001
 31
0.0
  0
LINE
  5
368
330
20
100
AcDbEntity
  8
0
  6
Continuous
 62
     3
100
AcDbLine
 10
423.939
 20
88.93600000000001
 30
0.0
 11
426.2889999999999
 21
88.93600000000001
 31
0.0
  0
LINE
  5
369
330
20
100
AcDbEntity
  8
0
  6
Continuous
 62
     3
100
AcDbLine
 10
404.7889999999999
 20
88.93600000000001
 30
0.0
 11
407.139
 21
88.93600000000001
 31
0.0
  0
LINE
  5
36A
330
20
100
AcDbEntity
  8
0
  6
Continuous
 62
     3
100
AcDbLine
 10
404.7889999999999
 20
85.936
 30
0.0
 11
404.7889999999999
 21
88.93600000000001
 31
0.0
  0
LINE
  5
36B
330
20
100
AcDbEntity
  8
0
  6
Continuous
 62
     3
100
AcDbLine
 10
405.7889999999999
 20
84.936
 30
0.0
 11
404.7889999999999
 21
85.936
 31
0.0
  0
LINE
  5
36C
330
20
100
AcDbEntity
  8
0
  6
Continuous
 62
     3
100
AcDbLine
 10
426.2889999999999
 20
88.93600000000001
 30
0.0
 11
426.2889999999999
 21
85.936
 31
0.0
  0
LINE
  5
36D
330
20
100
AcDbEntity
  8
0
  6
Continuous
 62
     3
100
AcDbLine
 10
425.2889999999999
 20
84.936
 30
0.0
 11
405.7889999999999
 21
84.936
 31
0.0
  0
LINE
  5
36E
330
20
100
AcDbEntity
  8
0
  6
Continuous
 62
     3
100
AcDbLine
 10
426.2889999999999
 20
85.936
 30
0.0
 11
425.2889999999999
 21
84.936
 31
0.0
  0
LINE
  5
36F
330
20
100
AcDbEntity
  8
0
  6
Continuous
 62
     3
100
AcDbLine
 10
434.7889999999999
 20
123.636
 30
0.0
 11
438.039
 21
123.636
 31
0.0
  0
LINE
  5
370
330
20
100
AcDbEntity
  8
0
  6
Continuous
 62
     3
100
AcDbLine
 10
393.039
 20
123.636
 30
0.0
 11
395.039
 21
123.636
 31
0.0
  0
LWPOLYLINE
  5
371
330
20
100
AcDbEntity
  8
0
  6
Continuous
 62
     3
100
AcDbPolyline
 90
        3
 70
     0
 43
0.0
 10
400.539
 20
125.595
 10
406.289
 20
125.595
 10
406.289
 20
127.095
  0
LINE
  5
376
330
20
100
AcDbEntity
  8
0
  6
Continuous
 62
     3
100
AcDbLine
 10
424.7889999999999
 20
125.595
 30
0.0
 11
430.539
 21
125.595
 31
0.0
  0
LINE
  5
377
330
20
100
AcDbEntity
  8
0
  6
Continuous
 62
     3
100
AcDbLine
 10
424.7889999999999
 20
125.595
 30
0.0
 11
424.7889999999999
 21
127.095
 31
0.0
  0
LINE
  5
378
330
20
100
AcDbEntity
  8
0
  6
Continuous
 62
     3
100
AcDbLine
 10
418.5889999999999
 20
123.595
 30
0.0
 11
418.5889999999999
 21
127.095
 31
0.0
  0
LINE
  5
379
330
20
100
AcDbEntity
  8
0
  6
Continuous
 62
     3
100
AcDbLine
 10
412.489
 20
123.595
 30
0.0
 11
412.489
 21
127.095
 31
0.0
  0
LINE
  5
37A
330
20
100
AcDbEntity
  8
0
  6
Continuous
 62
     3
100
AcDbLine
 10
430.539
 20
124.595
 30
0.0
 11
430.539
 21
125.595
 31
0.0
  0
LINE
  5
37B
330
20
100
AcDbEntity
  8
0
  6
Continuous
 62
     3
100
AcDbLine
 10
430.539
 20
124.595
 30
0.0
 11
429.539
 21
123.595
 31
0.0
  0
LINE
  5
37C
330
20
100
AcDbEntity
  8
0
  6
Continuous
 62
     3
100
AcDbLine
 10
400.539
 20
124.595
 30
0.0
 11
400.539
 21
125.595
 31
0.0
  0
LINE
  5
37D
330
20
100
AcDbEntity
  8
0
  6
Continuous
 62
     3
100
AcDbLine
 10
400.539
 20
124.595
 30
0.0
 11
401.539
 21
123.595
 31
0.0
  0
LINE
  5
37E
330
20
100
AcDbEntity
  8
0
  6
Continuous
 62
     3
100
AcDbLine
 10
429.539
 20
121.095
 30
0.0
 11
429.539
 21
123.095
 31
0.0
  0
LINE
  5
37F
330
20
100
AcDbEntity
  8
0
  6
Continuous
 62
     3
100
AcDbLine
 10
401.539
 20
121.095
 30
0.0
 11
401.539
 21
123.095
 31
0.0
  0
LINE
  5
380
330
20
100
AcDbEntity
  8
0
  6
Continuous
 62
     3
100
AcDbLine
 10
418.5389999999999
 20
131.095
 30
0.0
 11
412.539
 21
131.095
 31
0.0
  0
LINE
  5
381
330
20
100
AcDbEntity
  8
0
  6
Continuous
 62
     3
100
AcDbLine
 10
413.039
 20
123.095
 30
0.0
 11
401.539
 21
123.095
 31
0.0
  0
LINE
  5
382
330
20
100
AcDbEntity
  8
0
  6
Continuous
 62
     3
100
AcDbLine
 10
429.539
 20
123.095
 30
0.0
 11
418.039
 21
123.095
 31
0.0
  0
LINE
  5
383
330
20
100
AcDbEntity
  8
0
  6
Continuous
 62
     3
100
AcDbLine
 10
418.5389999999999
 20
124.095
 30
0.0
 11
418.5389999999999
 21
131.095
 31
0.0
  0
LINE
  5
384
330
20
100
AcDbEntity
  8
0
  6
Continuous
 62
     3
100
AcDbLine
 10
412.539
 20
124.095
 30
0.0
 11
412.539
 21
131.095
 31
0.0
  0
LINE
  5
385
330
20
100
AcDbEntity
  8
0
  6
Continuous
 62
     3
100
AcDbLine
 10
418.5389999999999
 20
124.095
 30
0.0
 11
418.039
 21
124.095
 31
0.0
  0
LINE
  5
386
330
20
100
AcDbEntity
  8
0
  6
Continuous
 62
     3
100
AcDbLine
 10
413.039
 20
124.095
 30
0.0
 11
412.539
 21
124.095
 31
0.0
  0
LINE
  5
387
330
20
100
AcDbEntity
  8
0
  6
Continuous
 62
     3
100
AcDbLine
 10
418.039
 20
123.095
 30
0.0
 11
418.039
 21
124.095
 31
0.0
  0
LINE
  5
388
330
20
100
AcDbEntity
  8
0
  6
Continuous
 62
     3
100
AcDbLine
 10
413.039
 20
123.095
 30
0.0
 11
413.039
 21
124.095
 31
0.0
  0
LINE
  5
389
330
20
100
AcDbEntity
  8
0
  6
Continuous
 62
     3
100
AcDbLine
 10
416.239
 20
121.095
 30
0.0
 11
416.239
 21
123.095
 31
0.0
  0
LINE
  5
38A
330
20
100
AcDbEntity
  8
0
  6
Continuous
 62
     3
100
AcDbLine
 10
414.839
 20
121.095
 30
0.0
 11
414.839
 21
123.095
 31
0.0
  0
LINE
  5
38B
330
20
100
AcDbEntity
  8
0
  6
Continuous
 62
     3
100
AcDbLine
 10
416.239
 20
123.095
 30
0.0
 11
414.839
 21
123.095
 31
0.0
  0
LINE
  5
38C
330
20
100
AcDbEntity
  8
0
  6
Continuous
 62
     3
100
AcDbLine
 10
416.239
 20
123.095
 30
0.0
 11
415.5389999999999
 21
124.095
 31
0.0
  0
LINE
  5
38D
330
20
100
AcDbEntity
  8
0
  6
Continuous
 62
     3
100
AcDbLine
 10
414.839
 20
123.095
 30
0.0
 11
415.5389999999999
 21
124.095
 31
0.0
  0
LINE
  5
38E
330
20
100
AcDbEntity
  8
0
  6
Continuous
 62
     3
100
AcDbLine
 10
411.0389999999999
 20
107.965
 30
0.0
 11
411.0389999999999
 21
106.465
 31
0.0
  0
LINE
  5
38F
330
20
100
AcDbEntity
  8
0
  6
Continuous
 62
     3
100
AcDbLine
 10
411.0389999999999
 20
106.465
 30
0.0
 11
412.9389999999999
 21
106.465
 31
0.0
  0
LINE
  5
390
330
20
100
AcDbEntity
  8
0
  6
Continuous
 62
     3
100
AcDbLine
 10
412.9389999999999
 20
106.465
 30
0.0
 11
412.9389999999999
 21
103.465
 31
0.0
  0
LINE
  5
391
330
20
100
AcDbEntity
  8
0
  6
Continuous
 62
     3
100
AcDbLine
 10
412.9389999999999
 20
103.465
 30
0.0
 11
418.139
 21
103.465
 31
0.0
  0
LINE
  5
392
330
20
100
AcDbEntity
  8
0
  6
Continuous
 62
     3
100
AcDbLine
 10
418.139
 20
103.465
 30
0.0
 11
418.139
 21
106.465
 31
0.0
  0
LINE
  5
393
330
20
100
AcDbEntity
  8
0
  6
Continuous
 62
     3
100
AcDbLine
 10
418.139
 20
106.465
 30
0.0
 11
420.0389999999999
 21
106.465
 31
0.0
  0
LINE
  5
394
330
20
100
AcDbEntity
  8
0
  6
Continuous
 62
     3
100
AcDbLine
 10
420.0389999999999
 20
106.465
 30
0.0
 11
420.0389999999999
 21
107.965
 31
0.0
  0
ARC
  5
395
330
20
100
AcDbEntity
  8
0
  6
Continuous
 62
     3
100
AcDbCircle
 10
415.5389999999999
 20
107.965
 30
0.0
 40
1.5
100
AcDbArc
 50
180.0
 51
0.0
  0
CIRCLE
  5
396
330
20
100
AcDbEntity
  8
0
  6
Continuous
 62
     3
100
AcDbCircle
 10
415.5389999999999
 20
107.965
 30
0.0
 40
1.5
  0
LINE
  5
397
330
20
100
AcDbEntity
  8
0
  6
Continuous
 62
     3
100
AcDbLine
 10
412.389
 20
97.93600000000001
 30
0.0
 11
418.689
 21
97.93600000000001
 31
0.0
  0
ARC
  5
398
330
20
100
AcDbEntity
  8
0
  6
Continuous
 62
     3
100
AcDbCircle
 10
412.6389999999999
 20
97.93600000000001
 30
0.0
 40
0.25
100
AcDbArc
 50
359.999381802
 51
180.000618198
  0
ARC
  5
399
330
20
100
AcDbEntity
  8
0
  6
Continuous
 62
     3
100
AcDbCircle
 10
418.439
 20
97.7485
 30
0.0
 40
0.3125
100
AcDbArc
 50
36.869897649
 51
143.13010235
  0
LINE
  5
39A
330
20
100
AcDbEntity
  8
0
  6
Continuous
 62
     3
100
AcDbLine
 10
418.439
 20
98.061
 30
0.0
 11
412.6389999999999
 21
98.18600000000001
 31
0.0
  0
CIRCLE
  5
39B
330
20
100
AcDbEntity
  8
0
  6
Continuous
 62
     3
100
AcDbCircle
 10
412.6389999999999
 20
98.686
 30
0.0
 40
0.25
  0
CIRCLE
  5
39C
330
20
100
AcDbEntity
  8
0
  6
Continuous
 62
     3
100
AcDbCircle
 10
418.439
 20
98.31100000000001
 30
0.0
 40
0.25
  0
LINE
  5
39D
330
20
100
AcDbEntity
  8
0
  6
Continuous
 62
     3
100
AcDbLine
 10
412.6389999999999
 20
98.43600000000002
 30
0.0
 11
418.439
 21
98.061
 31
0.0
  0
LINE
  5
39E
330
20
100
AcDbEntity
  8
0
  6
Continuous
 62
     3
100
AcDbLine
 10
418.439
 20
98.56100000000001
 30
0.0
 11
412.6389999999999
 21
98.93600000000001
 31
0.0
  0
LINE
  5
39F
330
20
100
AcDbEntity
  8
0
  6
Continuous
 62
     3
100
AcDbLine
 10
412.389
 20
106.436
 30
0.0
 11
418.689
 21
106.436
 31
0.0
  0
ARC
  5
3A0
330
20
100
AcDbEntity
  8
0
  6
Continuous
 62
     3
100
AcDbCircle
 10
418.439
 20
106.436
 30
0.0
 40
0.25
100
AcDbArc
 50
180.0
 51
0.0
  0
ARC
  5
3A1
330
20
100
AcDbEntity
  8
0
  6
Continuous
 62
     3
100
AcDbCircle
 10
412.6389999999999
 20
106.6235
 30
0.0
 40
0.3125
100
AcDbArc
 50
216.869897641
 51
323.130102362
  0
LINE
  5
3A2
330
20
100
AcDbEntity
  8
0
  6
Continuous
 62
     3
100
AcDbLine
 10
412.6389999999999
 20
106.311
 30
0.0
 11
418.439
 21
106.186
 31
0.0
  0
CIRCLE
  5
3A3
330
20
100
AcDbEntity
  8
0
  6
Continuous
 62
     3
100
AcDbCircle
 10
418.439
 20
105.686
 30
0.0
 40
0.25
  0
CIRCLE
  5
3A4
330
20
100
AcDbEntity
  8
0
  6
Continuous
 62
     3
100
AcDbCircle
 10
412.6389999999999
 20
106.061
 30
0.0
 40
0.25
  0
LINE
  5
3A5
330
20
100
AcDbEntity
  8
0
  6
Continuous
 62
     3
100
AcDbLine
 10
418.439
 20
105.936
 30
0.0
 11
412.6389999999999
 21
106.311
 31
0.0
  0
LINE
  5
3A6
330
20
100
AcDbEntity
  8
0
  6
Continuous
 62
     3
100
AcDbLine
 10
412.6389999999999
 20
105.811
 30
0.0
 11
418.439
 21
105.436
 31
0.0
  0
LINE
  5
3A7
330
20
100
AcDbEntity
  8
0
  6
Continuous
 62
     3
100
AcDbLine
 10
409.739
 20
130.595
 30
0.0
 11
409.739
 21
127.095
 31
0.0
  0
LINE
  5
3A8
330
20
100
AcDbEntity
  8
0
  6
Continuous
 62
     3
100
AcDbLine
 10
421.339
 20
127.095
 30
0.0
 11
421.339
 21
130.595
 31
0.0
  0
LINE
  5
3A9
330
20
100
AcDbEntity
  8
0
  6
Continuous
 62
     3
100
AcDbLine
 10
418.439
 20
127.095
 30
0.0
 11
418.439
 21
130.595
 31
0.0
  0
LINE
  5
3AA
330
20
100
AcDbEntity
  8
0
  6
Continuous
 62
     3
100
AcDbLine
 10
412.6389999999999
 20
127.095
 30
0.0
 11
412.6389999999999
 21
130.595
 31
0.0
  0
LINE
  5
3AB
330
20
100
AcDbEntity
  8
0
  6
Continuous
 62
     3
100
AcDbLine
 10
411.239
 20
131.095
 30
0.0
 11
419.8389999999999
 21
131.095
 31
0.0
  0
ARC
  5
3AC
330
20
100
AcDbEntity
  8
0
  6
Continuous
 62
     3
100
AcDbCircle
 10
411.139
 20
128.795
 30
0.0
 40
2.399999999999999
100
AcDbArc
 50
51.9
 51
128.1
  0
ARC
  5
3AD
330
20
100
AcDbEntity
  8
0
  6
Continuous
 62
     3
100
AcDbCircle
 10
415.5389999999999
 20
122.395
 30
0.0
 40
8.699999999999999
100
AcDbArc
 50
70.4
 51
109.6
  0
ARC
  5
3AE
330
20
100
AcDbEntity
  8
0
  6
Continuous
 62
     3
100
AcDbCircle
 10
419.939
 20
128.795
 30
0.0
 40
2.399999999999999
100
AcDbArc
 50
51.9
 51
128.1
  0
LINE
  5
3AF
330
20
100
AcDbEntity
  8
0
  6
Continuous
 62
     3
100
AcDbLine
 10
406.289
 20
126.936
 30
0.0
 11
399.830287847
 21
126.936
 31
0.0
  0
LINE
  5
3B0
330
20
100
AcDbEntity
  8
0
  6
Continuous
 62
     3
100
AcDbLine
 10
400.539
 20
124.936
 30
0.0
 11
396.289
 21
124.936
 31
0.0
  0
LINE
  5
3B1
330
20
100
AcDbEntity
  8
0
  6
Continuous
 62
     3
100
AcDbLine
 10
434.7889999999999
 20
124.936
 30
0.0
 11
430.539
 21
124.936
 31
0.0
  0
LINE
  5
3B2
330
20
100
AcDbEntity
  8
0
  6
Continuous
 62
     3
100
AcDbLine
 10
413.039
 20
127.095
 30
0.0
 11
406.289
 21
127.095
 31
0.0
  0
LINE
  5
3B3
330
20
100
AcDbEntity
  8
0
  6
Continuous
 62
     3
100
AcDbLine
 10
424.7889999999999
 20
127.095
 30
0.0
 11
418.039
 21
127.095
 31
0.0
  0
LINE
  5
3B4
330
20
100
AcDbEntity
  8
0
  6
Continuous
 62
     3
100
AcDbLine
 10
418.039
 20
127.095
 30
0.0
 11
421.339
 21
127.095
 31
0.0
  0
LINE
  5
3B5
330
20
100
AcDbEntity
  8
0
  6
Continuous
 62
     3
100
AcDbLine
 10
409.739
 20
127.095
 30
0.0
 11
413.039
 21
127.095
 31
0.0
  0
LINE
  5
3B6
330
20
100
AcDbEntity
  8
0
  6
Continuous
 62
     3
100
AcDbLine
 10
413.039
 20
123.595
 30
0.0
 11
401.539
 21
123.595
 31
0.0
  0
LINE
  5
3B7
330
20
100
AcDbEntity
  8
0
  6
Continuous
 62
     3
100
AcDbLine
 10
429.539
 20
123.595
 30
0.0
 11
418.039
 21
123.595
 31
0.0
  0
ARC
  5
3B8
330
20
100
AcDbEntity
  8
0
  6
Continuous
 62
     3
100
AcDbCircle
 10
405.039
 20
125.595
 30
0.0
 40
1.0
100
AcDbArc
 50
0.0
 51
180.0
  0
CIRCLE
  5
3B9
330
20
100
AcDbEntity
  8
0
  6
Continuous
 62
     3
100
AcDbCircle
 10
405.039
 20
128.595
 30
0.0
 40
1.0
  0
CIRCLE
  5
3BA
330
20
100
AcDbEntity
  8
0
  6
Continuous
 62
     3
100
AcDbCircle
 10
426.039
 20
126.845
 30
0.0
 40
1.0
  0
ARC
  5
3BB
330
20
100
AcDbEntity
  8
0
  6
Continuous
 62
     3
100
AcDbCircle
 10
426.039
 20
123.72
 30
0.0
 40
2.125
100
AcDbArc
 50
61.927513064
 51
118.072486936
  0
ARC
  5
3BC
330
20
100
AcDbEntity
  8
0
  6
Continuous
 62
     3
100
AcDbCircle
 10
426.039
 20
151.595
 30
0.0
 40
1.0
100
AcDbArc
 50
180.0
 51
0.0
  0
LINE
  5
3BD
330
20
100
AcDbEntity
  8
0
  6
Continuous
 62
     3
100
AcDbLine
 10
426.039
 20
150.595
 30
0.0
 11
405.039
 21
151.345
 31
0.0
  0
CIRCLE
  5
3BE
330
20
100
AcDbEntity
  8
0
  6
Continuous
 62
     3
100
AcDbCircle
 10
426.039
 20
148.595
 30
0.0
 40
1.0
  0
CIRCLE
  5
3BF
330
20
100
AcDbEntity
  8
0
  6
Continuous
 62
     3
100
AcDbCircle
 10
405.039
 20
150.345
 30
0.0
 40
1.0
  0
ARC
  5
3C0
330
20
100
AcDbEntity
  8
0
  6
Continuous
 62
     3
100
AcDbCircle
 10
405.039
 20
153.47
 30
0.0
 40
2.125
100
AcDbArc
 50
241.9275130649999
 51
298.072486935
  0
LINE
  5
3C1
330
20
100
AcDbEntity
  8
0
  6
Continuous
 62
     3
100
AcDbLine
 10
404.039
 20
151.595
 30
0.0
 11
427.0389999999999
 21
151.595
 31
0.0
  0
LINE
  5
3C2
330
20
100
AcDbEntity
  8
0
  6
Continuous
 62
     3
100
AcDbLine
 10
405.039
 20
149.345
 30
0.0
 11
426.039
 21
147.595
 31
0.0
  0
LINE
  5
3C3
330
20
100
AcDbEntity
  8
0
  6
Continuous
 62
     3
100
AcDbLine
 10
426.039
 20
149.595
 30
0.0
 11
405.039
 21
151.345
 31
0.0
  0
LINE
  5
3C4
330
20
100
AcDbEntity
  8
0
  6
Continuous
 62
     3
100
AcDbLine
 10
418.039
 20
125.595
 30
0.0
 11
427.0389999999999
 21
125.595
 31
0.0
  0
LINE
  5
3C5
330
20
100
AcDbEntity
  8
0
  6
Continuous
 62
     3
100
AcDbLine
 10
404.039
 20
125.595
 30
0.0
 11
413.039
 21
125.595
 31
0.0
  0
LINE
  5
3C6
330
20
100
AcDbEntity
  8
0
  6
Continuous
 62
     3
100
AcDbLine
 10
431.247712153
 20
126.936
 30
0.0
 11
427.0848508919999
 21
126.936
 31
0.0
  0
LINE
  5
3C7
330
20
100
AcDbEntity
  8
0
  6
Continuous
 62
     3
100
AcDbLine
 10
414.039
 20
107.965
 30
0.0
 11
411.0389999999999
 21
107.965
 31
0.0
  0
LINE
  5
3C8
330
20
100
AcDbEntity
  8
0
  6
Continuous
 62
     3
100
AcDbLine
 10
420.0389999999999
 20
107.965
 30
0.0
 11
417.039
 21
107.965
 31
0.0
  0
LINE
  5
3C9
330
20
100
AcDbEntity
  8
0
  6
Continuous
 62
     3
100
AcDbLine
 10
389.039
 20
124.936
 30
0.0
 11
393.039
 21
124.936
 31
0.0
  0
LINE
  5
3CA
330
20
100
AcDbEntity
  8
0
  6
Continuous
 62
     3
100
AcDbLine
 10
393.039
 20
124.936
 30
0.0
 11
393.039
 21
123.636
 31
0.0
  0
LINE
  5
3CB
330
20
100
AcDbEntity
  8
0
  6
Continuous
 62
     3
100
AcDbLine
 10
393.039
 20
123.636
 30
0.0
 11
395.039
 21
123.636
 31
0.0
  0
LINE
  5
3CC
330
20
100
AcDbEntity
  8
0
  6
Continuous
 62
     3
100
AcDbLine
 10
395.039
 20
123.636
 30
0.0
 11
395.039
 21
125.936
 31
0.0
  0
LINE
  5
3CD
330
20
100
AcDbEntity
  8
0
  6
Continuous
 62
     3
100
AcDbLine
 10
400.089
 20
125.136
 30
0.0
 11
400.539
 21
124.595
 31
0.0
  0
LINE
  5
3CE
330
20
100
AcDbEntity
  8
0
  6
Continuous
 62
     3
100
AcDbLine
 10
400.539
 20
124.595
 30
0.0
 11
401.539
 21
123.595
 31
0.0
  0
LINE
  5
3CF
330
20
100
AcDbEntity
  8
0
  6
Continuous
 62
     3
100
AcDbLine
 10
401.539
 20
123.595
 30
0.0
 11
413.039
 21
123.595
 31
0.0
  0
LINE
  5
3D0
330
20
100
AcDbEntity
  8
0
  6
Continuous
 62
     3
100
AcDbLine
 10
413.039
 20
123.595
 30
0.0
 11
413.039
 21
123.095
 31
0.0
  0
LINE
  5
3D1
330
20
100
AcDbEntity
  8
0
  6
Continuous
 62
     3
100
AcDbLine
 10
413.039
 20
123.095
 30
0.0
 11
401.539
 21
123.095
 31
0.0
  0
LINE
  5
3D2
330
20
100
AcDbEntity
  8
0
  6
Continuous
 62
     3
100
AcDbLine
 10
401.539
 20
123.095
 30
0.0
 11
400.5889999999999
 21
123.895
 31
0.0
  0
LINE
  5
3D3
330
20
100
AcDbEntity
  8
0
  6
Continuous
 62
     3
100
AcDbLine
 10
400.5889999999999
 20
123.895
 30
0.0
 11
399.989
 21
124.595
 31
0.0
  0
LINE
  5
3D4
330
20
100
AcDbEntity
  8
0
  6
Continuous
 62
     3
100
AcDbLine
 10
399.989
 20
124.595
 30
0.0
 11
399.589
 21
125.195
 31
0.0
  0
LINE
  5
3D5
330
20
100
AcDbEntity
  8
0
  6
Continuous
 62
     3
100
AcDbLine
 10
395.889
 20
126.095
 30
0.0
 11
395.839
 21
125.145
 31
0.0
  0
LINE
  5
3D6
330
20
100
AcDbEntity
  8
0
  6
Continuous
 62
     3
100
AcDbLine
 10
395.839
 20
125.145
 30
0.0
 11
395.839
 21
123.745
 31
0.0
  0
LINE
  5
3D7
330
20
100
AcDbEntity
  8
0
  6
Continuous
 62
     3
100
AcDbLine
 10
395.839
 20
123.745
 30
0.0
 11
395.789
 21
122.436
 31
0.0
  0
LINE
  5
3D8
330
20
100
AcDbEntity
  8
0
  6
Continuous
 62
     3
100
AcDbLine
 10
395.789
 20
122.436
 30
0.0
 11
391.939
 21
122.436
 31
0.0
  0
LINE
  5
3D9
330
20
100
AcDbEntity
  8
0
  6
Continuous
 62
     3
100
AcDbLine
 10
391.939
 20
122.436
 30
0.0
 11
389.039
 21
122.436
 31
0.0
  0
LINE
  5
3DA
330
20
100
AcDbEntity
  8
0
  6
Continuous
 62
     3
100
AcDbLine
 10
389.039
 20
122.436
 30
0.0
 11
389.039
 21
124.936
 31
0.0
  0
LINE
  5
3DB
330
20
100
AcDbEntity
  8
0
  6
Continuous
 62
     3
100
AcDbLine
 10
395.039
 20
125.936
 30
0.0
 11
395.289
 21
126.536
 31
0.0
  0
LINE
  5
3DC
330
20
100
AcDbEntity
  8
0
  6
Continuous
 62
     3
100
AcDbLine
 10
395.289
 20
126.536
 30
0.0
 11
395.589
 21
126.886
 31
0.0
  0
LINE
  5
3DD
330
20
100
AcDbEntity
  8
0
  6
Continuous
 62
     3
100
AcDbLine
 10
395.589
 20
126.886
 30
0.0
 11
395.939
 21
127.286
 31
0.0
  0
LINE
  5
3DE
330
20
100
AcDbEntity
  8
0
  6
Continuous
 62
     3
100
AcDbLine
 10
395.939
 20
127.286
 30
0.0
 11
396.289
 21
127.536
 31
0.0
  0
LINE
  5
3DF
330
20
100
AcDbEntity
  8
0
  6
Continuous
 62
     3
100
AcDbLine
 10
396.289
 20
127.536
 30
0.0
 11
396.539
 21
127.636
 31
0.0
  0
LINE
  5
3E0
330
20
100
AcDbEntity
  8
0
  6
Continuous
 62
     3
100
AcDbLine
 10
396.539
 20
127.636
 30
0.0
 11
397.189
 21
127.686
 31
0.0
  0
LINE
  5
3E1
330
20
100
AcDbEntity
  8
0
  6
Continuous
 62
     3
100
AcDbLine
 10
397.189
 20
127.686
 30
0.0
 11
397.639
 21
127.586
 31
0.0
  0
LINE
  5
3E2
330
20
100
AcDbEntity
  8
0
  6
Continuous
 62
     3
100
AcDbLine
 10
397.639
 20
127.586
 30
0.0
 11
398.089
 21
127.436
 31
0.0
  0
LINE
  5
3E3
330
20
100
AcDbEntity
  8
0
  6
Continuous
 62
     3
100
AcDbLine
 10
398.089
 20
127.436
 30
0.0
 11
398.439
 21
127.136
 31
0.0
  0
LINE
  5
3E4
330
20
100
AcDbEntity
  8
0
  6
Continuous
 62
     3
100
AcDbLine
 10
398.439
 20
127.136
 30
0.0
 11
398.789
 21
126.736
 31
0.0
  0
LINE
  5
3E5
330
20
100
AcDbEntity
  8
0
  6
Continuous
 62
     3
100
AcDbLine
 10
398.789
 20
126.736
 30
0.0
 11
399.189
 21
126.286
 31
0.0
  0
LINE
  5
3E6
330
20
100
AcDbEntity
  8
0
  6
Continuous
 62
     3
100
AcDbLine
 10
399.189
 20
126.286
 30
0.0
 11
399.589
 21
125.845
 31
0.0
  0
LINE
  5
3E7
330
20
100
AcDbEntity
  8
0
  6
Continuous
 62
     3
100
AcDbLine
 10
399.589
 20
125.845
 30
0.0
 11
400.089
 21
125.136
 31
0.0
  0
LINE
  5
3E8
330
20
100
AcDbEntity
  8
0
  6
Continuous
 62
     3
100
AcDbLine
 10
399.589
 20
125.195
 30
0.0
 11
399.089
 21
125.795
 31
0.0
  0
LINE
  5
3E9
330
20
100
AcDbEntity
  8
0
  6
Continuous
 62
     3
100
AcDbLine
 10
399.089
 20
125.795
 30
0.0
 11
398.689
 21
126.195
 31
0.0
  0
LINE
  5
3EA
330
20
100
AcDbEntity
  8
0
  6
Continuous
 62
     3
100
AcDbLine
 10
398.689
 20
126.195
 30
0.0
 11
398.339
 21
126.595
 31
0.0
  0
LINE
  5
3EB
330
20
100
AcDbEntity
  8
0
  6
Continuous
 62
     3
100
AcDbLine
 10
398.339
 20
126.595
 30
0.0
 11
397.889
 21
126.995
 31
0.0
  0
LINE
  5
3EC
330
20
100
AcDbEntity
  8
0
  6
Continuous
 62
     3
100
AcDbLine
 10
397.889
 20
126.995
 30
0.0
 11
397.389
 21
127.195
 31
0.0
  0
LINE
  5
3ED
330
20
100
AcDbEntity
  8
0
  6
Continuous
 62
     3
100
AcDbLine
 10
397.389
 20
127.195
 30
0.0
 11
396.889
 21
127.195
 31
0.0
  0
LINE
  5
3EE
330
20
100
AcDbEntity
  8
0
  6
Continuous
 62
     3
100
AcDbLine
 10
396.889
 20
127.195
 30
0.0
 11
396.439
 21
126.995
 31
0.0
  0
LINE
  5
3EF
330
20
100
AcDbEntity
  8
0
  6
Continuous
 62
     3
100
AcDbLine
 10
396.439
 20
126.995
 30
0.0
 11
396.139
 21
126.695
 31
0.0
  0
LINE
  5
3F0
330
20
100
AcDbEntity
  8
0
  6
Continuous
 62
     3
100
AcDbLine
 10
396.139
 20
126.695
 30
0.0
 11
395.889
 21
126.095
 31
0.0
  0
LINE
  5
3F1
330
20
100
AcDbEntity
  8
0
  6
Continuous
 62
     3
100
AcDbLine
 10
442.039
 20
124.936
 30
0.0
 11
438.039
 21
124.936
 31
0.0
  0
LINE
  5
3F2
330
20
100
AcDbEntity
  8
0
  6
Continuous
 62
     3
100
AcDbLine
 10
438.039
 20
124.936
 30
0.0
 11
438.039
 21
123.636
 31
0.0
  0
LINE
  5
3F3
330
20
100
AcDbEntity
  8
0
  6
Continuous
 62
     3
100
AcDbLine
 10
438.039
 20
123.636
 30
0.0
 11
436.0389999999999
 21
123.636
 31
0.0
  0
LINE
  5
3F4
330
20
100
AcDbEntity
  8
0
  6
Continuous
 62
     3
100
AcDbLine
 10
436.0389999999999
 20
123.636
 30
0.0
 11
436.0389999999999
 21
125.936
 31
0.0
  0
LINE
  5
3F5
330
20
100
AcDbEntity
  8
0
  6
Continuous
 62
     3
100
AcDbLine
 10
430.989
 20
125.136
 30
0.0
 11
430.539
 21
124.595
 31
0.0
  0
LINE
  5
3F6
330
20
100
AcDbEntity
  8
0
  6
Continuous
 62
     3
100
AcDbLine
 10
430.539
 20
124.595
 30
0.0
 11
429.539
 21
123.595
 31
0.0
  0
LINE
  5
3F7
330
20
100
AcDbEntity
  8
0
  6
Continuous
 62
     3
100
AcDbLine
 10
429.539
 20
123.595
 30
0.0
 11
418.039
 21
123.595
 31
0.0
  0
LINE
  5
3F8
330
20
100
AcDbEntity
  8
0
  6
Continuous
 62
     3
100
AcDbLine
 10
418.039
 20
123.595
 30
0.0
 11
418.039
 21
123.095
 31
0.0
  0
LINE
  5
3F9
330
20
100
AcDbEntity
  8
0
  6
Continuous
 62
     3
100
AcDbLine
 10
418.039
 20
123.095
 30
0.0
 11
429.539
 21
123.095
 31
0.0
  0
LINE
  5
3FA
330
20
100
AcDbEntity
  8
0
  6
Continuous
 62
     3
100
AcDbLine
 10
429.539
 20
123.095
 30
0.0
 11
430.489
 21
123.895
 31
0.0
  0
LINE
  5
3FB
330
20
100
AcDbEntity
  8
0
  6
Continuous
 62
     3
100
AcDbLine
 10
430.489
 20
123.895
 30
0.0
 11
431.0889999999999
 21
124.595
 31
0.0
  0
LINE
  5
3FC
330
20
100
AcDbEntity
  8
0
  6
Continuous
 62
     3
100
AcDbLine
 10
431.0889999999999
 20
124.595
 30
0.0
 11
431.489
 21
125.195
 31
0.0
  0
LINE
  5
3FD
330
20
100
AcDbEntity
  8
0
  6
Continuous
 62
     3
100
AcDbLine
 10
435.189
 20
126.095
 30
0.0
 11
435.239
 21
125.145
 31
0.0
  0
LINE
  5
3FE
330
20
100
AcDbEntity
  8
0
  6
Continuous
 62
     3
100
AcDbLine
 10
435.239
 20
125.145
 30
0.0
 11
435.239
 21
123.745
 31
0.0
  0
LINE
  5
3FF
330
20
100
AcDbEntity
  8
0
  6
Continuous
 62
     3
100
AcDbLine
 10
435.239
 20
123.745
 30
0.0
 11
435.289
 21
122.436
 31
0.0
  0
LINE
  5
400
330
20
100
AcDbEntity
  8
0
  6
Continuous
 62
     3
100
AcDbLine
 10
435.289
 20
122.436
 30
0.0
 11
439.139
 21
122.436
 31
0.0
  0
LINE
  5
401
330
20
100
AcDbEntity
  8
0
  6
Continuous
 62
     3
100
AcDbLine
 10
439.139
 20
122.436
 30
0.0
 11
442.039
 21
122.436
 31
0.0
  0
LINE
  5
402
330
20
100
AcDbEntity
  8
0
  6
Continuous
 62
     3
100
AcDbLine
 10
442.039
 20
122.436
 30
0.0
 11
442.039
 21
124.936
 31
0.0
  0
LINE
  5
403
330
20
100
AcDbEntity
  8
0
  6
Continuous
 62
     3
100
AcDbLine
 10
436.0389999999999
 20
125.936
 30
0.0
 11
435.789
 21
126.536
 31
0.0
  0
LINE
  5
404
330
20
100
AcDbEntity
  8
0
  6
Continuous
 62
     3
100
AcDbLine
 10
435.789
 20
126.536
 30
0.0
 11
435.489
 21
126.886
 31
0.0
  0
LINE
  5
405
330
20
100
AcDbEntity
  8
0
  6
Continuous
 62
     3
100
AcDbLine
 10
435.489
 20
126.886
 30
0.0
 11
435.139
 21
127.286
 31
0.0
  0
LINE
  5
406
330
20
100
AcDbEntity
  8
0
  6
Continuous
 62
     3
100
AcDbLine
 10
435.139
 20
127.286
 30
0.0
 11
434.7889999999999
 21
127.536
 31
0.0
  0
LINE
  5
407
330
20
100
AcDbEntity
  8
0
  6
Continuous
 62
     3
100
AcDbLine
 10
434.7889999999999
 20
127.536
 30
0.0
 11
434.539
 21
127.636
 31
0.0
  0
LINE
  5
408
330
20
100
AcDbEntity
  8
0
  6
Continuous
 62
     3
100
AcDbLine
 10
434.539
 20
127.636
 30
0.0
 11
433.889
 21
127.686
 31
0.0
  0
LINE
  5
409
330
20
100
AcDbEntity
  8
0
  6
Continuous
 62
     3
100
AcDbLine
 10
433.889
 20
127.686
 30
0.0
 11
433.4389999999999
 21
127.586
 31
0.0
  0
LINE
  5
40A
330
20
100
AcDbEntity
  8
0
  6
Continuous
 62
     3
100
AcDbLine
 10
433.4389999999999
 20
127.586
 30
0.0
 11
432.989
 21
127.436
 31
0.0
  0
LINE
  5
40B
330
20
100
AcDbEntity
  8
0
  6
Continuous
 62
     3
100
AcDbLine
 10
432.989
 20
127.436
 30
0.0
 11
432.6389999999999
 21
127.136
 31
0.0
  0
LINE
  5
40C
330
20
100
AcDbEntity
  8
0
  6
Continuous
 62
     3
100
AcDbLine
 10
432.6389999999999
 20
127.136
 30
0.0
 11
432.289
 21
126.736
 31
0.0
  0
LINE
  5
40D
330
20
100
AcDbEntity
  8
0
  6
Continuous
 62
     3
100
AcDbLine
 10
432.289
 20
126.736
 30
0.0
 11
431.889
 21
126.286
 31
0.0
  0
LINE
  5
40E
330
20
100
AcDbEntity
  8
0
  6
Continuous
 62
     3
100
AcDbLine
 10
431.889
 20
126.286
 30
0.0
 11
431.489
 21
125.845
 31
0.0
  0
LINE
  5
40F
330
20
100
AcDbEntity
  8
0
  6
Continuous
 62
     3
100
AcDbLine
 10
431.489
 20
125.845
 30
0.0
 11
430.989
 21
125.136
 31
0.0
  0
LINE
  5
410
330
20
100
AcDbEntity
  8
0
  6
Continuous
 62
     3
100
AcDbLine
 10
431.489
 20
125.195
 30
0.0
 11
431.989
 21
125.795
 31
0.0
  0
LINE
  5
411
330
20
100
AcDbEntity
  8
0
  6
Continuous
 62
     3
100
AcDbLine
 10
431.989
 20
125.795
 30
0.0
 11
432.389
 21
126.195
 31
0.0
  0
LINE
  5
412
330
20
100
AcDbEntity
  8
0
  6
Continuous
 62
     3
100
AcDbLine
 10
432.389
 20
126.195
 30
0.0
 11
432.739
 21
126.595
 31
0.0
  0
LINE
  5
413
330
20
100
AcDbEntity
  8
0
  6
Continuous
 62
     3
100
AcDbLine
 10
432.739
 20
126.595
 30
0.0
 11
433.189
 21
126.995
 31
0.0
  0
LINE
  5
414
330
20
100
AcDbEntity
  8
0
  6
Continuous
 62
     3
100
AcDbLine
 10
433.189
 20
126.995
 30
0.0
 11
433.689
 21
127.195
 31
0.0
  0
LINE
  5
415
330
20
100
AcDbEntity
  8
0
  6
Continuous
 62
     3
100
AcDbLine
 10
433.689
 20
127.195
 30
0.0
 11
434.189
 21
127.195
 31
0.0
  0
LINE
  5
416
330
20
100
AcDbEntity
  8
0
  6
Continuous
 62
     3
100
AcDbLine
 10
434.189
 20
127.195
 30
0.0
 11
434.639
 21
126.995
 31
0.0
  0
LINE
  5
417
330
20
100
AcDbEntity
  8
0
  6
Continuous
 62
     3
100
AcDbLine
 10
434.639
 20
126.995
 30
0.0
 11
434.939
 21
126.695
 31
0.0
  0
LINE
  5
418
330
20
100
AcDbEntity
  8
0
  6
Continuous
 62
     3
100
AcDbLine
 10
434.939
 20
126.695
 30
0.0
 11
435.189
 21
126.095
 31
0.0
  0
LINE
  5
419
330
20
100
AcDbEntity
  8
0
  6
Continuous
 62
     3
100
AcDbLine
 10
389.039
 20
122.936
 30
0.0
 11
387.539
 21
122.936
 31
0.0
  0
LINE
  5
41A
330
20
100
AcDbEntity
  8
0
  6
Continuous
 62
     3
100
AcDbLine
 10
396.289
 20
122.936
 30
0.0
 11
395.808098549
 21
122.936
 31
0.0
  0
LINE
  5
41B
330
20
100
AcDbEntity
  8
0
  6
Continuous
 62
     3
100
AcDbLine
 10
435.269901451
 20
122.936
 30
0.0
 11
434.7889999999999
 21
122.936
 31
0.0
  0
LINE
  5
41C
330
20
100
AcDbEntity
  8
0
  6
Continuous
 62
     3
100
AcDbLine
 10
443.5389999999999
 20
122.936
 30
0.0
 11
442.039
 21
122.936
 31
0.0
  0
LINE
  5
41D
330
20
100
AcDbEntity
  8
0
  6
Continuous
 62
     3
100
AcDbLine
 10
416.239
 20
123.095
 30
0.0
 11
416.239
 21
109.465
 31
0.0
  0
LINE
  5
41E
330
20
100
AcDbEntity
  8
0
  6
Continuous
 62
     3
100
AcDbLine
 10
416.239
 20
109.465
 30
0.0
 11
415.5389999999999
 21
109.465
 31
0.0
  0
LINE
  5
41F
330
20
100
AcDbEntity
  8
0
  6
Continuous
 62
     3
100
AcDbLine
 10
416.239
 20
123.095
 30
0.0
 11
415.5389999999999
 21
123.095
 31
0.0
  0
LINE
  5
420
330
20
100
AcDbEntity
  8
0
  6
Continuous
 62
     3
100
AcDbLine
 10
415.5389999999999
 20
123.095
 30
0.0
 11
414.839
 21
123.095
 31
0.0
  0
LINE
  5
421
330
20
100
AcDbEntity
  8
0
  6
Continuous
 62
     3
100
AcDbLine
 10
414.839
 20
123.095
 30
0.0
 11
414.839
 21
109.465
 31
0.0
  0
LINE
  5
422
330
20
100
AcDbEntity
  8
0
  6
Continuous
 62
     3
100
AcDbLine
 10
414.839
 20
109.465
 30
0.0
 11
415.5389999999999
 21
109.465
 31
0.0
  0
LINE
  5
423
330
20
100
AcDbEntity
  8
0
  6
Continuous
 62
     3
100
AcDbLine
 10
414.839
 20
109.936
 30
0.0
 11
410.5389999999999
 21
109.936
 31
0.0
  0
LINE
  5
424
330
20
100
AcDbEntity
  8
0
  6
Continuous
 62
     3
100
AcDbLine
 10
420.5389999999999
 20
109.936
 30
0.0
 11
416.239
 21
109.936
 31
0.0
  0
LINE
  5
425
330
20
100
AcDbEntity
  8
0
  6
Continuous
 62
     3
100
AcDbLine
 10
414.839
 20
113.936
 30
0.0
 11
406.5389999999999
 21
113.936
 31
0.0
  0
LINE
  5
426
330
20
100
AcDbEntity
  8
0
  6
Continuous
 62
     3
100
AcDbLine
 10
421.039
 20
113.936
 30
0.0
 11
416.239
 21
113.936
 31
0.0
  0
LINE
  5
427
330
20
100
AcDbEntity
  8
0
  6
Continuous
 62
     3
100
AcDbLine
 10
414.839
 20
119.436
 30
0.0
 11
398.539
 21
119.436
 31
0.0
  0
LINE
  5
428
330
20
100
AcDbEntity
  8
0
  6
Continuous
 62
     3
100
AcDbLine
 10
432.5389999999999
 20
119.436
 30
0.0
 11
416.239
 21
119.436
 31
0.0
  0
LINE
  5
429
330
20
100
AcDbEntity
  8
0
  6
Continuous
 62
     3
100
AcDbLine
 10
414.839
 20
121.095
 30
0.0
 11
401.539
 21
121.095
 31
0.0
  0
LINE
  5
42A
330
20
100
AcDbEntity
  8
0
  6
Continuous
 62
     3
100
AcDbLine
 10
429.539
 20
121.095
 30
0.0
 11
416.239
 21
121.095
 31
0.0
  0
LINE
  5
42B
330
20
100
AcDbEntity
  8
0
  6
Continuous
 62
     3
100
AcDbLine
 10
315.339
 20
360.936
 30
0.0
 11
315.339
 21
353.936
 31
0.0
  0
LINE
  5
42C
330
20
100
AcDbEntity
  8
0
  6
Continuous
 62
     3
100
AcDbLine
 10
315.339
 20
360.936
 30
0.0
 11
315.339
 21
362.036
 31
0.0
  0
LWPOLYLINE
  5
42D
330
20
100
AcDbEntity
  8
0
  6
Continuous
 62
     3
100
AcDbPolyline
 90
        3
 70
     0
 43
0.0
 10
315.339
 20
362.036
 10
322.339
 20
362.036
 10
322.339
 20
353.936
  0
LINE
  5
432
330
20
100
AcDbEntity
  8
0
  6
Continuous
 62
     3
100
AcDbLine
 10
322.339
 20
357.736
 30
0.0
 11
315.339
 21
357.736
 31
0.0
  0
LINE
  5
433
330
20
100
AcDbEntity
  8
0
  6
Continuous
 62
     3
100
AcDbLine
 10
315.339
 20
346.936
 30
0.0
 11
315.339
 21
353.936
 31
0.0
  0
LINE
  5
434
330
20
100
AcDbEntity
  8
0
  6
Continuous
 62
     3
100
AcDbLine
 10
315.339
 20
346.936
 30
0.0
 11
315.339
 21
345.836
 31
0.0
  0
LWPOLYLINE
  5
435
330
20
100
AcDbEntity
  8
0
  6
Continuous
 62
     3
100
AcDbPolyline
 90
        3
 70
     0
 43
0.0
 10
315.339
 20
345.836
 10
322.339
 20
345.836
 10
322.339
 20
353.936
  0
LINE
  5
43A
330
20
100
AcDbEntity
  8
0
  6
Continuous
 62
     3
100
AcDbLine
 10
322.339
 20
350.136
 30
0.0
 11
315.339
 21
350.136
 31
0.0
  0
LINE
  5
43B
330
20
100
AcDbEntity
  8
0
  6
Continuous
 62
     3
100
AcDbLine
 10
326.639
 20
362.586
 30
0.0
 11
326.639
 21
353.936
 31
0.0
  0
LINE
  5
43C
330
20
100
AcDbEntity
  8
0
  6
Continuous
 62
     3
100
AcDbLine
 10
327.139
 20
363.086
 30
0.0
 11
326.639
 21
362.586
 31
0.0
  0
LINE
  5
43D
330
20
100
AcDbEntity
  8
0
  6
Continuous
 62
     3
100
AcDbLine
 10
326.639
 20
345.286
 30
0.0
 11
326.639
 21
353.936
 31
0.0
  0
LINE
  5
43E
330
20
100
AcDbEntity
  8
0
  6
Continuous
 62
     3
100
AcDbLine
 10
327.139
 20
344.786
 30
0.0
 11
326.639
 21
345.286
 31
0.0
  0
LINE
  5
43F
330
20
100
AcDbEntity
  8
0
  6
Continuous
 62
     3
100
AcDbLine
 10
322.339
 20
358.336
 30
0.0
 11
326.639
 21
358.336
 31
0.0
  0
LINE
  5
440
330
20
100
AcDbEntity
  8
0
  6
Continuous
 62
     3
100
AcDbLine
 10
322.339
 20
349.536
 30
0.0
 11
326.639
 21
349.536
 31
0.0
  0
LINE
  5
441
330
20
100
AcDbEntity
  8
0
  6
Continuous
 62
     3
100
AcDbLine
 10
302.800651751
 20
359.971511673
 30
0.0
 11
315.339
 21
360.936
 31
0.0
  0
LINE
  5
442
330
20
100
AcDbEntity
  8
0
  6
Continuous
 62
     3
100
AcDbLine
 10
302.339
 20
359.47298443
 30
0.0
 11
302.339
 21
353.936
 31
0.0
  0
LINE
  5
443
330
20
100
AcDbEntity
  8
0
  6
Continuous
 62
     3
100
AcDbLine
 10
302.800651751
 20
359.971511673
 30
0.0
 11
302.339
 21
359.47298443
 31
0.0
  0
LINE
  5
444
330
20
100
AcDbEntity
  8
0
  6
Continuous
 62
     3
100
AcDbLine
 10
302.800651751
 20
347.900488327
 30
0.0
 11
315.339
 21
346.936
 31
0.0
  0
LINE
  5
445
330
20
100
AcDbEntity
  8
0
  6
Continuous
 62
     3
100
AcDbLine
 10
302.339
 20
348.39901557
 30
0.0
 11
302.339
 21
353.936
 31
0.0
  0
LINE
  5
446
330
20
100
AcDbEntity
  8
0
  6
Continuous
 62
     3
100
AcDbLine
 10
302.800651751
 20
347.900488327
 30
0.0
 11
302.339
 21
348.39901557
 31
0.0
  0
ARC
  5
447
330
20
100
AcDbEntity
  8
0
  6
Continuous
 62
     3
100
AcDbCircle
 10
327.119
 20
353.936
 30
0.0
 40
12.02
100
AcDbArc
 50
336.463422136
 51
23.536577864
  0
ARC
  5
448
330
20
100
AcDbEntity
  8
0
  6
Continuous
 62
     3
100
AcDbCircle
 10
336.299
 20
346.961
 30
0.0
 40
2.848898909999999
100
AcDbArc
 50
310.230453354
 51
49.769546646
  0
ARC
  5
449
330
20
100
AcDbEntity
  8
0
  6
Continuous
 62
     3
100
AcDbCircle
 10
336.469
 20
360.911
 30
0.0
 40
2.742175231
100
AcDbArc
 50
307.517634151
 51
52.482365849
  0
LINE
  5
44A
330
20
100
AcDbEntity
  8
0
  6
Continuous
 62
     3
100
AcDbLine
 10
338.139
 20
363.086
 30
0.0
 11
327.139
 21
363.086
 31
0.0
  0
LINE
  5
44B
330
20
100
AcDbEntity
  8
0
  6
Continuous
 62
     3
100
AcDbLine
 10
338.239
 20
344.786
 30
0.0
 11
327.139
 21
344.786
 31
0.0
  0
LINE
  5
44C
330
20
100
AcDbEntity
  8
0
  6
Continuous
 62
     3
100
AcDbLine
 10
338.139
 20
349.136
 30
0.0
 11
326.639
 21
349.136
 31
0.0
  0
LINE
  5
44D
330
20
100
AcDbEntity
  8
0
  6
Continuous
 62
     3
100
AcDbLine
 10
338.139
 20
358.736
 30
0.0
 11
326.639
 21
358.736
 31
0.0
  0
LINE
  5
44E
330
20
100
AcDbEntity
  8
0
  6
Continuous
 62
     3
100
AcDbLine
 10
339.139
 20
347.186
 30
0.0
 11
340.639
 21
347.186
 31
0.0
  0
LINE
  5
44F
330
20
100
AcDbEntity
  8
0
  6
Continuous
 62
     3
100
AcDbLine
 10
341.139
 20
353.936
 30
0.0
 11
341.139
 21
347.686
 31
0.0
  0
LINE
  5
450
330
20
100
AcDbEntity
  8
0
  6
Continuous
 62
     3
100
AcDbLine
 10
340.639
 20
347.186
 30
0.0
 11
341.139
 21
347.686
 31
0.0
  0
LINE
  5
451
330
20
100
AcDbEntity
  8
0
  6
Continuous
 62
     3
100
AcDbLine
 10
339.139
 20
353.936
 30
0.0
 11
339.139
 21
347.186
 31
0.0
  0
LINE
  5
452
330
20
100
AcDbEntity
  8
0
  6
Continuous
 62
     3
100
AcDbLine
 10
339.139
 20
360.686
 30
0.0
 11
340.639
 21
360.686
 31
0.0
  0
LINE
  5
453
330
20
100
AcDbEntity
  8
0
  6
Continuous
 62
     3
100
AcDbLine
 10
341.139
 20
353.936
 30
0.0
 11
341.139
 21
360.186
 31
0.0
  0
LINE
  5
454
330
20
100
AcDbEntity
  8
0
  6
Continuous
 62
     3
100
AcDbLine
 10
340.639
 20
360.686
 30
0.0
 11
341.139
 21
360.186
 31
0.0
  0
LINE
  5
455
330
20
100
AcDbEntity
  8
0
  6
Continuous
 62
     3
100
AcDbLine
 10
339.139
 20
353.936
 30
0.0
 11
339.139
 21
360.686
 31
0.0
  0
LINE
  5
456
330
20
100
AcDbEntity
  8
0
  6
Continuous
 62
     3
100
AcDbLine
 10
322.839
 20
349.536
 30
0.0
 11
322.839
 21
353.936
 31
0.0
  0
LINE
  5
457
330
20
100
AcDbEntity
  8
0
  6
Continuous
 62
     3
100
AcDbLine
 10
322.839
 20
349.536
 30
0.0
 11
323.639
 21
347.936
 31
0.0
  0
LINE
  5
458
330
20
100
AcDbEntity
  8
0
  6
Continuous
 62
     3
100
AcDbLine
 10
326.639
 20
347.936
 30
0.0
 11
323.639
 21
347.936
 31
0.0
  0
LINE
  5
459
330
20
100
AcDbEntity
  8
0
  6
Continuous
 62
     3
100
AcDbLine
 10
322.839
 20
358.386
 30
0.0
 11
322.839
 21
353.936
 31
0.0
  0
LINE
  5
45A
330
20
100
AcDbEntity
  8
0
  6
Continuous
 62
     3
100
AcDbLine
 10
322.839
 20
358.336
 30
0.0
 11
323.639
 21
359.936
 31
0.0
  0
LINE
  5
45B
330
20
100
AcDbEntity
  8
0
  6
Continuous
 62
     3
100
AcDbLine
 10
326.639
 20
359.936
 30
0.0
 11
323.639
 21
359.936
 31
0.0
  0
LINE
  5
45C
330
20
100
AcDbEntity
  8
0
  6
Continuous
 62
     3
100
AcDbLine
 10
302.800651751
 20
359.971511673
 30
0.0
 11
302.800651751
 21
353.936
 31
0.0
  0
LINE
  5
45D
330
20
100
AcDbEntity
  8
0
  6
Continuous
 62
     3
100
AcDbLine
 10
302.800651751
 20
347.900488327
 30
0.0
 11
302.800651751
 21
353.936
 31
0.0
  0
LINE
  5
45E
330
20
100
AcDbEntity
  8
0
  6
Continuous
 62
     3
100
AcDbLine
 10
408.539
 20
169.9359999999999
 30
0.0
 11
415.5389999999999
 21
169.9359999999999
 31
0.0
  0
LINE
  5
45F
330
20
100
AcDbEntity
  8
0
  6
Continuous
 62
     3
100
AcDbLine
 10
408.539
 20
169.9359999999999
 30
0.0
 11
407.439
 21
169.9359999999999
 31
0.0
  0
LWPOLYLINE
  5
460
330
20
100
AcDbEntity
  8
0
  6
Continuous
 62
     3
100
AcDbPolyline
 90
        3
 70
     0
 43
0.0
 10
407.439
 20
169.9359999999999
 10
407.439
 20
176.9359999999999
 10
415.5389999999999
 20
176.9359999999999
  0
LINE
  5
465
330
20
100
AcDbEntity
  8
0
  6
Continuous
 62
     3
100
AcDbLine
 10
411.739
 20
176.9359999999999
 30
0.0
 11
411.739
 21
169.9359999999999
 31
0.0
  0
LINE
  5
466
330
20
100
AcDbEntity
  8
0
  6
Continuous
 62
     3
100
AcDbLine
 10
422.5389999999999
 20
169.9359999999999
 30
0.0
 11
415.5389999999999
 21
169.9359999999999
 31
0.0
  0
LINE
  5
467
330
20
100
AcDbEntity
  8
0
  6
Continuous
 62
     3
100
AcDbLine
 10
422.5389999999999
 20
169.9359999999999
 30
0.0
 11
423.639
 21
169.9359999999999
 31
0.0
  0
LWPOLYLINE
  5
468
330
20
100
AcDbEntity
  8
0
  6
Continuous
 62
     3
100
AcDbPolyline
 90
        3
 70
     0
 43
0.0
 10
423.639
 20
169.9359999999999
 10
423.639
 20
176.9359999999999
 10
415.5389999999999
 20
176.9359999999999
  0
LINE
  5
46D
330
20
100
AcDbEntity
  8
0
  6
Continuous
 62
     3
100
AcDbLine
 10
419.3389999999999
 20
176.9359999999999
 30
0.0
 11
419.3389999999999
 21
169.9359999999999
 31
0.0
  0
LINE
  5
46E
330
20
100
AcDbEntity
  8
0
  6
Continuous
 62
     3
100
AcDbLine
 10
406.889
 20
181.236
 30
0.0
 11
415.5389999999999
 21
181.236
 31
0.0
  0
LINE
  5
46F
330
20
100
AcDbEntity
  8
0
  6
Continuous
 62
     3
100
AcDbLine
 10
406.3889999999999
 20
181.736
 30
0.0
 11
406.889
 21
181.236
 31
0.0
  0
LINE
  5
470
330
20
100
AcDbEntity
  8
0
  6
Continuous
 62
     3
100
AcDbLine
 10
424.189
 20
181.236
 30
0.0
 11
415.5389999999999
 21
181.236
 31
0.0
  0
LINE
  5
471
330
20
100
AcDbEntity
  8
0
  6
Continuous
 62
     3
100
AcDbLine
 10
424.689
 20
181.736
 30
0.0
 11
424.189
 21
181.236
 31
0.0
  0
LINE
  5
472
330
20
100
AcDbEntity
  8
0
  6
Continuous
 62
     3
100
AcDbLine
 10
411.139
 20
176.9359999999999
 30
0.0
 11
411.139
 21
181.236
 31
0.0
  0
LINE
  5
473
330
20
100
AcDbEntity
  8
0
  6
Continuous
 62
     3
100
AcDbLine
 10
419.939
 20
176.9359999999999
 30
0.0
 11
419.939
 21
181.236
 31
0.0
  0
LINE
  5
474
330
20
100
AcDbEntity
  8
0
  6
Continuous
 62
     3
100
AcDbLine
 10
409.5034883269999
 20
157.397651751
 30
0.0
 11
408.539
 21
169.9359999999999
 31
0.0
  0
LINE
  5
475
330
20
100
AcDbEntity
  8
0
  6
Continuous
 62
     3
100
AcDbLine
 10
410.00201557
 20
156.936
 30
0.0
 11
415.5389999999999
 21
156.936
 31
0.0
  0
LINE
  5
476
330
20
100
AcDbEntity
  8
0
  6
Continuous
 62
     3
100
AcDbLine
 10
409.5034883269999
 20
157.397651751
 30
0.0
 11
410.00201557
 21
156.936
 31
0.0
  0
LINE
  5
477
330
20
100
AcDbEntity
  8
0
  6
Continuous
 62
     3
100
AcDbLine
 10
421.5745116729999
 20
157.397651751
 30
0.0
 11
422.5389999999999
 21
169.9359999999999
 31
0.0
  0
LINE
  5
478
330
20
100
AcDbEntity
  8
0
  6
Continuous
 62
     3
100
AcDbLine
 10
421.07598443
 20
156.936
 30
0.0
 11
415.5389999999999
 21
156.936
 31
0.0
  0
LINE
  5
479
330
20
100
AcDbEntity
  8
0
  6
Continuous
 62
     3
100
AcDbLine
 10
421.5745116729999
 20
157.397651751
 30
0.0
 11
421.07598443
 21
156.936
 31
0.0
  0
ARC
  5
47A
330
20
100
AcDbEntity
  8
0
  6
Continuous
 62
     3
100
AcDbCircle
 10
415.5389999999999
 20
181.716
 30
0.0
 40
12.02
100
AcDbArc
 50
66.463422136
 51
113.536577864
  0
ARC
  5
47B
330
20
100
AcDbEntity
  8
0
  6
Continuous
 62
     3
100
AcDbCircle
 10
422.514
 20
190.896
 30
0.0
 40
2.848898909999999
100
AcDbArc
 50
40.23045335399999
 51
139.769546646
  0
ARC
  5
47C
330
20
100
AcDbEntity
  8
0
  6
Continuous
 62
     3
100
AcDbCircle
 10
408.564
 20
191.066
 30
0.0
 40
2.742175231
100
AcDbArc
 50
37.517634151
 51
142.482365849
  0
LINE
  5
47D
330
20
100
AcDbEntity
  8
0
  6
Continuous
 62
     3
100
AcDbLine
 10
406.3889999999999
 20
192.736
 30
0.0
 11
406.3889999999999
 21
181.736
 31
0.0
  0
LINE
  5
47E
330
20
100
AcDbEntity
  8
0
  6
Continuous
 62
     3
100
AcDbLine
 10
424.689
 20
192.8359999999999
 30
0.0
 11
424.689
 21
181.736
 31
0.0
  0
LINE
  5
47F
330
20
100
AcDbEntity
  8
0
  6
Continuous
 62
     3
100
AcDbLine
 10
420.3389999999999
 20
192.736
 30
0.0
 11
420.3389999999999
 21
181.236
 31
0.0
  0
LINE
  5
480
330
20
100
AcDbEntity
  8
0
  6
Continuous
 62
     3
100
AcDbLine
 10
410.739
 20
192.736
 30
0.0
 11
410.739
 21
181.236
 31
0.0
  0
LINE
  5
481
330
20
100
AcDbEntity
  8
0
  6
Continuous
 62
     3
100
AcDbLine
 10
422.2889999999999
 20
193.736
 30
0.0
 11
422.2889999999999
 21
195.236
 31
0.0
  0
LINE
  5
482
330
20
100
AcDbEntity
  8
0
  6
Continuous
 62
     3
100
AcDbLine
 10
415.5389999999999
 20
195.736
 30
0.0
 11
421.7889999999999
 21
195.736
 31
0.0
  0
LINE
  5
483
330
20
100
AcDbEntity
  8
0
  6
Continuous
 62
     3
100
AcDbLine
 10
422.2889999999999
 20
195.236
 30
0.0
 11
421.7889999999999
 21
195.736
 31
0.0
  0
LINE
  5
484
330
20
100
AcDbEntity
  8
0
  6
Continuous
 62
     3
100
AcDbLine
 10
415.5389999999999
 20
193.736
 30
0.0
 11
422.2889999999999
 21
193.736
 31
0.0
  0
LINE
  5
485
330
20
100
AcDbEntity
  8
0
  6
Continuous
 62
     3
100
AcDbLine
 10
408.7889999999999
 20
193.736
 30
0.0
 11
408.7889999999999
 21
195.236
 31
0.0
  0
LINE
  5
486
330
20
100
AcDbEntity
  8
0
  6
Continuous
 62
     3
100
AcDbLine
 10
415.5389999999999
 20
195.736
 30
0.0
 11
409.2889999999999
 21
195.736
 31
0.0
  0
LINE
  5
487
330
20
100
AcDbEntity
  8
0
  6
Continuous
 62
     3
100
AcDbLine
 10
408.7889999999999
 20
195.236
 30
0.0
 11
409.2889999999999
 21
195.736
 31
0.0
  0
LINE
  5
488
330
20
100
AcDbEntity
  8
0
  6
Continuous
 62
     3
100
AcDbLine
 10
415.5389999999999
 20
193.736
 30
0.0
 11
408.7889999999999
 21
193.736
 31
0.0
  0
LINE
  5
489
330
20
100
AcDbEntity
  8
0
  6
Continuous
 62
     3
100
AcDbLine
 10
419.939
 20
177.4359999999999
 30
0.0
 11
415.5389999999999
 21
177.4359999999999
 31
0.0
  0
LINE
  5
48A
330
20
100
AcDbEntity
  8
0
  6
Continuous
 62
     3
100
AcDbLine
 10
419.939
 20
177.4359999999999
 30
0.0
 11
421.539
 21
178.236
 31
0.0
  0
LINE
  5
48B
330
20
100
AcDbEntity
  8
0
  6
Continuous
 62
     3
100
AcDbLine
 10
421.539
 20
181.236
 30
0.0
 11
421.539
 21
178.236
 31
0.0
  0
LINE
  5
48C
330
20
100
AcDbEntity
  8
0
  6
Continuous
 62
     3
100
AcDbLine
 10
411.089
 20
177.4359999999999
 30
0.0
 11
415.5389999999999
 21
177.4359999999999
 31
0.0
  0
LINE
  5
48D
330
20
100
AcDbEntity
  8
0
  6
Continuous
 62
     3
100
AcDbLine
 10
411.139
 20
177.4359999999999
 30
0.0
 11
409.539
 21
178.236
 31
0.0
  0
LINE
  5
48E
330
20
100
AcDbEntity
  8
0
  6
Continuous
 62
     3
100
AcDbLine
 10
409.539
 20
181.236
 30
0.0
 11
409.539
 21
178.236
 31
0.0
  0
LINE
  5
48F
330
20
100
AcDbEntity
  8
0
  6
Continuous
 62
     3
100
AcDbLine
 10
409.5034883269999
 20
157.397651751
 30
0.0
 11
415.5389999999999
 21
157.397651751
 31
0.0
  0
LINE
  5
490
330
20
100
AcDbEntity
  8
0
  6
Continuous
 62
     3
100
AcDbLine
 10
421.5745116729999
 20
157.397651751
 30
0.0
 11
415.5389999999999
 21
157.397651751
 31
0.0
  0
LWPOLYLINE
  5
491
330
20
100
AcDbEntity
  8
0
  6
Continuous
 62
     3
100
AcDbPolyline
 90
        4
 70
     1
 43
0.0
 10
159.339
 20
126.936
 10
127.339
 20
126.936
 10
127.339
 20
86.93600000000001
 10
159.339
 20
86.93600000000001
  0
LINE
  5
497
330
20
100
AcDbEntity
  8
0
  6
Continuous
 62
     3
100
AcDbLine
 10
159.339
 20
370.936
 30
0.0
 11
127.339
 21
370.936
 31
0.0
  0
LWPOLYLINE
  5
498
330
20
100
AcDbEntity
  8
0
  6
Continuous
 62
     3
100
AcDbPolyline
 90
        4
 70
     0
 43
0.0
 10
127.339
 20
370.936
 10
127.339
 20
330.936
 10
159.339
 20
330.936
 10
159.339
 20
370.936
  0
LINE
  5
49E
330
20
100
AcDbEntity
  8
0
  6
Continuous
 62
     3
100
AcDbLine
 10
129.089
 20
329.436
 30
0.0
 11
129.089
 21
330.936
 31
0.0
  0
LINE
  5
49F
330
20
100
AcDbEntity
  8
0
  6
Continuous
 62
     3
100
AcDbLine
 10
158.339
 20
319.936
 30
0.0
 11
158.839
 21
320.436
 31
0.0
  0
LINE
  5
4A0
330
20
100
AcDbEntity
  8
0
  6
Continuous
 62
     3
100
AcDbLine
 10
158.839
 20
320.436
 30
0.0
 11
158.839
 21
328.936
 31
0.0
  0
LINE
  5
4A1
330
20
100
AcDbEntity
  8
0
  6
Continuous
 62
     3
100
AcDbLine
 10
158.339
 20
329.436
 30
0.0
 11
158.839
 21
328.936
 31
0.0
  0
LINE
  5
4A2
330
20
100
AcDbEntity
  8
0
  6
Continuous
 62
     3
100
AcDbLine
 10
158.339
 20
319.936
 30
0.0
 11
128.339
 21
319.936
 31
0.0
  0
LINE
  5
4A3
330
20
100
AcDbEntity
  8
0
  6
Continuous
 62
     3
100
AcDbLine
 10
127.839
 20
320.436
 30
0.0
 11
128.339
 21
319.936
 31
0.0
  0
LINE
  5
4A4
330
20
100
AcDbEntity
  8
0
  6
Continuous
 62
     3
100
AcDbLine
 10
127.839
 20
320.436
 30
0.0
 11
127.839
 21
328.936
 31
0.0
  0
LINE
  5
4A5
330
20
100
AcDbEntity
  8
0
  6
Continuous
 62
     3
100
AcDbLine
 10
128.339
 20
329.436
 30
0.0
 11
127.839
 21
328.936
 31
0.0
  0
LWPOLYLINE
  5
4A6
330
20
100
AcDbEntity
  8
0
  6
Continuous
 62
     3
100
AcDbPolyline
 90
        3
 70
     0
 43
0.0
 10
129.089
 20
330.936
 10
157.589
 20
330.936
 10
157.589
 20
329.436
  0
LINE
  5
4AB
330
20
100
AcDbEntity
  8
0
  6
Continuous
 62
     3
100
AcDbLine
 10
157.589
 20
128.436
 30
0.0
 11
157.589
 21
126.936
 31
0.0
  0
LINE
  5
4AC
330
20
100
AcDbEntity
  8
0
  6
Continuous
 62
     3
100
AcDbLine
 10
128.339
 20
137.936
 30
0.0
 11
127.839
 21
137.436
 31
0.0
  0
LINE
  5
4AD
330
20
100
AcDbEntity
  8
0
  6
Continuous
 62
     3
100
AcDbLine
 10
127.839
 20
137.436
 30
0.0
 11
127.839
 21
128.936
 31
0.0
  0
LINE
  5
4AE
330
20
100
AcDbEntity
  8
0
  6
Continuous
 62
     3
100
AcDbLine
 10
128.339
 20
128.436
 30
0.0
 11
127.839
 21
128.936
 31
0.0
  0
LINE
  5
4AF
330
20
100
AcDbEntity
  8
0
  6
Continuous
 62
     3
100
AcDbLine
 10
128.339
 20
137.936
 30
0.0
 11
158.339
 21
137.936
 31
0.0
  0
LINE
  5
4B0
330
20
100
AcDbEntity
  8
0
  6
Continuous
 62
     3
100
AcDbLine
 10
158.839
 20
137.436
 30
0.0
 11
158.339
 21
137.936
 31
0.0
  0
LINE
  5
4B1
330
20
100
AcDbEntity
  8
0
  6
Continuous
 62
     3
100
AcDbLine
 10
158.839
 20
137.436
 30
0.0
 11
158.839
 21
128.936
 31
0.0
  0
LINE
  5
4B2
330
20
100
AcDbEntity
  8
0
  6
Continuous
 62
     3
100
AcDbLine
 10
158.339
 20
128.436
 30
0.0
 11
158.839
 21
128.936
 31
0.0
  0
LWPOLYLINE
  5
4B3
330
20
100
AcDbEntity
  8
0
  6
Continuous
 62
     3
100
AcDbPolyline
 90
        3
 70
     0
 43
0.0
 10
157.589
 20
126.936
 10
129.089
 20
126.936
 10
129.089
 20
128.436
  0
LINE
  5
4B8
330
20
100
AcDbEntity
  8
0
  6
Continuous
 62
     3
100
AcDbLine
 10
125.189
 20
370.936
 30
0.0
 11
125.189
 21
86.93600000000001
 31
0.0
  0
LWPOLYLINE
  5
4B9
330
20
100
AcDbEntity
  8
0
  6
Continuous
 62
     3
100
AcDbPolyline
 90
        3
 70
     0
 43
0.0
 10
125.189
 20
86.93600000000001
 10
161.489
 20
86.93600000000001
 10
161.489
 20
370.936
  0
LINE
  5
4BE
330
20
100
AcDbEntity
  8
0
  6
Continuous
 62
     3
100
AcDbLine
 10
135.839
 20
370.936
 30
0.0
 11
125.189
 21
370.936
 31
0.0
  0
LINE
  5
4BF
330
20
100
AcDbEntity
  8
0
  6
Continuous
 62
     3
100
AcDbLine
 10
161.489
 20
370.936
 30
0.0
 11
150.839
 21
370.936
 31
0.0
  0
LINE
  5
4C0
330
20
100
AcDbEntity
  8
0
  6
Continuous
 62
     3
100
AcDbLine
 10
147.372333333
 20
314.936
 30
0.0
 11
139.305666667
 21
314.936
 31
0.0
  0
LINE
  5
4C1
330
20
100
AcDbEntity
  8
0
  6
Continuous
 62
     3
100
AcDbLine
 10
143.339
 20
95.853096231
 30
0.0
 11
150.339
 21
99.89454811600001
 31
0.0
  0
LWPOLYLINE
  5
4C2
330
20
100
AcDbEntity
  8
0
  6
Continuous
 62
     3
100
AcDbPolyline
 90
        6
 70
     0
 43
0.0
 10
150.339
 20
99.89454811600001
 10
150.339
 20
107.977451884
 10
143.339
 20
112.018903769
 10
136.339
 20
107.977451884
 10
136.339
 20
99.89454811600001
 10
143.339
 20
95.853096231
  0
CIRCLE
  5
4CA
330
20
100
AcDbEntity
  8
0
  6
Continuous
 62
     3
100
AcDbCircle
 10
143.339
 20
103.936
 30
0.0
 40
7.0
  0
CIRCLE
  5
4CB
330
20
100
AcDbEntity
  8
0
  6
Continuous
 62
     3
100
AcDbCircle
 10
143.339
 20
353.936
 30
0.0
 40
16.0
  0
LINE
  5
4CC
330
20
100
AcDbEntity
  8
0
  6
Continuous
 62
     3
100
AcDbLine
 10
135.839
 20
368.069294025
 30
0.0
 11
135.839
 21
370.936
 31
0.0
  0
LINE
  5
4CD
330
20
100
AcDbEntity
  8
0
  6
Continuous
 62
     3
100
AcDbLine
 10
150.839
 20
368.069294025
 30
0.0
 11
150.839
 21
370.936
 31
0.0
  0
LINE
  5
4CE
330
20
100
AcDbEntity
  8
0
  6
Continuous
 62
     3
100
AcDbLine
 10
147.965666667
 20
140.936
 30
0.0
 11
138.712333333
 21
140.936
 31
0.0
  0
LINE
  5
4CF
330
20
100
AcDbEntity
  8
0
  6
Continuous
 62
     3
100
AcDbLine
 10
158.339
 20
329.436
 30
0.0
 11
143.339
 21
329.436
 31
0.0
  0
LINE
  5
4D0
330
20
100
AcDbEntity
  8
0
  6
Continuous
 62
     3
100
AcDbLine
 10
143.339
 20
329.436
 30
0.0
 11
128.339
 21
329.436
 31
0.0
  0
LINE
  5
4D1
330
20
100
AcDbEntity
  8
0
  6
Continuous
 62
     3
100
AcDbLine
 10
135.339
 20
319.936
 30
0.0
 11
135.339
 21
137.936
 31
0.0
  0
LINE
  5
4D2
330
20
100
AcDbEntity
  8
0
  6
Continuous
 62
     3
100
AcDbLine
 10
151.339
 20
137.936
 30
0.0
 11
151.339
 21
319.936
 31
0.0
  0
LINE
  5
4D3
330
20
100
AcDbEntity
  8
0
  6
Continuous
 62
     3
100
AcDbLine
 10
143.339
 20
128.436
 30
0.0
 11
158.339
 21
128.436
 31
0.0
  0
LINE
  5
4D4
330
20
100
AcDbEntity
  8
0
  6
Continuous
 62
     3
100
AcDbLine
 10
128.339
 20
128.436
 30
0.0
 11
143.339
 21
128.436
 31
0.0
  0
LINE
  5
4D5
330
20
100
AcDbEntity
  8
0
  6
Continuous
 62
     3
100
AcDbLine
 10
147.389
 20
203.833
 30
0.0
 11
147.389
 21
200.333
 31
0.0
  0
LINE
  5
4D6
330
20
100
AcDbEntity
  8
0
  6
Continuous
 62
     3
100
AcDbLine
 10
139.289
 20
200.333
 30
0.0
 11
139.289
 21
203.833
 31
0.0
  0
LINE
  5
4D7
330
20
100
AcDbEntity
  8
0
  6
Continuous
 62
     3
100
AcDbLine
 10
139.289
 20
203.833
 30
0.0
 11
147.389
 21
203.833
 31
0.0
  0
LINE
  5
4D8
330
20
100
AcDbEntity
  8
0
  6
Continuous
 62
     3
100
AcDbLine
 10
146.339
 20
200.333
 30
0.0
 11
146.339
 21
194.333
 31
0.0
  0
LINE
  5
4D9
330
20
100
AcDbEntity
  8
0
  6
Continuous
 62
     3
100
AcDbLine
 10
140.339
 20
200.333
 30
0.0
 11
140.339
 21
194.333
 31
0.0
  0
LINE
  5
4DA
330
20
100
AcDbEntity
  8
0
  6
Continuous
 62
     3
100
AcDbLine
 10
139.289
 20
200.333
 30
0.0
 11
140.339
 21
200.333
 31
0.0
  0
LINE
  5
4DB
330
20
100
AcDbEntity
  8
0
  6
Continuous
 62
     3
100
AcDbLine
 10
146.339
 20
200.333
 30
0.0
 11
147.389
 21
200.333
 31
0.0
  0
LINE
  5
4DC
330
20
100
AcDbEntity
  8
0
  6
Continuous
 62
     3
100
AcDbLine
 10
146.339
 20
194.333
 30
0.0
 11
143.339
 21
189.633
 31
0.0
  0
LINE
  5
4DD
330
20
100
AcDbEntity
  8
0
  6
Continuous
 62
     3
100
AcDbLine
 10
140.339
 20
194.333
 30
0.0
 11
143.339
 21
189.633
 31
0.0
  0
LINE
  5
4DE
330
20
100
AcDbEntity
  8
0
  6
Continuous
 62
     3
100
AcDbLine
 10
138.562333333
 20
319.936
 30
0.0
 11
139.315666667
 21
137.936
 31
0.0
  0
LINE
  5
4DF
330
20
100
AcDbEntity
  8
0
  6
Continuous
 62
     3
100
AcDbLine
 10
148.115666667
 20
319.936
 30
0.0
 11
147.3623333329999
 21
137.936
 31
0.0
  0
ARC
  5
4E0
330
20
100
AcDbEntity
  8
0
  6
Continuous
 62
     3
100
AcDbCircle
 10
270.912276439
 20
495.206177826
 30
0.0
 40
4.416162502999999
100
AcDbArc
 50
332.769257336
 51
27.23074266400001
  0
ARC
  5
4E1
330
20
100
AcDbEntity
  8
0
  6
Continuous
 62
     3
100
AcDbCircle
 10
271.005666667
 20
483.081822174
 30
0.0
 40
4.333333332999999
100
AcDbArc
 50
332.204227504
 51
27.795772496
  0
ARC
  5
4E2
330
20
100
AcDbEntity
  8
0
  6
Continuous
 62
     3
100
AcDbCircle
 10
258.755666667
 20
489.144
 30
0.0
 40
16.583333333
100
AcDbArc
 50
345.894645945
 51
14.105354055
  0
LINE
  5
4E3
330
20
100
AcDbEntity
  8
0
  6
Continuous
 62
     3
100
AcDbLine
 10
275.339
 20
483.0818233419999
 30
0.0
 11
275.339
 21
495.2061770009999
 31
0.0
  0
LINE
  5
4E4
330
20
100
AcDbEntity
  8
0
  6
Continuous
 62
     3
100
AcDbLine
 10
317.839
 20
506.144806117
 30
0.0
 11
317.839
 21
505.294
 31
0.0
  0
LINE
  5
4E5
330
20
100
AcDbEntity
  8
0
  6
Continuous
 62
     3
100
AcDbLine
 10
317.839
 20
507.351596241
 30
0.0
 11
317.839
 21
505.294
 31
0.0
  0
LINE
  5
4E6
330
20
100
AcDbEntity
  8
0
  6
Continuous
 62
     3
100
AcDbLine
 10
318.339
 20
505.144
 30
0.0
 11
309.339
 21
505.144
 31
0.0
  0
LINE
  5
4E7
330
20
100
AcDbEntity
  8
0
  6
Continuous
 62
     3
100
AcDbLine
 10
275.339
 20
507.351596241
 30
0.0
 11
317.839
 21
507.351596241
 31
0.0
  0
LINE
  5
4E8
330
20
100
AcDbEntity
  8
0
  6
Continuous
 62
     3
100
AcDbLine
 10
317.839
 20
505.294
 30
0.0
 11
277.339
 21
505.294
 31
0.0
  0
LINE
  5
4E9
330
20
100
AcDbEntity
  8
0
  6
Continuous
 62
     3
100
AcDbLine
 10
309.339
 20
505.144
 30
0.0
 11
277.339
 21
505.144
 31
0.0
  0
LINE
  5
4EA
330
20
100
AcDbEntity
  8
0
  6
Continuous
 62
     3
100
AcDbLine
 10
317.839
 20
470.936403759
 30
0.0
 11
317.839
 21
472.994
 31
0.0
  0
LINE
  5
4EB
330
20
100
AcDbEntity
  8
0
  6
Continuous
 62
     3
100
AcDbLine
 10
309.339
 20
473.144
 30
0.0
 11
318.339
 21
473.144
 31
0.0
  0
LINE
  5
4EC
330
20
100
AcDbEntity
  8
0
  6
Continuous
 62
     3
100
AcDbLine
 10
309.339
 20
473.144
 30
0.0
 11
309.339
 21
505.144
 31
0.0
  0
LINE
  5
4ED
330
20
100
AcDbEntity
  8
0
  6
Continuous
 62
     3
100
AcDbLine
 10
309.339
 20
505.144
 30
0.0
 11
309.339
 21
473.144
 31
0.0
  0
LINE
  5
4EE
330
20
100
AcDbEntity
  8
0
  6
Continuous
 62
     3
100
AcDbLine
 10
318.339
 20
473.144
 30
0.0
 11
318.339
 21
505.144
 31
0.0
  0
LINE
  5
4EF
330
20
100
AcDbEntity
  8
0
  6
Continuous
 62
     3
100
AcDbLine
 10
277.339
 20
472.994
 30
0.0
 11
277.339
 21
505.294
 31
0.0
  0
LINE
  5
4F0
330
20
100
AcDbEntity
  8
0
  6
Continuous
 62
     3
100
AcDbLine
 10
275.339
 20
507.351596241
 30
0.0
 11
275.339
 21
470.936403759
 31
0.0
  0
LINE
  5
4F1
330
20
100
AcDbEntity
  8
0
  6
Continuous
 62
     3
100
AcDbLine
 10
277.339
 20
505.144
 30
0.0
 11
277.339
 21
473.144
 31
0.0
  0
LINE
  5
4F2
330
20
100
AcDbEntity
  8
0
  6
Continuous
 62
     3
100
AcDbLine
 10
275.339
 20
470.936403759
 30
0.0
 11
317.839
 21
470.936403759
 31
0.0
  0
LINE
  5
4F3
330
20
100
AcDbEntity
  8
0
  6
Continuous
 62
     3
100
AcDbLine
 10
317.839
 20
472.994
 30
0.0
 11
277.339
 21
472.994
 31
0.0
  0
LINE
  5
4F4
330
20
100
AcDbEntity
  8
0
  6
Continuous
 62
     3
100
AcDbLine
 10
277.339
 20
473.144
 30
0.0
 11
309.339
 21
473.144
 31
0.0
  0
LINE
  5
4F5
330
20
100
AcDbEntity
  8
0
  6
Continuous
 62
     3
100
AcDbLine
 10
250.739
 20
473.144
 30
0.0
 11
241.739
 21
473.144
 31
0.0
  0
LINE
  5
4F6
330
20
100
AcDbEntity
  8
0
  6
Continuous
 62
     3
100
AcDbLine
 10
250.739
 20
505.144
 30
0.0
 11
241.739
 21
505.144
 31
0.0
  0
ARC
  5
4F7
330
20
100
AcDbEntity
  8
0
  6
Continuous
 62
     3
100
AcDbCircle
 10
282.905666667
 20
489.144
 30
0.0
 40
44.166666667
100
AcDbArc
 50
158.760689448
 51
201.239310552
  0
LINE
  5
4F8
330
20
100
AcDbEntity
  8
0
  6
Continuous
 62
     3
100
AcDbLine
 10
241.739
 20
505.144
 30
0.0
 11
241.739
 21
473.144
 31
0.0
  0
ARC
  5
4F9
330
20
100
AcDbEntity
  8
0
  6
Continuous
 62
     3
100
AcDbCircle
 10
265.172333333
 20
495.206172432
 30
0.0
 40
4.333333332999999
100
AcDbArc
 50
152.204227504
 51
207.795772496
  0
ARC
  5
4FA
330
20
100
AcDbEntity
  8
0
  6
Continuous
 62
     3
100
AcDbCircle
 10
259.412276439
 20
495.206172432
 30
0.0
 40
4.416162502999999
100
AcDbArc
 50
332.769257336
 51
27.23074266400001
  0
LINE
  5
4FB
330
20
100
AcDbEntity
  8
0
  6
Continuous
 62
     3
100
AcDbLine
 10
263.339
 20
497.226898374
 30
0.0
 11
261.339
 21
497.226898374
 31
0.0
  0
ARC
  5
4FC
330
20
100
AcDbEntity
  8
0
  6
Continuous
 62
     3
100
AcDbCircle
 10
277.422333333
 20
489.143994605
 30
0.0
 40
16.583333333
100
AcDbArc
 50
165.894645945
 51
194.105354055
  0
ARC
  5
4FD
330
20
100
AcDbEntity
  8
0
  6
Continuous
 62
     3
100
AcDbCircle
 10
265.172333333
 20
483.081816779
 30
0.0
 40
4.333333332999999
100
AcDbArc
 50
152.204227504
 51
207.795772496
  0
ARC
  5
4FE
330
20
100
AcDbEntity
  8
0
  6
Continuous
 62
     3
100
AcDbCircle
 10
259.505666667
 20
483.081816779
 30
0.0
 40
4.333333332999999
100
AcDbArc
 50
332.204227504
 51
27.795772496
  0
ARC
  5
4FF
330
20
100
AcDbEntity
  8
0
  6
Continuous
 62
     3
100
AcDbCircle
 10
247.255666667
 20
489.143994605
 30
0.0
 40
16.583333333
100
AcDbArc
 50
345.894645945
 51
14.105354055
  0
LINE
  5
500
330
20
100
AcDbEntity
  8
0
  6
Continuous
 62
     3
100
AcDbLine
 10
261.339
 20
493.1854464899999
 30
0.0
 11
263.339
 21
493.1854464899999
 31
0.0
  0
LINE
  5
501
330
20
100
AcDbEntity
  8
0
  6
Continuous
 62
     3
100
AcDbLine
 10
261.339
 20
481.061090837
 30
0.0
 11
263.339
 21
481.061090837
 31
0.0
  0
LINE
  5
502
330
20
100
AcDbEntity
  8
0
  6
Continuous
 62
     3
100
AcDbLine
 10
260.839
 20
495.206171606
 30
0.0
 11
260.839
 21
483.0818179469999
 31
0.0
  0
LINE
  5
503
330
20
100
AcDbEntity
  8
0
  6
Continuous
 62
     3
100
AcDbLine
 10
263.839
 20
483.0818179469999
 30
0.0
 11
263.839
 21
495.206171606
 31
0.0
  0
LINE
  5
504
330
20
100
AcDbEntity
  8
0
  6
Continuous
 62
     3
100
AcDbLine
 10
263.339
 20
485.1025427209999
 30
0.0
 11
261.339
 21
485.1025427209999
 31
0.0
  0
ARC
  5
505
330
20
100
AcDbEntity
  8
0
  6
Continuous
 62
     3
100
AcDbCircle
 10
268.172333333
 20
495.206177826
 30
0.0
 40
4.333333332999999
100
AcDbArc
 50
152.204227504
 51
207.795772496
  0
LINE
  5
506
330
20
100
AcDbEntity
  8
0
  6
Continuous
 62
     3
100
AcDbLine
 10
274.839
 20
497.226903769
 30
0.0
 11
264.339
 21
497.226903769
 31
0.0
  0
ARC
  5
507
330
20
100
AcDbEntity
  8
0
  6
Continuous
 62
     3
100
AcDbCircle
 10
280.422333333
 20
489.144
 30
0.0
 40
16.583333333
100
AcDbArc
 50
165.894645945
 51
194.105354055
  0
ARC
  5
508
330
20
100
AcDbEntity
  8
0
  6
Continuous
 62
     3
100
AcDbCircle
 10
268.172333333
 20
483.081822174
 30
0.0
 40
4.333333332999999
100
AcDbArc
 50
152.204227504
 51
207.795772496
  0
LINE
  5
509
330
20
100
AcDbEntity
  8
0
  6
Continuous
 62
     3
100
AcDbLine
 10
264.339
 20
493.185451884
 30
0.0
 11
274.839
 21
493.185451884
 31
0.0
  0
LINE
  5
50A
330
20
100
AcDbEntity
  8
0
  6
Continuous
 62
     3
100
AcDbLine
 10
264.339
 20
481.061096231
 30
0.0
 11
274.839
 21
481.061096231
 31
0.0
  0
LINE
  5
50B
330
20
100
AcDbEntity
  8
0
  6
Continuous
 62
     3
100
AcDbLine
 10
263.839
 20
495.2061770009999
 30
0.0
 11
263.839
 21
483.0818233419999
 31
0.0
  0
LINE
  5
50C
330
20
100
AcDbEntity
  8
0
  6
Continuous
 62
     3
100
AcDbLine
 10
274.839
 20
485.1025481159999
 30
0.0
 11
264.339
 21
485.1025481159999
 31
0.0
  0
LINE
  5
50D
330
20
100
AcDbEntity
  8
0
  6
Continuous
 62
     3
100
AcDbLine
 10
250.739
 20
489.144
 30
0.0
 11
250.739
 21
505.144
 31
0.0
  0
LINE
  5
50E
330
20
100
AcDbEntity
  8
0
  6
Continuous
 62
     3
100
AcDbLine
 10
250.739
 20
489.144
 30
0.0
 11
250.739
 21
473.144
 31
0.0
  0
LINE
  5
50F
330
20
100
AcDbEntity
  8
0
  6
Continuous
 62
     3
100
AcDbLine
 10
250.739
 20
492.144
 30
0.0
 11
260.839
 21
492.144
 31
0.0
  0
LINE
  5
510
330
20
100
AcDbEntity
  8
0
  6
Continuous
 62
     3
100
AcDbLine
 10
250.739
 20
486.1439999999999
 30
0.0
 11
260.839
 21
486.1439999999999
 31
0.0
  0
CIRCLE
  5
511
330
20
100
AcDbEntity
  8
0
  6
Continuous
 62
     3
100
AcDbCircle
 10
415.5389999999999
 20
489.144
 30
0.0
 40
5.7
  0
LINE
  5
512
330
20
100
AcDbEntity
  8
0
  6
Continuous
 62
     3
100
AcDbLine
 10
426.2889999999999
 20
489.144
 30
0.0
 11
420.9139999999999
 21
498.4537730909999
 31
0.0
  0
LINE
  5
513
330
20
100
AcDbEntity
  8
0
  6
Continuous
 62
     3
100
AcDbLine
 10
420.9139999999999
 20
498.4537730909999
 30
0.0
 11
410.1639999999999
 21
498.4537730909999
 31
0.0
  0
LINE
  5
514
330
20
100
AcDbEntity
  8
0
  6
Continuous
 62
     3
100
AcDbLine
 10
410.1639999999999
 20
498.4537730909999
 30
0.0
 11
404.7889999999999
 21
489.144
 31
0.0
  0
LINE
  5
515
330
20
100
AcDbEntity
  8
0
  6
Continuous
 62
     3
100
AcDbLine
 10
404.7889999999999
 20
489.144
 30
0.0
 11
410.1639999999999
 21
479.8342269089999
 31
0.0
  0
LINE
  5
516
330
20
100
AcDbEntity
  8
0
  6
Continuous
 62
     3
100
AcDbLine
 10
410.1639999999999
 20
479.8342269089999
 30
0.0
 11
420.9139999999999
 21
479.8342269089999
 31
0.0
  0
LINE
  5
517
330
20
100
AcDbEntity
  8
0
  6
Continuous
 62
     3
100
AcDbLine
 10
420.9139999999999
 20
479.8342269089999
 30
0.0
 11
426.2889999999999
 21
489.144
 31
0.0
  0
CIRCLE
  5
518
330
20
100
AcDbEntity
  8
0
  6
Continuous
 62
     3
100
AcDbCircle
 10
415.5389999999999
 20
489.144
 30
0.0
 40
10.75
  0
CIRCLE
  5
519
330
20
100
AcDbEntity
  8
0
  6
Continuous
 62
     3
100
AcDbCircle
 10
415.5389999999999
 20
489.144
 30
0.0
 40
9.309773091
  0
LINE
  5
51A
330
20
100
AcDbEntity
  8
0
  6
Continuous
 62
     3
100
AcDbLine
 10
443.5389999999999
 20
498.6439999999999
 30
0.0
 11
427.786448714
 21
498.6439999999999
 31
0.0
  0
LINE
  5
51B
330
20
100
AcDbEntity
  8
0
  6
Continuous
 62
     3
100
AcDbLine
 10
443.5389999999999
 20
479.644
 30
0.0
 11
427.786448714
 21
479.644
 31
0.0
  0
ARC
  5
51C
330
20
100
AcDbEntity
  8
0
  6
Continuous
 62
     3
100
AcDbCircle
 10
415.5389999999999
 20
489.144
 30
0.0
 40
15.5
100
AcDbArc
 50
37.799722435
 51
322.200277565
  0
CIRCLE
  5
51D
330
20
100
AcDbEntity
  8
0
  6
Continuous
 62
     3
100
AcDbCircle
 10
436.752203436
 20
510.3572034359999
 30
0.0
 40
4.0
  0
LWPOLYLINE
  5
51E
330
20
100
AcDbEntity
  8
0
  6
Continuous
 62
     3
100
AcDbPolyline
 90
        6
 70
     1
 43
0.0
 10
439.0522034359999
 20
514.3572034359999
 10
434.4522034359999
 20
514.3572034359999
 10
432.152203436
 20
510.3572034359999
 10
434.4522034359999
 20
506.3572034359999
 10
439.0522034359999
 20
506.3572034359999
 10
441.3522034359999
 20
510.3572034359999
  0
CIRCLE
  5
526
330
20
100
AcDbEntity
  8
0
  6
Continuous
 62
     3
100
AcDbCircle
 10
394.325796564
 20
510.3572034359999
 30
0.0
 40
4.0
  0
LWPOLYLINE
  5
527
330
20
100
AcDbEntity
  8
0
  6
Continuous
 62
     3
100
AcDbPolyline
 90
        6
 70
     1
 43
0.0
 10
396.625796564
 20
514.3572034359999
 10
392.025796564
 20
514.3572034359999
 10
389.725796564
 20
510.3572034359999
 10
392.025796564
 20
506.3572034359999
 10
396.625796564
 20
506.3572034359999
 10
398.925796564
 20
510.3572034359999
  0
CIRCLE
  5
52F
330
20
100
AcDbEntity
  8
0
  6
Continuous
 62
     3
100
AcDbCircle
 10
394.325796564
 20
467.9307965639999
 30
0.0
 40
4.0
  0
LWPOLYLINE
  5
530
330
20
100
AcDbEntity
  8
0
  6
Continuous
 62
     3
100
AcDbPolyline
 90
        6
 70
     1
 43
0.0
 10
396.625796564
 20
471.9307965639999
 10
392.025796564
 20
471.9307965639999
 10
389.725796564
 20
467.9307965639999
 10
392.025796564
 20
463.9307965639999
 10
396.625796564
 20
463.9307965639999
 10
398.925796564
 20
467.9307965639999
  0
CIRCLE
  5
538
330
20
100
AcDbEntity
  8
0
  6
Continuous
 62
     3
100
AcDbCircle
 10
436.752203436
 20
467.9307965639999
 30
0.0
 40
4.0
  0
LWPOLYLINE
  5
539
330
20
100
AcDbEntity
  8
0
  6
Continuous
 62
     3
100
AcDbPolyline
 90
        6
 70
     1
 43
0.0
 10
439.0522034359999
 20
471.9307965639999
 10
434.4522034359999
 20
471.9307965639999
 10
432.152203436
 20
467.9307965639999
 10
434.4522034359999
 20
463.9307965639999
 10
439.0522034359999
 20
463.9307965639999
 10
441.3522034359999
 20
467.9307965639999
  0
ARC
  5
541
330
20
100
AcDbEntity
  8
0
  6
Continuous
 62
     3
100
AcDbCircle
 10
436.5389999999999
 20
510.144
 30
0.0
 40
7.0
100
AcDbArc
 50
0.0
 51
90.0
  0
LINE
  5
542
330
20
100
AcDbEntity
  8
0
  6
Continuous
 62
     3
100
AcDbLine
 10
436.5389999999999
 20
517.144
 30
0.0
 11
394.539
 21
517.144
 31
0.0
  0
ARC
  5
543
330
20
100
AcDbEntity
  8
0
  6
Continuous
 62
     3
100
AcDbCircle
 10
394.539
 20
510.144
 30
0.0
 40
7.0
100
AcDbArc
 50
90.0
 51
180.0
  0
LINE
  5
544
330
20
100
AcDbEntity
  8
0
  6
Continuous
 62
     3
100
AcDbLine
 10
443.5389999999999
 20
468.144
 30
0.0
 11
443.5389999999999
 21
510.144
 31
0.0
  0
ARC
  5
545
330
20
100
AcDbEntity
  8
0
  6
Continuous
 62
     3
100
AcDbCircle
 10
436.5389999999999
 20
468.144
 30
0.0
 40
7.0
100
AcDbArc
 50
270.0
 51
0.0
  0
LINE
  5
546
330
20
100
AcDbEntity
  8
0
  6
Continuous
 62
     3
100
AcDbLine
 10
387.539
 20
510.144
 30
0.0
 11
387.539
 21
468.144
 31
0.0
  0
LINE
  5
547
330
20
100
AcDbEntity
  8
0
  6
Continuous
 62
     3
100
AcDbLine
 10
394.539
 20
461.1439999999999
 30
0.0
 11
436.5389999999999
 21
461.1439999999999
 31
0.0
  0
ARC
  5
548
330
20
100
AcDbEntity
  8
0
  6
Continuous
 62
     3
100
AcDbCircle
 10
394.539
 20
468.144
 30
0.0
 40
7.0
100
AcDbArc
 50
180.0
 51
270.0
  0
CIRCLE
  5
549
330
20
100
AcDbEntity
  8
0
  6
Continuous
 62
     3
100
AcDbCircle
 10
436.752203436
 20
510.3572034359999
 30
0.0
 40
4.5
  0
LWPOLYLINE
  5
54A
330
20
100
AcDbEntity
  8
0
  6
Continuous
 62
     3
100
AcDbPolyline
 90
        3
 70
     0
 43
0.0
 10
436.3522034359999
 20
507.8572034359999
 10
437.1522034359999
 20
507.8572034359999
 10
437.1522034359999
 20
508.8572034359999
  0
LINE
  5
54F
330
20
100
AcDbEntity
  8
0
  6
Continuous
 62
     3
100
AcDbLine
 10
436.3522034359999
 20
507.8572034359999
 30
0.0
 11
436.3522034359999
 21
508.8572034359999
 31
0.0
  0
LWPOLYLINE
  5
550
330
20
100
AcDbEntity
  8
0
  6
Continuous
 62
     3
100
AcDbPolyline
 90
        3
 70
     0
 43
0.0
 10
439.2522034359999
 20
509.957203436
 10
439.2522034359999
 20
510.757203436
 10
438.2522034359999
 20
510.757203436
  0
LINE
  5
555
330
20
100
AcDbEntity
  8
0
  6
Continuous
 62
     3
100
AcDbLine
 10
439.2522034359999
 20
509.957203436
 30
0.0
 11
438.2522034359999
 21
509.957203436
 31
0.0
  0
LWPOLYLINE
  5
556
330
20
100
AcDbEntity
  8
0
  6
Continuous
 62
     3
100
AcDbPolyline
 90
        3
 70
     0
 43
0.0
 10
437.1522034359999
 20
512.8572034359999
 10
436.3522034359999
 20
512.8572034359999
 10
436.3522034359999
 20
511.8572034359999
  0
LINE
  5
55B
330
20
100
AcDbEntity
  8
0
  6
Continuous
 62
     3
100
AcDbLine
 10
437.1522034359999
 20
512.8572034359999
 30
0.0
 11
437.1522034359999
 21
511.8572034359999
 31
0.0
  0
LWPOLYLINE
  5
55C
330
20
100
AcDbEntity
  8
0
  6
Continuous
 62
     3
100
AcDbPolyline
 90
        3
 70
     0
 43
0.0
 10
434.2522034359999
 20
510.757203436
 10
434.2522034359999
 20
509.957203436
 10
435.2522034359999
 20
509.957203436
  0
LINE
  5
561
330
20
100
AcDbEntity
  8
0
  6
Continuous
 62
     3
100
AcDbLine
 10
434.2522034359999
 20
510.757203436
 30
0.0
 11
435.2522034359999
 21
510.757203436
 31
0.0
  0
ARC
  5
562
330
20
100
AcDbEntity
  8
0
  6
Continuous
 62
     3
100
AcDbCircle
 10
438.1522034359999
 20
508.9572034359999
 30
0.0
 40
1.0
100
AcDbArc
 50
83.9
 51
186.1
  0
ARC
  5
563
330
20
100
AcDbEntity
  8
0
  6
Continuous
 62
     3
100
AcDbCircle
 10
438.1522034359999
 20
511.757203436
 30
0.0
 40
1.0
100
AcDbArc
 50
173.9
 51
276.1
  0
ARC
  5
564
330
20
100
AcDbEntity
  8
0
  6
Continuous
 62
     3
100
AcDbCircle
 10
435.352203436
 20
511.757203436
 30
0.0
 40
1.0
100
AcDbArc
 50
263.9
 51
6.099999999999998
  0
ARC
  5
565
330
20
100
AcDbEntity
  8
0
  6
Continuous
 62
     3
100
AcDbCircle
 10
435.352203436
 20
508.9572034359999
 30
0.0
 40
1.0
100
AcDbArc
 50
353.9
 51
96.09999999999999
  0
CIRCLE
  5
566
330
20
100
AcDbEntity
  8
0
  6
Continuous
 62
     3
100
AcDbCircle
 10
394.325796564
 20
510.3572034359999
 30
0.0
 40
4.5
  0
LWPOLYLINE
  5
567
330
20
100
AcDbEntity
  8
0
  6
Continuous
 62
     3
100
AcDbPolyline
 90
        3
 70
     0
 43
0.0
 10
393.925796564
 20
507.8572034359999
 10
394.725796564
 20
507.8572034359999
 10
394.725796564
 20
508.8572034359999
  0
LINE
  5
56C
330
20
100
AcDbEntity
  8
0
  6
Continuous
 62
     3
100
AcDbLine
 10
393.925796564
 20
507.8572034359999
 30
0.0
 11
393.925796564
 21
508.8572034359999
 31
0.0
  0
LWPOLYLINE
  5
56D
330
20
100
AcDbEntity
  8
0
  6
Continuous
 62
     3
100
AcDbPolyline
 90
        3
 70
     0
 43
0.0
 10
396.825796564
 20
509.957203436
 10
396.825796564
 20
510.757203436
 10
395.8257965640001
 20
510.757203436
  0
LINE
  5
572
330
20
100
AcDbEntity
  8
0
  6
Continuous
 62
     3
100
AcDbLine
 10
396.825796564
 20
509.957203436
 30
0.0
 11
395.8257965640001
 21
509.957203436
 31
0.0
  0
LWPOLYLINE
  5
573
330
20
100
AcDbEntity
  8
0
  6
Continuous
 62
     3
100
AcDbPolyline
 90
        3
 70
     0
 43
0.0
 10
394.725796564
 20
512.8572034359999
 10
393.925796564
 20
512.8572034359999
 10
393.925796564
 20
511.8572034359999
  0
LINE
  5
578
330
20
100
AcDbEntity
  8
0
  6
Continuous
 62
     3
100
AcDbLine
 10
394.725796564
 20
512.8572034359999
 30
0.0
 11
394.725796564
 21
511.8572034359999
 31
0.0
  0
LWPOLYLINE
  5
579
330
20
100
AcDbEntity
  8
0
  6
Continuous
 62
     3
100
AcDbPolyline
 90
        3
 70
     0
 43
0.0
 10
391.825796564
 20
510.757203436
 10
391.825796564
 20
509.957203436
 10
392.825796564
 20
509.957203436
  0
LINE
  5
57E
330
20
100
AcDbEntity
  8
0
  6
Continuous
 62
     3
100
AcDbLine
 10
391.825796564
 20
510.757203436
 30
0.0
 11
392.825796564
 21
510.757203436
 31
0.0
  0
ARC
  5
57F
330
20
100
AcDbEntity
  8
0
  6
Continuous
 62
     3
100
AcDbCircle
 10
395.725796564
 20
508.9572034359999
 30
0.0
 40
1.0
100
AcDbArc
 50
83.9
 51
186.1
  0
ARC
  5
580
330
20
100
AcDbEntity
  8
0
  6
Continuous
 62
     3
100
AcDbCircle
 10
395.725796564
 20
511.757203436
 30
0.0
 40
1.0
100
AcDbArc
 50
173.9
 51
276.1
  0
ARC
  5
581
330
20
100
AcDbEntity
  8
0
  6
Continuous
 62
     3
100
AcDbCircle
 10
392.925796564
 20
511.757203436
 30
0.0
 40
1.0
100
AcDbArc
 50
263.9
 51
6.099999999999998
  0
ARC
  5
582
330
20
100
AcDbEntity
  8
0
  6
Continuous
 62
     3
100
AcDbCircle
 10
392.925796564
 20
508.9572034359999
 30
0.0
 40
1.0
100
AcDbArc
 50
353.9
 51
96.09999999999999
  0
LINE
  5
583
330
20
100
AcDbEntity
  8
0
  6
Continuous
 62
     3
100
AcDbLine
 10
315.339
 20
496.144
 30
0.0
 11
315.339
 21
489.144
 31
0.0
  0
LINE
  5
584
330
20
100
AcDbEntity
  8
0
  6
Continuous
 62
     3
100
AcDbLine
 10
322.339
 20
493.544
 30
0.0
 11
326.639
 21
493.544
 31
0.0
  0
LINE
  5
585
330
20
100
AcDbEntity
  8
0
  6
Continuous
 62
     3
100
AcDbLine
 10
323.839
 20
493.544
 30
0.0
 11
324.639
 21
495.1439999999999
 31
0.0
  0
LINE
  5
586
330
20
100
AcDbEntity
  8
0
  6
Continuous
 62
     3
100
AcDbLine
 10
323.839
 20
493.594
 30
0.0
 11
323.839
 21
489.144
 31
0.0
  0
LINE
  5
587
330
20
100
AcDbEntity
  8
0
  6
Continuous
 62
     3
100
AcDbLine
 10
326.639
 20
495.1439999999999
 30
0.0
 11
324.639
 21
495.1439999999999
 31
0.0
  0
LINE
  5
588
330
20
100
AcDbEntity
  8
0
  6
Continuous
 62
     3
100
AcDbLine
 10
315.339
 20
496.144
 30
0.0
 11
315.339
 21
496.544
 31
0.0
  0
LWPOLYLINE
  5
589
330
20
100
AcDbEntity
  8
0
  6
Continuous
 62
     3
100
AcDbPolyline
 90
        3
 70
     0
 43
0.0
 10
326.639
 20
489.144
 10
326.639
 20
497.194
 10
327.139
 20
497.6939999999999
  0
LINE
  5
58E
330
20
100
AcDbEntity
  8
0
  6
Continuous
 62
     3
100
AcDbLine
 10
315.339
 20
496.544
 30
0.0
 11
321.839
 21
496.544
 31
0.0
  0
LINE
  5
58F
330
20
100
AcDbEntity
  8
0
  6
Continuous
 62
     3
100
AcDbLine
 10
322.339
 20
496.044
 30
0.0
 11
322.339
 21
489.144
 31
0.0
  0
LINE
  5
590
330
20
100
AcDbEntity
  8
0
  6
Continuous
 62
     3
100
AcDbLine
 10
321.839
 20
496.544
 30
0.0
 11
322.339
 21
496.044
 31
0.0
  0
LINE
  5
591
330
20
100
AcDbEntity
  8
0
  6
Continuous
 62
     3
100
AcDbLine
 10
322.339
 20
484.744
 30
0.0
 11
326.639
 21
484.744
 31
0.0
  0
LINE
  5
592
330
20
100
AcDbEntity
  8
0
  6
Continuous
 62
     3
100
AcDbLine
 10
323.839
 20
484.744
 30
0.0
 11
324.639
 21
483.1439999999999
 31
0.0
  0
LINE
  5
593
330
20
100
AcDbEntity
  8
0
  6
Continuous
 62
     3
100
AcDbLine
 10
323.839
 20
484.694
 30
0.0
 11
323.839
 21
489.144
 31
0.0
  0
LINE
  5
594
330
20
100
AcDbEntity
  8
0
  6
Continuous
 62
     3
100
AcDbLine
 10
326.639
 20
483.1439999999999
 30
0.0
 11
324.639
 21
483.1439999999999
 31
0.0
  0
LWPOLYLINE
  5
595
330
20
100
AcDbEntity
  8
0
  6
Continuous
 62
     3
100
AcDbPolyline
 90
        3
 70
     0
 43
0.0
 10
326.639
 20
489.144
 10
326.639
 20
481.094
 10
327.139
 20
480.5939999999999
  0
LINE
  5
59A
330
20
100
AcDbEntity
  8
0
  6
Continuous
 62
     3
100
AcDbLine
 10
315.339
 20
481.744
 30
0.0
 11
321.839
 21
481.744
 31
0.0
  0
LINE
  5
59B
330
20
100
AcDbEntity
  8
0
  6
Continuous
 62
     3
100
AcDbLine
 10
322.339
 20
482.244
 30
0.0
 11
322.339
 21
489.144
 31
0.0
  0
LINE
  5
59C
330
20
100
AcDbEntity
  8
0
  6
Continuous
 62
     3
100
AcDbLine
 10
321.839
 20
481.744
 30
0.0
 11
322.339
 21
482.244
 31
0.0
  0
LWPOLYLINE
  5
59D
330
20
100
AcDbEntity
  8
0
  6
Continuous
 62
     3
100
AcDbPolyline
 90
        3
 70
     0
 43
0.0
 10
315.339
 20
481.744
 10
315.339
 20
489.144
 10
322.339
 20
489.144
  0
LINE
  5
5A2
330
20
100
AcDbEntity
  8
0
  6
Continuous
 62
     3
100
AcDbLine
 10
302.800651751
 20
495.179511673
 30
0.0
 11
315.339
 21
496.144
 31
0.0
  0
LINE
  5
5A3
330
20
100
AcDbEntity
  8
0
  6
Continuous
 62
     3
100
AcDbLine
 10
302.339
 20
494.68098443
 30
0.0
 11
302.339
 21
489.144
 31
0.0
  0
LINE
  5
5A4
330
20
100
AcDbEntity
  8
0
  6
Continuous
 62
     3
100
AcDbLine
 10
302.800651751
 20
495.179511673
 30
0.0
 11
302.339
 21
494.68098443
 31
0.0
  0
LINE
  5
5A5
330
20
100
AcDbEntity
  8
0
  6
Continuous
 62
     3
100
AcDbLine
 10
302.800651751
 20
483.1084883269999
 30
0.0
 11
315.339
 21
482.1439999999999
 31
0.0
  0
LINE
  5
5A6
330
20
100
AcDbEntity
  8
0
  6
Continuous
 62
     3
100
AcDbLine
 10
302.339
 20
483.6070155699999
 30
0.0
 11
302.339
 21
489.144
 31
0.0
  0
LINE
  5
5A7
330
20
100
AcDbEntity
  8
0
  6
Continuous
 62
     3
100
AcDbLine
 10
302.800651751
 20
483.1084883269999
 30
0.0
 11
302.339
 21
483.6070155699999
 31
0.0
  0
LINE
  5
5A8
330
20
100
AcDbEntity
  8
0
  6
Continuous
 62
     3
100
AcDbLine
 10
339.139
 20
489.144
 30
0.0
 11
339.139
 21
497.244
 31
0.0
  0
LINE
  5
5A9
330
20
100
AcDbEntity
  8
0
  6
Continuous
 62
     3
100
AcDbLine
 10
339.139
 20
497.6939999999999
 30
0.0
 11
339.139
 21
497.244
 31
0.0
  0
LINE
  5
5AA
330
20
100
AcDbEntity
  8
0
  6
Continuous
 62
     3
100
AcDbLine
 10
326.639
 20
489.144
 30
0.0
 11
337.439
 21
489.144
 31
0.0
  0
LINE
  5
5AB
330
20
100
AcDbEntity
  8
0
  6
Continuous
 62
     3
100
AcDbLine
 10
327.139
 20
497.6939999999999
 30
0.0
 11
339.139
 21
497.6939999999999
 31
0.0
  0
LINE
  5
5AC
330
20
100
AcDbEntity
  8
0
  6
Continuous
 62
     3
100
AcDbLine
 10
339.139
 20
489.144
 30
0.0
 11
339.139
 21
481.044
 31
0.0
  0
LINE
  5
5AD
330
20
100
AcDbEntity
  8
0
  6
Continuous
 62
     3
100
AcDbLine
 10
339.139
 20
480.5939999999999
 30
0.0
 11
339.139
 21
481.044
 31
0.0
  0
LINE
  5
5AE
330
20
100
AcDbEntity
  8
0
  6
Continuous
 62
     3
100
AcDbLine
 10
327.139
 20
480.5939999999999
 30
0.0
 11
339.139
 21
480.5939999999999
 31
0.0
  0
ARC
  5
5AF
330
20
100
AcDbEntity
  8
0
  6
Continuous
 62
     3
100
AcDbCircle
 10
329.509
 20
493.419
 30
0.0
 40
9.630811232999999
100
AcDbArc
 50
333.647794947
 51
26.35220505300001
  0
ARC
  5
5B0
330
20
100
AcDbEntity
  8
0
  6
Continuous
 62
     3
100
AcDbCircle
 10
329.504
 20
484.869
 30
0.0
 40
9.6352919
100
AcDbArc
 50
333.660992731
 51
26.339007269
  0
LINE
  5
5B1
330
20
100
AcDbEntity
  8
0
  6
Continuous
 62
     3
100
AcDbLine
 10
338.139
 20
489.144
 30
0.0
 11
337.439
 21
489.144
 31
0.0
  0
LINE
  5
5B2
330
20
100
AcDbEntity
  8
0
  6
Continuous
 62
     3
100
AcDbLine
 10
340.639
 20
481.044
 30
0.0
 11
339.139
 21
481.044
 31
0.0
  0
LINE
  5
5B3
330
20
100
AcDbEntity
  8
0
  6
Continuous
 62
     3
100
AcDbLine
 10
341.139
 20
489.144
 30
0.0
 11
341.139
 21
481.544
 31
0.0
  0
LINE
  5
5B4
330
20
100
AcDbEntity
  8
0
  6
Continuous
 62
     3
100
AcDbLine
 10
340.639
 20
481.044
 30
0.0
 11
341.139
 21
481.544
 31
0.0
  0
LINE
  5
5B5
330
20
100
AcDbEntity
  8
0
  6
Continuous
 62
     3
100
AcDbLine
 10
340.639
 20
497.244
 30
0.0
 11
339.139
 21
497.244
 31
0.0
  0
LINE
  5
5B6
330
20
100
AcDbEntity
  8
0
  6
Continuous
 62
     3
100
AcDbLine
 10
341.139
 20
489.144
 30
0.0
 11
341.139
 21
496.744
 31
0.0
  0
LINE
  5
5B7
330
20
100
AcDbEntity
  8
0
  6
Continuous
 62
     3
100
AcDbLine
 10
340.639
 20
497.244
 30
0.0
 11
341.139
 21
496.744
 31
0.0
  0
LINE
  5
5B8
330
20
100
AcDbEntity
  8
0
  6
Continuous
 62
     3
100
AcDbLine
 10
341.139
 20
492.144
 30
0.0
 11
405.339
 21
492.144
 31
0.0
  0
LINE
  5
5B9
330
20
100
AcDbEntity
  8
0
  6
Continuous
 62
     3
100
AcDbLine
 10
341.139
 20
486.1439999999999
 30
0.0
 11
405.339
 21
486.1439999999999
 31
0.0
  0
ARC
  5
5BA
330
20
100
AcDbEntity
  8
0
  6
Continuous
 62
     3
100
AcDbCircle
 10
360.798353263
 20
489.144
 30
0.0
 40
19.774353263
100
AcDbArc
 50
153.81256986
 51
206.18743014
  0
LINE
  5
5BB
330
20
100
AcDbEntity
  8
0
  6
Continuous
 62
     3
100
AcDbLine
 10
341.024
 20
501.178
 30
0.0
 11
341.024
 21
477.11
 31
0.0
  0
ARC
  5
5BC
330
20
100
AcDbEntity
  8
0
  6
Continuous
 62
     3
100
AcDbCircle
 10
345.948919236
 20
501.923878841
 30
0.0
 40
4.981080678999999
100
AcDbArc
 50
125.988003007
 51
234.462456173
  0
ARC
  5
5BD
330
20
100
AcDbEntity
  8
0
  6
Continuous
 62
     3
100
AcDbCircle
 10
345.948919236
 20
476.364121159
 30
0.0
 40
4.981080678999999
100
AcDbArc
 50
125.537543827
 51
234.011996993
  0
LINE
  5
5BE
330
20
100
AcDbEntity
  8
0
  6
Continuous
 62
     3
100
AcDbLine
 10
353.0116
 20
497.8706
 30
0.0
 11
343.043223855
 21
497.8706
 31
0.0
  0
LINE
  5
5BF
330
20
100
AcDbEntity
  8
0
  6
Continuous
 62
     3
100
AcDbLine
 10
353.0116
 20
480.4173999999999
 30
0.0
 11
343.041548451
 21
480.4173999999999
 31
0.0
  0
LINE
  5
5C0
330
20
100
AcDbEntity
  8
0
  6
Continuous
 62
     3
100
AcDbLine
 10
353.0116
 20
505.9854
 30
0.0
 11
343.053734377
 21
505.9854
 31
0.0
  0
LINE
  5
5C1
330
20
100
AcDbEntity
  8
0
  6
Continuous
 62
     3
100
AcDbLine
 10
353.0116
 20
472.3025999999999
 30
0.0
 11
343.053734377
 21
472.3025999999999
 31
0.0
  0
LINE
  5
5C2
330
20
100
AcDbEntity
  8
0
  6
Continuous
 62
     3
100
AcDbLine
 10
355.024
 20
477.11
 30
0.0
 11
355.024
 21
501.178
 31
0.0
  0
ARC
  5
5C3
330
20
100
AcDbEntity
  8
0
  6
Continuous
 62
     3
100
AcDbCircle
 10
350.0842581130001
 20
501.9176783919999
 30
0.0
 40
4.994814713999999
100
AcDbArc
 50
305.879053051
 51
53.91621231100001
  0
ARC
  5
5C4
330
20
100
AcDbEntity
  8
0
  6
Continuous
 62
     3
100
AcDbCircle
 10
350.0842581130001
 20
476.370321608
 30
0.0
 40
4.994814713999999
100
AcDbArc
 50
306.083787689
 51
54.12094694899998
  0
ARC
  5
5C5
330
20
100
AcDbEntity
  8
0
  6
Continuous
 62
     3
100
AcDbCircle
 10
335.266981113
 20
489.144
 30
0.0
 40
19.774353263
100
AcDbArc
 50
333.81256986
 51
26.18743014
  0
LINE
  5
5C6
330
20
100
AcDbEntity
  8
0
  6
Continuous
 62
     3
100
AcDbLine
 10
355.024
 20
499.144732723
 30
0.0
 11
364.679
 21
499.144732723
 31
0.0
  0
LINE
  5
5C7
330
20
100
AcDbEntity
  8
0
  6
Continuous
 62
     3
100
AcDbLine
 10
365.539
 20
498.284732723
 30
0.0
 11
365.539
 21
489.144
 31
0.0
  0
LINE
  5
5C8
330
20
100
AcDbEntity
  8
0
  6
Continuous
 62
     3
100
AcDbLine
 10
364.679
 20
499.144732723
 30
0.0
 11
365.539
 21
498.284732723
 31
0.0
  0
LINE
  5
5C9
330
20
100
AcDbEntity
  8
0
  6
Continuous
 62
     3
100
AcDbLine
 10
355.024
 20
479.1432672769999
 30
0.0
 11
364.679
 21
479.1432672769999
 31
0.0
  0
LINE
  5
5CA
330
20
100
AcDbEntity
  8
0
  6
Continuous
 62
     3
100
AcDbLine
 10
365.539
 20
480.0032672769999
 30
0.0
 11
365.539
 21
489.144
 31
0.0
  0
LINE
  5
5CB
330
20
100
AcDbEntity
  8
0
  6
Continuous
 62
     3
100
AcDbLine
 10
364.679
 20
479.1432672769999
 30
0.0
 11
365.539
 21
480.0032672769999
 31
0.0
  0
LINE
  5
5CC
330
20
100
AcDbEntity
  8
0
  6
Continuous
 62
     3
100
AcDbLine
 10
365.539
 20
494.144
 30
0.0
 11
355.024
 21
494.144
 31
0.0
  0
LINE
  5
5CD
330
20
100
AcDbEntity
  8
0
  6
Continuous
 62
     3
100
AcDbLine
 10
365.539
 20
484.144
 30
0.0
 11
355.024
 21
484.144
 31
0.0
  0
LINE
  5
5CE
330
20
100
AcDbEntity
  8
0
  6
Continuous
 62
     3
100
AcDbLine
 10
341.024
 20
499.144732723
 30
0.0
 11
332.199
 21
499.144732723
 31
0.0
  0
LINE
  5
5CF
330
20
100
AcDbEntity
  8
0
  6
Continuous
 62
     3
100
AcDbLine
 10
331.339
 20
498.284732723
 30
0.0
 11
331.339
 21
489.144
 31
0.0
  0
LINE
  5
5D0
330
20
100
AcDbEntity
  8
0
  6
Continuous
 62
     3
100
AcDbLine
 10
332.199
 20
499.144732723
 30
0.0
 11
331.339
 21
498.284732723
 31
0.0
  0
LINE
  5
5D1
330
20
100
AcDbEntity
  8
0
  6
Continuous
 62
     3
100
AcDbLine
 10
341.024
 20
479.1432672769999
 30
0.0
 11
332.199
 21
479.1432672769999
 31
0.0
  0
LINE
  5
5D2
330
20
100
AcDbEntity
  8
0
  6
Continuous
 62
     3
100
AcDbLine
 10
331.339
 20
480.0032672769999
 30
0.0
 11
331.339
 21
489.144
 31
0.0
  0
LINE
  5
5D3
330
20
100
AcDbEntity
  8
0
  6
Continuous
 62
     3
100
AcDbLine
 10
332.199
 20
479.1432672769999
 30
0.0
 11
331.339
 21
480.0032672769999
 31
0.0
  0
LINE
  5
5D4
330
20
100
AcDbEntity
  8
0
  6
Continuous
 62
     3
100
AcDbLine
 10
331.339
 20
494.144
 30
0.0
 11
341.024
 21
494.144
 31
0.0
  0
LINE
  5
5D5
330
20
100
AcDbEntity
  8
0
  6
Continuous
 62
     3
100
AcDbLine
 10
331.339
 20
484.144
 30
0.0
 11
341.024
 21
484.144
 31
0.0
  0
LINE
  5
5D6
330
20
100
AcDbEntity
  8
0
  6
Continuous
 62
     3
100
AcDbLine
 10
337.339
 20
494.754763351
 30
0.0
 11
337.339
 21
489.144
 31
0.0
  0
LINE
  5
5D7
330
20
100
AcDbEntity
  8
0
  6
Continuous
 62
     3
100
AcDbLine
 10
336.370236312
 20
482.533724622
 30
0.0
 11
336.370236312
 21
495.754275378
 31
0.0
  0
LINE
  5
5D8
330
20
100
AcDbEntity
  8
0
  6
Continuous
 62
     3
100
AcDbLine
 10
336.370236312
 20
495.754275378
 30
0.0
 11
337.339
 21
494.754763351
 31
0.0
  0
LINE
  5
5D9
330
20
100
AcDbEntity
  8
0
  6
Continuous
 62
     3
100
AcDbLine
 10
336.370236312
 20
482.533724622
 30
0.0
 11
337.339
 21
483.533236649
 31
0.0
  0
LINE
  5
5DA
330
20
100
AcDbEntity
  8
0
  6
Continuous
 62
     3
100
AcDbLine
 10
337.339
 20
483.533236649
 30
0.0
 11
337.339
 21
489.144
 31
0.0
  0
LINE
  5
5DB
330
20
100
AcDbEntity
  8
0
  6
Continuous
 62
     3
100
AcDbLine
 10
336.370236312
 20
495.754275378
 30
0.0
 11
326.839
 21
496.052141398
 31
0.0
  0
LINE
  5
5DC
330
20
100
AcDbEntity
  8
0
  6
Continuous
 62
     3
100
AcDbLine
 10
336.370236312
 20
482.533724622
 30
0.0
 11
326.839
 21
482.235858602
 31
0.0
  0
LINE
  5
5DD
330
20
100
AcDbEntity
  8
0
  6
Continuous
 62
     3
100
AcDbLine
 10
327.439
 20
495.064153812
 30
0.0
 11
327.439
 21
496.0350303159999
 31
0.0
  0
LINE
  5
5DE
330
20
100
AcDbEntity
  8
0
  6
Continuous
 62
     3
100
AcDbLine
 10
327.439
 20
483.223846188
 30
0.0
 11
327.439
 21
482.252969684
 31
0.0
  0
LWPOLYLINE
  5
5DF
330
20
100
AcDbEntity
  8
0
  6
Continuous
 62
     3
100
AcDbPolyline
 90
        3
 70
     0
 43
0.0
 10
381.539
 20
489.144
 10
381.539
 20
481.144
 10
381.039
 20
480.644
  0
LINE
  5
5E4
330
20
100
AcDbEntity
  8
0
  6
Continuous
 62
     3
100
AcDbLine
 10
371.539
 20
481.144
 30
0.0
 11
371.539
 21
489.144
 31
0.0
  0
LINE
  5
5E5
330
20
100
AcDbEntity
  8
0
  6
Continuous
 62
     3
100
AcDbLine
 10
381.039
 20
480.644
 30
0.0
 11
372.039
 21
480.644
 31
0.0
  0
LINE
  5
5E6
330
20
100
AcDbEntity
  8
0
  6
Continuous
 62
     3
100
AcDbLine
 10
371.539
 20
481.144
 30
0.0
 11
372.039
 21
480.644
 31
0.0
  0
LWPOLYLINE
  5
5E7
330
20
100
AcDbEntity
  8
0
  6
Continuous
 62
     3
100
AcDbPolyline
 90
        3
 70
     0
 43
0.0
 10
381.539
 20
489.144
 10
381.539
 20
497.144
 10
381.039
 20
497.644
  0
LINE
  5
5EC
330
20
100
AcDbEntity
  8
0
  6
Continuous
 62
     3
100
AcDbLine
 10
371.539
 20
497.144
 30
0.0
 11
371.539
 21
489.144
 31
0.0
  0
LINE
  5
5ED
330
20
100
AcDbEntity
  8
0
  6
Continuous
 62
     3
100
AcDbLine
 10
381.039
 20
497.644
 30
0.0
 11
372.039
 21
497.644
 31
0.0
  0
LINE
  5
5EE
330
20
100
AcDbEntity
  8
0
  6
Continuous
 62
     3
100
AcDbLine
 10
371.539
 20
497.144
 30
0.0
 11
372.039
 21
497.644
 31
0.0
  0
LINE
  5
5EF
330
20
100
AcDbEntity
  8
0
  6
Continuous
 62
     3
100
AcDbLine
 10
381.539
 20
482.18898126
 30
0.0
 11
381.539
 21
489.144
 31
0.0
  0
LINE
  5
5F0
330
20
100
AcDbEntity
  8
0
  6
Continuous
 62
     3
100
AcDbLine
 10
381.539
 20
496.09901874
 30
0.0
 11
381.539
 21
489.144
 31
0.0
  0
LINE
  5
5F1
330
20
100
AcDbEntity
  8
0
  6
Continuous
 62
     3
100
AcDbLine
 10
384.539
 20
496.0052640549999
 30
0.0
 11
381.539
 21
496.09901874
 31
0.0
  0
LINE
  5
5F2
330
20
100
AcDbEntity
  8
0
  6
Continuous
 62
     3
100
AcDbLine
 10
384.539
 20
482.282735945
 30
0.0
 11
381.539
 21
482.18898126
 31
0.0
  0
LINE
  5
5F3
330
20
100
AcDbEntity
  8
0
  6
Continuous
 62
     3
100
AcDbLine
 10
383.639
 20
495.064153812
 30
0.0
 11
383.639
 21
496.0350303159999
 31
0.0
  0
LINE
  5
5F4
330
20
100
AcDbEntity
  8
0
  6
Continuous
 62
     3
100
AcDbLine
 10
383.639
 20
483.223846188
 30
0.0
 11
383.639
 21
482.252969684
 31
0.0
  0
LINE
  5
5F5
330
20
100
AcDbEntity
  8
0
  6
Continuous
 62
     3
100
AcDbLine
 10
371.539
 20
496.09901874
 30
0.0
 11
371.539
 21
489.144
 31
0.0
  0
LINE
  5
5F6
330
20
100
AcDbEntity
  8
0
  6
Continuous
 62
     3
100
AcDbLine
 10
371.539
 20
482.18898126
 30
0.0
 11
371.539
 21
489.144
 31
0.0
  0
LINE
  5
5F7
330
20
100
AcDbEntity
  8
0
  6
Continuous
 62
     3
100
AcDbLine
 10
359.539
 20
483.533236649
 30
0.0
 11
359.539
 21
489.144
 31
0.0
  0
LINE
  5
5F8
330
20
100
AcDbEntity
  8
0
  6
Continuous
 62
     3
100
AcDbLine
 10
360.507763688
 20
495.754275378
 30
0.0
 11
360.507763688
 21
482.533724622
 31
0.0
  0
LINE
  5
5F9
330
20
100
AcDbEntity
  8
0
  6
Continuous
 62
     3
100
AcDbLine
 10
360.507763688
 20
482.533724622
 30
0.0
 11
359.539
 21
483.533236649
 31
0.0
  0
LINE
  5
5FA
330
20
100
AcDbEntity
  8
0
  6
Continuous
 62
     3
100
AcDbLine
 10
360.507763688
 20
495.754275378
 30
0.0
 11
359.539
 21
494.754763351
 31
0.0
  0
LINE
  5
5FB
330
20
100
AcDbEntity
  8
0
  6
Continuous
 62
     3
100
AcDbLine
 10
359.539
 20
494.754763351
 30
0.0
 11
359.539
 21
489.144
 31
0.0
  0
LINE
  5
5FC
330
20
100
AcDbEntity
  8
0
  6
Continuous
 62
     3
100
AcDbLine
 10
360.507763688
 20
482.533724622
 30
0.0
 11
371.539
 21
482.18898126
 31
0.0
  0
LINE
  5
5FD
330
20
100
AcDbEntity
  8
0
  6
Continuous
 62
     3
100
AcDbLine
 10
360.507763688
 20
495.754275378
 30
0.0
 11
371.539
 21
496.09901874
 31
0.0
  0
LINE
  5
5FE
330
20
100
AcDbEntity
  8
0
  6
Continuous
 62
     3
100
AcDbLine
 10
369.439
 20
483.223846188
 30
0.0
 11
369.439
 21
482.252969684
 31
0.0
  0
LINE
  5
5FF
330
20
100
AcDbEntity
  8
0
  6
Continuous
 62
     3
100
AcDbLine
 10
369.439
 20
495.064153812
 30
0.0
 11
369.439
 21
496.0350303159999
 31
0.0
  0
LINE
  5
600
330
20
100
AcDbEntity
  8
0
  6
Continuous
 62
     3
100
AcDbLine
 10
341.139
 20
350.936
 30
0.0
 11
387.539
 21
350.936
 31
0.0
  0
LINE
  5
601
330
20
100
AcDbEntity
  8
0
  6
Continuous
 62
     3
100
AcDbLine
 10
412.539
 20
195.736
 30
0.0
 11
412.539
 21
325.936
 31
0.0
  0
ARC
  5
602
330
20
100
AcDbEntity
  8
0
  6
Continuous
 62
     3
100
AcDbCircle
 10
387.539
 20
325.936
 30
0.0
 40
25.0
100
AcDbArc
 50
0.0
 51
90.0
  0
LINE
  5
603
330
20
100
AcDbEntity
  8
0
  6
Continuous
 62
     3
100
AcDbLine
 10
341.139
 20
356.936
 30
0.0
 11
387.539
 21
356.936
 31
0.0
  0
LINE
  5
604
330
20
100
AcDbEntity
  8
0
  6
Continuous
 62
     3
100
AcDbLine
 10
418.5389999999999
 20
195.736
 30
0.0
 11
418.5389999999999
 21
325.936
 31
0.0
  0
ARC
  5
605
330
20
100
AcDbEntity
  8
0
  6
Continuous
 62
     3
100
AcDbCircle
 10
387.539
 20
325.936
 30
0.0
 40
31.0
100
AcDbArc
 50
0.0
 51
90.0
  0
LINE
  5
606
330
20
100
AcDbEntity
  8
0
  6
LTYPE1
 62
     1
100
AcDbLine
 10
309.339
 20
97.35600000000001
 30
0.0
 11
300.339
 21
97.63725
 31
0.0
  0
LINE
  5
607
330
20
100
AcDbEntity
  8
0
  6
LTYPE1
 62
     1
100
AcDbLine
 10
309.339
 20
110.516
 30
0.0
 11
300.339
 21
110.23475
 31
0.0
  0
LINE
  5
608
330
20
100
AcDbEntity
  8
0
  6
LTYPE1
 62
     1
100
AcDbLine
 10
285.339
 20
101.436
 30
0.0
 11
278.139
 21
101.436
 31
0.0
  0
LINE
  5
609
330
20
100
AcDbEntity
  8
0
  6
LTYPE1
 62
     1
100
AcDbLine
 10
285.339
 20
106.436
 30
0.0
 11
278.139
 21
106.436
 31
0.0
  0
LINE
  5
60A
330
20
100
AcDbEntity
  8
0
  6
LTYPE1
 62
     1
100
AcDbLine
 10
274.339
 20
103.936
 30
0.0
 11
312.339
 21
103.936
 31
0.0
  0
LINE
  5
60B
330
20
100
AcDbEntity
  8
0
  6
LTYPE1
 62
     1
100
AcDbLine
 10
309.339
 20
347.356
 30
0.0
 11
300.339
 21
347.63725
 31
0.0
  0
LINE
  5
60C
330
20
100
AcDbEntity
  8
0
  6
LTYPE1
 62
     1
100
AcDbLine
 10
309.339
 20
360.516
 30
0.0
 11
300.339
 21
360.23475
 31
0.0
  0
LINE
  5
60D
330
20
100
AcDbEntity
  8
0
  6
LTYPE1
 62
     1
100
AcDbLine
 10
277.339
 20
346.936
 30
0.0
 11
281.839
 21
346.936
 31
0.0
  0
LINE
  5
60E
330
20
100
AcDbEntity
  8
0
  6
LTYPE1
 62
     1
100
AcDbLine
 10
277.339
 20
360.936
 30
0.0
 11
281.839
 21
360.936
 31
0.0
  0
LINE
  5
60F
330
20
100
AcDbEntity
  8
0
  6
LTYPE1
 62
     1
100
AcDbLine
 10
293.339
 20
327.936
 30
0.0
 11
293.339
 21
356.936
 31
0.0
  0
LINE
  5
610
330
20
100
AcDbEntity
  8
0
  6
LTYPE1
 62
     1
100
AcDbLine
 10
274.339
 20
353.936
 30
0.0
 11
312.339
 21
353.936
 31
0.0
  0
LINE
  5
611
330
20
100
AcDbEntity
  8
0
  6
LTYPE1
 62
     1
100
AcDbLine
 10
313.021539683
 20
136.436
 30
0.0
 11
318.339
 21
136.436
 31
0.0
  0
LINE
  5
612
330
20
100
AcDbEntity
  8
0
  6
LTYPE1
 62
     1
100
AcDbLine
 10
313.021539683
 20
131.436
 30
0.0
 11
318.339
 21
131.436
 31
0.0
  0
LINE
  5
613
330
20
100
AcDbEntity
  8
0
  6
LTYPE1
 62
     1
100
AcDbLine
 10
313.021539683
 20
326.436
 30
0.0
 11
318.339
 21
326.436
 31
0.0
  0
LINE
  5
614
330
20
100
AcDbEntity
  8
0
  6
LTYPE1
 62
     1
100
AcDbLine
 10
313.021539683
 20
321.436
 30
0.0
 11
318.339
 21
321.436
 31
0.0
  0
LINE
  5
615
330
20
100
AcDbEntity
  8
0
  6
LTYPE1
 62
     1
100
AcDbLine
 10
306.339
 20
323.936
 30
0.0
 11
321.339
 21
323.936
 31
0.0
  0
LINE
  5
616
330
20
100
AcDbEntity
  8
0
  6
LTYPE1
 62
     1
100
AcDbLine
 10
306.339
 20
353.936
 30
0.0
 11
321.339
 21
353.936
 31
0.0
  0
LINE
  5
617
330
20
100
AcDbEntity
  8
0
  6
LTYPE1
 62
     1
100
AcDbLine
 10
306.339
 20
133.936
 30
0.0
 11
321.339
 21
133.936
 31
0.0
  0
LINE
  5
618
330
20
100
AcDbEntity
  8
0
  6
LTYPE1
 62
     1
100
AcDbLine
 10
306.339
 20
115.936
 30
0.0
 11
321.339
 21
115.936
 31
0.0
  0
LINE
  5
619
330
20
100
AcDbEntity
  8
0
  6
LTYPE1
 62
     1
100
AcDbLine
 10
306.339
 20
91.93600000000001
 30
0.0
 11
321.339
 21
91.93600000000001
 31
0.0
  0
LINE
  5
61A
330
20
100
AcDbEntity
  8
0
  6
LTYPE1
 62
     1
100
AcDbLine
 10
266.839
 20
347.936
 30
0.0
 11
263.839
 21
347.936
 31
0.0
  0
LINE
  5
61B
330
20
100
AcDbEntity
  8
0
  6
LTYPE1
 62
     1
100
AcDbLine
 10
277.339
 20
348.936
 30
0.0
 11
269.839
 21
348.936
 31
0.0
  0
LINE
  5
61C
330
20
100
AcDbEntity
  8
0
  6
LTYPE1
 62
     1
100
AcDbLine
 10
266.839
 20
359.936
 30
0.0
 11
263.839
 21
359.936
 31
0.0
  0
LINE
  5
61D
330
20
100
AcDbEntity
  8
0
  6
LTYPE1
 62
     1
100
AcDbLine
 10
277.339
 20
358.936
 30
0.0
 11
269.839
 21
358.936
 31
0.0
  0
LINE
  5
61E
330
20
100
AcDbEntity
  8
0
  6
LTYPE1
 62
     1
100
AcDbLine
 10
278.339
 20
347.436
 30
0.0
 11
282.839
 21
347.436
 31
0.0
  0
LINE
  5
61F
330
20
100
AcDbEntity
  8
0
  6
LTYPE1
 62
     1
100
AcDbLine
 10
278.339
 20
360.436
 30
0.0
 11
282.839
 21
360.436
 31
0.0
  0
LINE
  5
620
330
20
100
AcDbEntity
  8
0
  6
LTYPE1
 62
     1
100
AcDbLine
 10
260.839
 20
353.936
 30
0.0
 11
285.839
 21
353.936
 31
0.0
  0
LINE
  5
621
330
20
100
AcDbEntity
  8
0
  6
LTYPE1
 62
     1
100
AcDbLine
 10
267.839
 20
359.436
 30
0.0
 11
264.839
 21
359.436
 31
0.0
  0
LINE
  5
622
330
20
100
AcDbEntity
  8
0
  6
LTYPE1
 62
     1
100
AcDbLine
 10
264.839
 20
348.436
 30
0.0
 11
267.839
 21
348.436
 31
0.0
  0
LINE
  5
623
330
20
100
AcDbEntity
  8
0
  6
LTYPE1
 62
     1
100
AcDbLine
 10
256.839
 20
353.936
 30
0.0
 11
270.839
 21
353.936
 31
0.0
  0
LINE
  5
624
330
20
100
AcDbEntity
  8
0
  6
LTYPE1
 62
     1
100
AcDbLine
 10
270.739
 20
349.436
 30
0.0
 11
274.739
 21
349.436
 31
0.0
  0
LINE
  5
625
330
20
100
AcDbEntity
  8
0
  6
LTYPE1
 62
     1
100
AcDbLine
 10
270.739
 20
358.436
 30
0.0
 11
274.739
 21
358.436
 31
0.0
  0
LINE
  5
626
330
20
100
AcDbEntity
  8
0
  6
LTYPE1
 62
     1
100
AcDbLine
 10
264.839
 20
353.936
 30
0.0
 11
272.839
 21
353.936
 31
0.0
  0
LINE
  5
627
330
20
100
AcDbEntity
  8
0
  6
LTYPE1
 62
     1
100
AcDbLine
 10
280.339
 20
323.936
 30
0.0
 11
280.339
 21
330.936
 31
0.0
  0
LINE
  5
628
330
20
100
AcDbEntity
  8
0
  6
LTYPE1
 62
     1
100
AcDbLine
 10
306.339
 20
330.936
 30
0.0
 11
306.339
 21
323.936
 31
0.0
  0
LINE
  5
629
330
20
100
AcDbEntity
  8
0
  6
LTYPE1
 62
     1
100
AcDbLine
 10
306.339
 20
133.936
 30
0.0
 11
306.339
 21
126.936
 31
0.0
  0
LINE
  5
62A
330
20
100
AcDbEntity
  8
0
  6
LTYPE1
 62
     1
100
AcDbLine
 10
280.339
 20
126.936
 30
0.0
 11
280.339
 21
133.936
 31
0.0
  0
LINE
  5
62B
330
20
100
AcDbEntity
  8
0
  6
LTYPE1
 62
     1
100
AcDbLine
 10
293.339
 20
123.936
 30
0.0
 11
293.339
 21
140.936
 31
0.0
  0
LINE
  5
62C
330
20
100
AcDbEntity
  8
0
  6
LTYPE1
 62
     1
100
AcDbLine
 10
271.339
 20
103.936
 30
0.0
 11
283.939
 21
103.936
 31
0.0
  0
LINE
  5
62D
330
20
100
AcDbEntity
  8
0
  6
LTYPE1
 62
     1
100
AcDbLine
 10
313.021539683
 20
131.436
 30
0.0
 11
318.339
 21
131.436
 31
0.0
  0
LINE
  5
62E
330
20
100
AcDbEntity
  8
0
  6
LTYPE1
 62
     1
100
AcDbLine
 10
313.021539683
 20
136.436
 30
0.0
 11
318.339
 21
136.436
 31
0.0
  0
LINE
  5
62F
330
20
100
AcDbEntity
  8
0
  6
LTYPE1
 62
     1
100
AcDbLine
 10
314.839
 20
132.036
 30
0.0
 11
313.839
 21
131.436
 31
0.0
  0
LINE
  5
630
330
20
100
AcDbEntity
  8
0
  6
LTYPE1
 62
     1
100
AcDbLine
 10
314.839
 20
135.836
 30
0.0
 11
313.839
 21
136.436
 31
0.0
  0
LINE
  5
631
330
20
100
AcDbEntity
  8
0
  6
LTYPE1
 62
     1
100
AcDbLine
 10
330.139
 20
132.036
 30
0.0
 11
314.839
 21
132.036
 31
0.0
  0
LINE
  5
632
330
20
100
AcDbEntity
  8
0
  6
LTYPE1
 62
     1
100
AcDbLine
 10
330.139
 20
135.836
 30
0.0
 11
314.839
 21
135.836
 31
0.0
  0
LINE
  5
633
330
20
100
AcDbEntity
  8
0
  6
LTYPE1
 62
     1
100
AcDbLine
 10
309.039
 20
133.936
 30
0.0
 11
333.339
 21
133.936
 31
0.0
  0
LINE
  5
634
330
20
100
AcDbEntity
  8
0
  6
LTYPE1
 62
     1
100
AcDbLine
 10
313.021539683
 20
321.436
 30
0.0
 11
318.339
 21
321.436
 31
0.0
  0
LINE
  5
635
330
20
100
AcDbEntity
  8
0
  6
LTYPE1
 62
     1
100
AcDbLine
 10
313.021539683
 20
326.436
 30
0.0
 11
318.339
 21
326.436
 31
0.0
  0
LINE
  5
636
330
20
100
AcDbEntity
  8
0
  6
LTYPE1
 62
     1
100
AcDbLine
 10
314.839
 20
322.036
 30
0.0
 11
313.839
 21
321.436
 31
0.0
  0
LINE
  5
637
330
20
100
AcDbEntity
  8
0
  6
LTYPE1
 62
     1
100
AcDbLine
 10
314.839
 20
325.836
 30
0.0
 11
313.839
 21
326.436
 31
0.0
  0
LINE
  5
638
330
20
100
AcDbEntity
  8
0
  6
LTYPE1
 62
     1
100
AcDbLine
 10
330.139
 20
322.036
 30
0.0
 11
314.839
 21
322.036
 31
0.0
  0
LINE
  5
639
330
20
100
AcDbEntity
  8
0
  6
LTYPE1
 62
     1
100
AcDbLine
 10
330.139
 20
325.836
 30
0.0
 11
314.839
 21
325.836
 31
0.0
  0
LINE
  5
63A
330
20
100
AcDbEntity
  8
0
  6
LTYPE1
 62
     1
100
AcDbLine
 10
309.039
 20
323.936
 30
0.0
 11
333.339
 21
323.936
 31
0.0
  0
LINE
  5
63B
330
20
100
AcDbEntity
  8
0
  6
LTYPE1
 62
     1
100
AcDbLine
 10
282.689
 20
358.836
 30
0.0
 11
285.4890000000001
 21
358.836
 31
0.0
  0
LINE
  5
63C
330
20
100
AcDbEntity
  8
0
  6
LTYPE1
 62
     1
100
AcDbLine
 10
284.089
 20
360.236
 30
0.0
 11
284.089
 21
357.436
 31
0.0
  0
LINE
  5
63D
330
20
100
AcDbEntity
  8
0
  6
LTYPE1
 62
     1
100
AcDbLine
 10
282.689
 20
349.036
 30
0.0
 11
285.4890000000001
 21
349.036
 31
0.0
  0
LINE
  5
63E
330
20
100
AcDbEntity
  8
0
  6
LTYPE1
 62
     1
100
AcDbLine
 10
284.089
 20
347.636
 30
0.0
 11
284.089
 21
350.436
 31
0.0
  0
LINE
  5
63F
330
20
100
AcDbEntity
  8
0
  6
LTYPE1
 62
     1
100
AcDbLine
 10
280.839
 20
353.936
 30
0.0
 11
285.789
 21
353.936
 31
0.0
  0
LINE
  5
640
330
20
100
AcDbEntity
  8
0
  6
LTYPE1
 62
     1
100
AcDbLine
 10
242.739
 20
353.936
 30
0.0
 11
301.739
 21
353.936
 31
0.0
  0
LINE
  5
641
330
20
100
AcDbEntity
  8
0
  6
LTYPE1
 62
     1
100
AcDbLine
 10
305.339
 20
323.436
 30
0.0
 11
305.339
 21
327.436
 31
0.0
  0
LINE
  5
642
330
20
100
AcDbEntity
  8
0
  6
LTYPE1
 62
     1
100
AcDbLine
 10
281.339
 20
323.436
 30
0.0
 11
281.339
 21
327.436
 31
0.0
  0
LINE
  5
643
330
20
100
AcDbEntity
  8
0
  6
LTYPE1
 62
     1
100
AcDbLine
 10
288.439
 20
341.786
 30
0.0
 11
288.439
 21
344.586
 31
0.0
  0
LINE
  5
644
330
20
100
AcDbEntity
  8
0
  6
LTYPE1
 62
     1
100
AcDbLine
 10
287.039
 20
343.186
 30
0.0
 11
289.839
 21
343.186
 31
0.0
  0
LINE
  5
645
330
20
100
AcDbEntity
  8
0
  6
LTYPE1
 62
     1
100
AcDbLine
 10
298.239
 20
341.786
 30
0.0
 11
298.239
 21
344.586
 31
0.0
  0
LINE
  5
646
330
20
100
AcDbEntity
  8
0
  6
LTYPE1
 62
     1
100
AcDbLine
 10
299.639
 20
343.186
 30
0.0
 11
296.839
 21
343.186
 31
0.0
  0
LINE
  5
647
330
20
100
AcDbEntity
  8
0
  6
LTYPE1
 62
     1
100
AcDbLine
 10
293.339
 20
339.936
 30
0.0
 11
293.339
 21
344.886
 31
0.0
  0
LINE
  5
648
330
20
100
AcDbEntity
  8
0
  6
LTYPE1
 62
     1
100
AcDbLine
 10
278.339
 20
102.036
 30
0.0
 11
277.339
 21
101.436
 31
0.0
  0
LINE
  5
649
330
20
100
AcDbEntity
  8
0
  6
LTYPE1
 62
     1
100
AcDbLine
 10
278.339
 20
105.836
 30
0.0
 11
277.339
 21
106.436
 31
0.0
  0
LINE
  5
64A
330
20
100
AcDbEntity
  8
0
  6
LTYPE1
 62
     1
100
AcDbLine
 10
282.339
 20
102.036
 30
0.0
 11
278.339
 21
102.036
 31
0.0
  0
LINE
  5
64B
330
20
100
AcDbEntity
  8
0
  6
LTYPE1
 62
     1
100
AcDbLine
 10
282.339
 20
105.836
 30
0.0
 11
278.339
 21
105.836
 31
0.0
  0
LINE
  5
64C
330
20
100
AcDbEntity
  8
0
  6
LTYPE1
 62
     1
100
AcDbLine
 10
285.339
 20
103.936
 30
0.0
 11
269.339
 21
103.936
 31
0.0
  0
LINE
  5
64D
330
20
100
AcDbEntity
  8
0
  6
LTYPE1
 62
     1
100
AcDbLine
 10
314.339
 20
93.436
 30
0.0
 11
302.639
 21
93.436
 31
0.0
  0
LINE
  5
64E
330
20
100
AcDbEntity
  8
0
  6
LTYPE1
 62
     1
100
AcDbLine
 10
314.339
 20
90.43600000000001
 30
0.0
 11
302.639
 21
90.43600000000001
 31
0.0
  0
LINE
  5
64F
330
20
100
AcDbEntity
  8
0
  6
LTYPE1
 62
     1
100
AcDbLine
 10
317.539
 20
91.93600000000001
 30
0.0
 11
306.339
 21
91.93600000000001
 31
0.0
  0
LINE
  5
650
330
20
100
AcDbEntity
  8
0
  6
LTYPE1
 62
     1
100
AcDbLine
 10
314.339
 20
117.436
 30
0.0
 11
302.639
 21
117.436
 31
0.0
  0
LINE
  5
651
330
20
100
AcDbEntity
  8
0
  6
LTYPE1
 62
     1
100
AcDbLine
 10
314.339
 20
114.436
 30
0.0
 11
302.639
 21
114.436
 31
0.0
  0
LINE
  5
652
330
20
100
AcDbEntity
  8
0
  6
LTYPE1
 62
     1
100
AcDbLine
 10
317.539
 20
115.936
 30
0.0
 11
306.339
 21
115.936
 31
0.0
  0
LINE
  5
653
330
20
100
AcDbEntity
  8
0
  6
LTYPE1
 62
     1
100
AcDbLine
 10
293.339
 20
317.736
 30
0.0
 11
293.339
 21
348.436
 31
0.0
  0
LINE
  5
654
330
20
100
AcDbEntity
  8
0
  6
LTYPE1
 62
     1
100
AcDbLine
 10
303.539
 20
124.936
 30
0.0
 11
303.839
 21
124.436
 31
0.0
  0
LINE
  5
655
330
20
100
AcDbEntity
  8
0
  6
LTYPE1
 62
     1
100
AcDbLine
 10
300.839
 20
124.436
 30
0.0
 11
301.139
 21
124.936
 31
0.0
  0
LINE
  5
656
330
20
100
AcDbEntity
  8
0
  6
LTYPE1
 62
     1
100
AcDbLine
 10
303.839
 20
120.436
 30
0.0
 11
303.839
 21
124.436
 31
0.0
  0
LINE
  5
657
330
20
100
AcDbEntity
  8
0
  6
LTYPE1
 62
     1
100
AcDbLine
 10
300.839
 20
124.436
 30
0.0
 11
300.839
 21
120.436
 31
0.0
  0
LINE
  5
658
330
20
100
AcDbEntity
  8
0
  6
LTYPE1
 62
     1
100
AcDbLine
 10
285.539
 20
124.936
 30
0.0
 11
285.839
 21
124.436
 31
0.0
  0
LINE
  5
659
330
20
100
AcDbEntity
  8
0
  6
LTYPE1
 62
     1
100
AcDbLine
 10
282.839
 20
124.436
 30
0.0
 11
283.139
 21
124.936
 31
0.0
  0
LINE
  5
65A
330
20
100
AcDbEntity
  8
0
  6
LTYPE1
 62
     1
100
AcDbLine
 10
285.839
 20
120.436
 30
0.0
 11
285.839
 21
124.436
 31
0.0
  0
LINE
  5
65B
330
20
100
AcDbEntity
  8
0
  6
LTYPE1
 62
     1
100
AcDbLine
 10
282.839
 20
124.436
 30
0.0
 11
282.839
 21
120.436
 31
0.0
  0
LINE
  5
65C
330
20
100
AcDbEntity
  8
0
  6
LTYPE1
 62
     1
100
AcDbLine
 10
281.339
 20
132.436
 30
0.0
 11
281.339
 21
128.436
 31
0.0
  0
LINE
  5
65D
330
20
100
AcDbEntity
  8
0
  6
LTYPE1
 62
     1
100
AcDbLine
 10
305.339
 20
132.436
 30
0.0
 11
305.339
 21
128.436
 31
0.0
  0
LINE
  5
65E
330
20
100
AcDbEntity
  8
0
  6
LTYPE1
 62
     1
100
AcDbLine
 10
302.339
 20
117.436
 30
0.0
 11
302.339
 21
129.136
 31
0.0
  0
LINE
  5
65F
330
20
100
AcDbEntity
  8
0
  6
LTYPE1
 62
     1
100
AcDbLine
 10
284.339
 20
117.436
 30
0.0
 11
284.339
 21
129.136
 31
0.0
  0
LINE
  5
660
330
20
100
AcDbEntity
  8
0
  6
LTYPE1
 62
     1
100
AcDbLine
 10
288.439
 20
111.286
 30
0.0
 11
288.439
 21
114.086
 31
0.0
  0
LINE
  5
661
330
20
100
AcDbEntity
  8
0
  6
LTYPE1
 62
     1
100
AcDbLine
 10
287.039
 20
112.686
 30
0.0
 11
289.839
 21
112.686
 31
0.0
  0
LINE
  5
662
330
20
100
AcDbEntity
  8
0
  6
LTYPE1
 62
     1
100
AcDbLine
 10
298.239
 20
111.286
 30
0.0
 11
298.239
 21
114.086
 31
0.0
  0
LINE
  5
663
330
20
100
AcDbEntity
  8
0
  6
LTYPE1
 62
     1
100
AcDbLine
 10
299.639
 20
112.686
 30
0.0
 11
296.839
 21
112.686
 31
0.0
  0
LINE
  5
664
330
20
100
AcDbEntity
  8
0
  6
LTYPE1
 62
     1
100
AcDbLine
 10
293.339
 20
109.436
 30
0.0
 11
293.339
 21
114.386
 31
0.0
  0
LINE
  5
665
330
20
100
AcDbEntity
  8
0
  6
LTYPE1
 62
     1
100
AcDbLine
 10
293.339
 20
135.436
 30
0.0
 11
293.339
 21
107.436
 31
0.0
  0
LINE
  5
666
330
20
100
AcDbEntity
  8
0
  6
LTYPE1
 62
     1
100
AcDbLine
 10
293.339
 20
124.336
 30
0.0
 11
293.339
 21
331.6359999999999
 31
0.0
  0
LINE
  5
667
330
20
100
AcDbEntity
  8
0
  6
LTYPE1
 62
     1
100
AcDbLine
 10
368.017936604
 20
103.936
 30
0.0
 11
352.358102439
 21
103.936
 31
0.0
  0
LINE
  5
668
330
20
100
AcDbEntity
  8
0
  6
LTYPE1
 62
     1
100
AcDbLine
 10
328.860063396
 20
103.936
 30
0.0
 11
344.519897561
 21
103.936
 31
0.0
  0
LINE
  5
669
330
20
100
AcDbEntity
  8
0
  6
LTYPE1
 62
     1
100
AcDbLine
 10
359.539
 20
106.536
 30
0.0
 11
359.539
 21
100.636
 31
0.0
  0
LINE
  5
66A
330
20
100
AcDbEntity
  8
0
  6
LTYPE1
 62
     1
100
AcDbLine
 10
337.339
 20
106.136
 30
0.0
 11
337.339
 21
101.436
 31
0.0
  0
LINE
  5
66B
330
20
100
AcDbEntity
  8
0
  6
LTYPE1
 62
     1
100
AcDbLine
 10
331.339
 20
102.486
 30
0.0
 11
331.339
 21
106.086
 31
0.0
  0
LINE
  5
66C
330
20
100
AcDbEntity
  8
0
  6
LTYPE1
 62
     1
100
AcDbLine
 10
309.339
 20
105.386
 30
0.0
 11
309.339
 21
101.786
 31
0.0
  0
LINE
  5
66D
330
20
100
AcDbEntity
  8
0
  6
LTYPE1
 62
     1
100
AcDbLine
 10
337.339
 20
103.936
 30
0.0
 11
303.339
 21
103.936
 31
0.0
  0
LINE
  5
66E
330
20
100
AcDbEntity
  8
0
  6
LTYPE1
 62
     1
100
AcDbLine
 10
387.539
 20
102.486
 30
0.0
 11
387.539
 21
106.086
 31
0.0
  0
LINE
  5
66F
330
20
100
AcDbEntity
  8
0
  6
LTYPE1
 62
     1
100
AcDbLine
 10
365.539
 20
105.386
 30
0.0
 11
365.539
 21
101.786
 31
0.0
  0
LINE
  5
670
330
20
100
AcDbEntity
  8
0
  6
LTYPE1
 62
     1
100
AcDbLine
 10
393.539
 20
103.936
 30
0.0
 11
359.539
 21
103.936
 31
0.0
  0
LINE
  5
671
330
20
100
AcDbEntity
  8
0
  6
LTYPE1
 62
     1
100
AcDbLine
 10
404.539
 20
116.471
 30
0.0
 11
404.539
 21
120.931
 31
0.0
  0
LINE
  5
672
330
20
100
AcDbEntity
  8
0
  6
LTYPE1
 62
     1
100
AcDbLine
 10
421.539
 20
92.436
 30
0.0
 11
421.539
 21
99.936
 31
0.0
  0
LINE
  5
673
330
20
100
AcDbEntity
  8
0
  6
LTYPE1
 62
     1
100
AcDbLine
 10
409.539
 20
99.936
 30
0.0
 11
409.539
 21
92.436
 31
0.0
  0
LINE
  5
674
330
20
100
AcDbEntity
  8
0
  6
LTYPE1
 62
     1
100
AcDbLine
 10
387.539
 20
110.516
 30
0.0
 11
400.539
 21
110.2035
 31
0.0
  0
LINE
  5
675
330
20
100
AcDbEntity
  8
0
  6
LTYPE1
 62
     1
100
AcDbLine
 10
387.539
 20
97.35600000000001
 30
0.0
 11
400.539
 21
97.66849999999999
 31
0.0
  0
LINE
  5
676
330
20
100
AcDbEntity
  8
0
  6
LTYPE1
 62
     1
100
AcDbLine
 10
443.5389999999999
 20
97.35600000000001
 30
0.0
 11
430.539
 21
97.66849999999999
 31
0.0
  0
LINE
  5
677
330
20
100
AcDbEntity
  8
0
  6
LTYPE1
 62
     1
100
AcDbLine
 10
443.5389999999999
 20
110.516
 30
0.0
 11
430.539
 21
110.2035
 31
0.0
  0
LINE
  5
678
330
20
100
AcDbEntity
  8
0
  6
LTYPE1
 62
     1
100
AcDbLine
 10
385.921
 20
103.936
 30
0.0
 11
445.539
 21
103.936
 31
0.0
  0
LINE
  5
679
330
20
100
AcDbEntity
  8
0
  6
LTYPE1
 62
     1
100
AcDbLine
 10
415.5389999999999
 20
126.595
 30
0.0
 11
415.5389999999999
 21
86.67399999999998
 31
0.0
  0
LINE
  5
67A
330
20
100
AcDbEntity
  8
0
  6
LTYPE1
 62
     1
100
AcDbLine
 10
443.5389999999999
 20
116.018
 30
0.0
 11
387.539
 21
116.018
 31
0.0
  0
LINE
  5
67B
330
20
100
AcDbEntity
  8
0
  6
LTYPE1
 62
     1
100
AcDbLine
 10
443.5389999999999
 20
151.516
 30
0.0
 11
428.5389999999999
 21
151.155423077
 31
0.0
  0
LINE
  5
67C
330
20
100
AcDbEntity
  8
0
  6
LTYPE1
 62
     1
100
AcDbLine
 10
443.5389999999999
 20
138.356
 30
0.0
 11
428.5389999999999
 21
138.716576923
 31
0.0
  0
LINE
  5
67D
330
20
100
AcDbEntity
  8
0
  6
LTYPE1
 62
     1
100
AcDbLine
 10
422.1189999999999
 20
163.936
 30
0.0
 11
421.8305384619999
 21
151.936
 31
0.0
  0
LINE
  5
67E
330
20
100
AcDbEntity
  8
0
  6
LTYPE1
 62
     1
100
AcDbLine
 10
408.959
 20
163.936
 30
0.0
 11
409.247461538
 21
151.936
 31
0.0
  0
LINE
  5
67F
330
20
100
AcDbEntity
  8
0
  6
LTYPE1
 62
     1
100
AcDbLine
 10
415.5389999999999
 20
165.303
 30
0.0
 11
415.5389999999999
 21
121.31
 31
0.0
  0
LINE
  5
680
330
20
100
AcDbEntity
  8
0
  6
LTYPE1
 62
     1
100
AcDbLine
 10
415.5389999999999
 20
82.86900000000001
 30
0.0
 11
415.5389999999999
 21
101.965
 31
0.0
  0
LINE
  5
681
330
20
100
AcDbEntity
  8
0
  6
LTYPE1
 62
     1
100
AcDbLine
 10
421.039
 20
92.93600000000001
 30
0.0
 11
421.039
 21
97.93600000000001
 31
0.0
  0
LINE
  5
682
330
20
100
AcDbEntity
  8
0
  6
LTYPE1
 62
     1
100
AcDbLine
 10
410.0389999999999
 20
92.93600000000001
 30
0.0
 11
410.0389999999999
 21
97.93600000000001
 31
0.0
  0
LINE
  5
683
330
20
100
AcDbEntity
  8
0
  6
LTYPE1
 62
     1
100
AcDbLine
 10
415.5389999999999
 20
100.14
 30
0.0
 11
415.5389999999999
 21
108.655
 31
0.0
  0
LINE
  5
684
330
20
100
AcDbEntity
  8
0
  6
LTYPE1
 62
     1
100
AcDbLine
 10
415.5389999999999
 20
122.595
 30
0.0
 11
415.5389999999999
 21
128.677
 31
0.0
  0
LINE
  5
685
330
20
100
AcDbEntity
  8
0
  6
LTYPE1
 62
     1
100
AcDbLine
 10
418.039
 20
124.095
 30
0.0
 11
418.039
 21
131.095
 31
0.0
  0
LINE
  5
686
330
20
100
AcDbEntity
  8
0
  6
LTYPE1
 62
     1
100
AcDbLine
 10
413.039
 20
124.095
 30
0.0
 11
413.039
 21
131.095
 31
0.0
  0
LINE
  5
687
330
20
100
AcDbEntity
  8
0
  6
LTYPE1
 62
     1
100
AcDbLine
 10
415.5389999999999
 20
119.243
 30
0.0
 11
415.5389999999999
 21
132.623
 31
0.0
  0
LINE
  5
688
330
20
100
AcDbEntity
  8
0
  6
LTYPE1
 62
     1
100
AcDbLine
 10
415.5389999999999
 20
97.413
 30
0.0
 11
415.5389999999999
 21
106.925
 31
0.0
  0
LINE
  5
689
330
20
100
AcDbEntity
  8
0
  6
LTYPE1
 62
     1
100
AcDbLine
 10
415.5389999999999
 20
134.095
 30
0.0
 11
415.5389999999999
 21
124.095
 31
0.0
  0
LINE
  5
68A
330
20
100
AcDbEntity
  8
0
  6
LTYPE1
 62
     1
100
AcDbLine
 10
405.039
 20
151.595
 30
0.0
 11
405.039
 21
125.595
 31
0.0
  0
LINE
  5
68B
330
20
100
AcDbEntity
  8
0
  6
LTYPE1
 62
     1
100
AcDbLine
 10
415.5389999999999
 20
125.595
 30
0.0
 11
415.5389999999999
 21
151.595
 31
0.0
  0
LINE
  5
68C
330
20
100
AcDbEntity
  8
0
  6
LTYPE1
 62
     1
100
AcDbLine
 10
426.039
 20
151.595
 30
0.0
 11
426.039
 21
125.595
 31
0.0
  0
LINE
  5
68D
330
20
100
AcDbEntity
  8
0
  6
LTYPE1
 62
     1
100
AcDbLine
 10
428.5389999999999
 20
144.936
 30
0.0
 11
444.854
 21
144.936
 31
0.0
  0
LINE
  5
68E
330
20
100
AcDbEntity
  8
0
  6
LTYPE1
 62
     1
100
AcDbLine
 10
412.6389999999999
 20
106.061
 30
0.0
 11
412.6389999999999
 21
97.93600000000001
 31
0.0
  0
LINE
  5
68F
330
20
100
AcDbEntity
  8
0
  6
LTYPE1
 62
     1
100
AcDbLine
 10
418.439
 20
105.686
 30
0.0
 11
418.439
 21
98.31100000000001
 31
0.0
  0
LINE
  5
690
330
20
100
AcDbEntity
  8
0
  6
LTYPE1
 62
     1
100
AcDbLine
 10
335.739
 20
353.936
 30
0.0
 11
298.239
 21
353.936
 31
0.0
  0
LINE
  5
691
330
20
100
AcDbEntity
  8
0
  6
LTYPE1
 62
     1
100
AcDbLine
 10
309.339
 20
357.536
 30
0.0
 11
309.339
 21
350.736
 31
0.0
  0
LINE
  5
692
330
20
100
AcDbEntity
  8
0
  6
LTYPE1
 62
     1
100
AcDbLine
 10
415.5389999999999
 20
190.336
 30
0.0
 11
415.5389999999999
 21
152.836
 31
0.0
  0
LINE
  5
693
330
20
100
AcDbEntity
  8
0
  6
LTYPE1
 62
     1
100
AcDbLine
 10
411.939
 20
163.936
 30
0.0
 11
418.739
 21
163.936
 31
0.0
  0
LINE
  5
694
330
20
100
AcDbEntity
  8
0
  6
LTYPE1
 62
     1
100
AcDbLine
 10
415.5389999999999
 20
190.9359999999999
 30
0.0
 11
415.5389999999999
 21
320.936
 31
0.0
  0
LINE
  5
695
330
20
100
AcDbEntity
  8
0
  6
LTYPE1
 62
     1
100
AcDbLine
 10
336.339
 20
353.936
 30
0.0
 11
382.539
 21
353.936
 31
0.0
  0
LINE
  5
696
330
20
100
AcDbEntity
  8
0
  6
LTYPE1
 62
     1
100
AcDbLine
 10
293.339
 20
90.95600000000001
 30
0.0
 11
293.339
 21
129.936
 31
0.0
  0
LINE
  5
697
330
20
100
AcDbEntity
  8
0
  6
LTYPE1
 62
     1
100
AcDbLine
 10
143.339
 20
327.936
 30
0.0
 11
143.339
 21
356.936
 31
0.0
  0
LINE
  5
698
330
20
100
AcDbEntity
  8
0
  6
LTYPE1
 62
     1
100
AcDbLine
 10
162.339
 20
353.936
 30
0.0
 11
124.339
 21
353.936
 31
0.0
  0
LINE
  5
699
330
20
100
AcDbEntity
  8
0
  6
LTYPE1
 62
     1
100
AcDbLine
 10
143.339
 20
333.936
 30
0.0
 11
143.339
 21
316.936
 31
0.0
  0
LINE
  5
69A
330
20
100
AcDbEntity
  8
0
  6
LTYPE1
 62
     1
100
AcDbLine
 10
153.339
 20
353.936
 30
0.0
 11
133.339
 21
353.936
 31
0.0
  0
LINE
  5
69B
330
20
100
AcDbEntity
  8
0
  6
LTYPE1
 62
     1
100
AcDbLine
 10
143.339
 20
342.853096231
 30
0.0
 11
143.339
 21
365.018903769
 31
0.0
  0
LINE
  5
69C
330
20
100
AcDbEntity
  8
0
  6
LTYPE1
 62
     1
100
AcDbLine
 10
153.339
 20
353.936
 30
0.0
 11
133.339
 21
353.936
 31
0.0
  0
LINE
  5
69D
330
20
100
AcDbEntity
  8
0
  6
LTYPE1
 62
     1
100
AcDbLine
 10
153.839
 20
353.936
 30
0.0
 11
132.839
 21
353.936
 31
0.0
  0
LINE
  5
69E
330
20
100
AcDbEntity
  8
0
  6
LTYPE1
 62
     1
100
AcDbLine
 10
143.339
 20
339.936
 30
0.0
 11
143.339
 21
344.886
 31
0.0
  0
LINE
  5
69F
330
20
100
AcDbEntity
  8
0
  6
LTYPE1
 62
     1
100
AcDbLine
 10
143.339
 20
320.436
 30
0.0
 11
143.339
 21
348.436
 31
0.0
  0
LINE
  5
6A0
330
20
100
AcDbEntity
  8
0
  6
LTYPE1
 62
     1
100
AcDbLine
 10
143.339
 20
124.336
 30
0.0
 11
143.339
 21
333.6359999999999
 31
0.0
  0
LINE
  5
6A1
330
20
100
AcDbEntity
  8
0
  6
LTYPE1
 62
     1
100
AcDbLine
 10
129.739
 20
103.936
 30
0.0
 11
156.939
 21
103.936
 31
0.0
  0
LINE
  5
6A2
330
20
100
AcDbEntity
  8
0
  6
LTYPE1
 62
     1
100
AcDbLine
 10
143.339
 20
342.853096231
 30
0.0
 11
143.339
 21
370.936
 31
0.0
  0
LINE
  5
6A3
330
20
100
AcDbEntity
  8
0
  6
LTYPE1
 62
     1
100
AcDbLine
 10
143.339
 20
87.816
 30
0.0
 11
143.339
 21
140.936
 31
0.0
  0
LINE
  5
6A4
330
20
100
AcDbEntity
  8
0
  6
LTYPE1
 62
     1
100
AcDbLine
 10
293.339
 20
510.3515962409999
 30
0.0
 11
293.339
 21
467.936403759
 31
0.0
  0
LINE
  5
6A5
330
20
100
AcDbEntity
  8
0
  6
LTYPE1
 62
     1
100
AcDbLine
 10
321.339
 20
489.144
 30
0.0
 11
242.239
 21
489.144
 31
0.0
  0
CIRCLE
  5
6A6
330
20
100
AcDbEntity
  8
0
  6
LTYPE1
 62
     1
100
AcDbCircle
 10
415.5389999999999
 20
489.144
 30
0.0
 40
6.58
  0
LINE
  5
6A7
330
20
100
AcDbEntity
  8
0
  6
LTYPE1
 62
     1
100
AcDbLine
 10
387.539
 20
489.144
 30
0.0
 11
443.5389999999999
 21
489.144
 31
0.0
  0
LINE
  5
6A8
330
20
100
AcDbEntity
  8
0
  6
LTYPE1
 62
     1
100
AcDbLine
 10
415.5389999999999
 20
461.1439999999999
 30
0.0
 11
415.5389999999999
 21
517.144
 31
0.0
  0
LINE
  5
6A9
330
20
100
AcDbEntity
  8
0
  6
LTYPE1
 62
     1
100
AcDbLine
 10
436.752203436
 20
503.1572034359999
 30
0.0
 11
436.752203436
 21
517.557203436
 31
0.0
  0
LINE
  5
6AA
330
20
100
AcDbEntity
  8
0
  6
LTYPE1
 62
     1
100
AcDbLine
 10
429.5522034359999
 20
510.3572034359999
 30
0.0
 11
443.952203436
 21
510.3572034359999
 31
0.0
  0
LINE
  5
6AB
330
20
100
AcDbEntity
  8
0
  6
LTYPE1
 62
     1
100
AcDbLine
 10
394.325796564
 20
503.1572034359999
 30
0.0
 11
394.325796564
 21
517.557203436
 31
0.0
  0
LINE
  5
6AC
330
20
100
AcDbEntity
  8
0
  6
LTYPE1
 62
     1
100
AcDbLine
 10
387.125796564
 20
510.3572034359999
 30
0.0
 11
401.525796564
 21
510.3572034359999
 31
0.0
  0
LINE
  5
6AD
330
20
100
AcDbEntity
  8
0
  6
LTYPE1
 62
     1
100
AcDbLine
 10
394.325796564
 20
460.730796564
 30
0.0
 11
394.325796564
 21
475.130796564
 31
0.0
  0
LINE
  5
6AE
330
20
100
AcDbEntity
  8
0
  6
LTYPE1
 62
     1
100
AcDbLine
 10
387.125796564
 20
467.9307965639999
 30
0.0
 11
401.525796564
 21
467.9307965639999
 31
0.0
  0
LINE
  5
6AF
330
20
100
AcDbEntity
  8
0
  6
LTYPE1
 62
     1
100
AcDbLine
 10
436.752203436
 20
460.730796564
 30
0.0
 11
436.752203436
 21
475.130796564
 31
0.0
  0
LINE
  5
6B0
330
20
100
AcDbEntity
  8
0
  6
LTYPE1
 62
     1
100
AcDbLine
 10
429.5522034359999
 20
467.9307965639999
 30
0.0
 11
443.952203436
 21
467.9307965639999
 31
0.0
  0
LINE
  5
6B1
330
20
100
AcDbEntity
  8
0
  6
LTYPE1
 62
     1
100
AcDbLine
 10
436.752203436
 20
503.3572034359999
 30
0.0
 11
436.752203436
 21
517.3572034359999
 31
0.0
  0
LINE
  5
6B2
330
20
100
AcDbEntity
  8
0
  6
LTYPE1
 62
     1
100
AcDbLine
 10
429.752203436
 20
510.3572034359999
 30
0.0
 11
443.7522034359999
 21
510.3572034359999
 31
0.0
  0
LINE
  5
6B3
330
20
100
AcDbEntity
  8
0
  6
LTYPE1
 62
     1
100
AcDbLine
 10
394.325796564
 20
503.3572034359999
 30
0.0
 11
394.325796564
 21
517.3572034359999
 31
0.0
  0
LINE
  5
6B4
330
20
100
AcDbEntity
  8
0
  6
LTYPE1
 62
     1
100
AcDbLine
 10
387.325796564
 20
510.3572034359999
 30
0.0
 11
401.325796564
 21
510.3572034359999
 31
0.0
  0
LINE
  5
6B5
330
20
100
AcDbEntity
  8
0
  6
LTYPE1
 62
     1
100
AcDbLine
 10
338.539
 20
489.144
 30
0.0
 11
355.339
 21
489.144
 31
0.0
  0
LINE
  5
6B6
330
20
100
AcDbEntity
  8
0
  6
LTYPE1
 62
     1
100
AcDbLine
 10
309.339
 20
492.744
 30
0.0
 11
309.339
 21
485.944
 31
0.0
  0
LINE
  5
6B7
330
20
100
AcDbEntity
  8
0
  6
LTYPE1
 62
     1
100
AcDbLine
 10
298.939
 20
489.144
 30
0.0
 11
315.039
 21
489.144
 31
0.0
  0
LINE
  5
6B8
330
20
100
AcDbEntity
  8
0
  6
LTYPE1
 62
     1
100
AcDbLine
 10
368.017936604
 20
489.144
 30
0.0
 11
352.358102439
 21
489.144
 31
0.0
  0
LINE
  5
6B9
330
20
100
AcDbEntity
  8
0
  6
LTYPE1
 62
     1
100
AcDbLine
 10
328.860063396
 20
489.144
 30
0.0
 11
344.519897561
 21
489.144
 31
0.0
  0
LINE
  5
6BA
330
20
100
AcDbEntity
  8
0
  6
LTYPE1
 62
     1
100
AcDbLine
 10
359.539
 20
491.744
 30
0.0
 11
359.539
 21
485.8439999999999
 31
0.0
  0
LINE
  5
6BB
330
20
100
AcDbEntity
  8
0
  6
LTYPE1
 62
     1
100
AcDbLine
 10
337.339
 20
491.344
 30
0.0
 11
337.339
 21
486.6439999999999
 31
0.0
  0
LINE
  5
6BC
330
20
100
AcDbEntity
  8
0
  6
LTYPE1
 62
     1
100
AcDbLine
 10
331.339
 20
487.694
 30
0.0
 11
331.339
 21
491.294
 31
0.0
  0
LINE
  5
6BD
330
20
100
AcDbEntity
  8
0
  6
LTYPE1
 62
     1
100
AcDbLine
 10
337.339
 20
489.144
 30
0.0
 11
326.839
 21
489.144
 31
0.0
  0
LINE
  5
6BE
330
20
100
AcDbEntity
  8
0
  6
LTYPE1
 62
     1
100
AcDbLine
 10
365.539
 20
490.594
 30
0.0
 11
365.539
 21
486.994
 31
0.0
  0
LINE
  5
6BF
330
20
100
AcDbEntity
  8
0
  6
LTYPE1
 62
     1
100
AcDbLine
 10
384.539
 20
489.144
 30
0.0
 11
359.539
 21
489.144
 31
0.0
  0
LINE
  5
6C0
330
20
100
AcDbEntity
  8
0
  6
Continuous
 62
     4
100
AcDbLine
 10
297.339
 20
329.436
 30
0.0
 11
297.339
 21
326.936
 31
0.0
  0
LINE
  5
6C1
330
20
100
AcDbEntity
  8
0
  6
Continuous
 62
     4
100
AcDbLine
 10
289.339
 20
329.436
 30
0.0
 11
289.339
 21
326.936
 31
0.0
  0
LINE
  5
6C2
330
20
100
AcDbEntity
  8
0
  6
Continuous
 62
     4
100
AcDbLine
 10
285.089
 20
326.936
 30
0.0
 11
285.089
 21
329.436
 31
0.0
  0
LINE
  5
6C3
330
20
100
AcDbEntity
  8
0
  6
Continuous
 62
     4
100
AcDbLine
 10
301.589
 20
329.436
 30
0.0
 11
301.589
 21
326.936
 31
0.0
  0
LINE
  5
6C4
330
20
100
AcDbEntity
  8
0
  6
Continuous
 62
     4
100
AcDbLine
 10
285.089
 20
329.436
 30
0.0
 11
301.589
 21
329.436
 31
0.0
  0
LINE
  5
6C5
330
20
100
AcDbEntity
  8
0
  6
Continuous
 62
     4
100
AcDbLine
 10
301.589
 20
326.936
 30
0.0
 11
285.089
 21
326.936
 31
0.0
  0
LINE
  5
6C6
330
20
100
AcDbEntity
  8
0
  6
Continuous
 62
     4
100
AcDbLine
 10
289.339
 20
126.436
 30
0.0
 11
289.339
 21
128.936
 31
0.0
  0
LINE
  5
6C7
330
20
100
AcDbEntity
  8
0
  6
Continuous
 62
     4
100
AcDbLine
 10
297.339
 20
126.436
 30
0.0
 11
297.339
 21
128.936
 31
0.0
  0
LINE
  5
6C8
330
20
100
AcDbEntity
  8
0
  6
Continuous
 62
     4
100
AcDbLine
 10
285.089
 20
126.436
 30
0.0
 11
285.089
 21
128.936
 31
0.0
  0
LINE
  5
6C9
330
20
100
AcDbEntity
  8
0
  6
Continuous
 62
     4
100
AcDbLine
 10
301.589
 20
128.936
 30
0.0
 11
301.589
 21
126.436
 31
0.0
  0
LINE
  5
6CA
330
20
100
AcDbEntity
  8
0
  6
Continuous
 62
     4
100
AcDbLine
 10
301.589
 20
126.436
 30
0.0
 11
285.089
 21
126.436
 31
0.0
  0
LINE
  5
6CB
330
20
100
AcDbEntity
  8
0
  6
Continuous
 62
     4
100
AcDbLine
 10
285.089
 20
128.936
 30
0.0
 11
301.589
 21
128.936
 31
0.0
  0
LINE
  5
6CC
330
20
100
AcDbEntity
  8
0
  6
Continuous
 62
     4
100
AcDbLine
 10
343.749
 20
103.936
 30
0.0
 11
343.749
 21
98.611
 31
0.0
  0
LINE
  5
6CD
330
20
100
AcDbEntity
  8
0
  6
Continuous
 62
     4
100
AcDbLine
 10
341.749
 20
97.66849999999999
 30
0.0
 11
341.749
 21
103.936
 31
0.0
  0
LINE
  5
6CE
330
20
100
AcDbEntity
  8
0
  6
Continuous
 62
     4
100
AcDbLine
 10
343.749
 20
103.936
 30
0.0
 11
343.749
 21
109.261
 31
0.0
  0
LINE
  5
6CF
330
20
100
AcDbEntity
  8
0
  6
Continuous
 62
     4
100
AcDbLine
 10
341.749
 20
110.2035
 30
0.0
 11
341.749
 21
103.936
 31
0.0
  0
LINE
  5
6D0
330
20
100
AcDbEntity
  8
0
  6
Continuous
 62
     4
100
AcDbLine
 10
341.749
 20
97.66849999999999
 30
0.0
 11
343.749
 21
98.611
 31
0.0
  0
LINE
  5
6D1
330
20
100
AcDbEntity
  8
0
  6
Continuous
 62
     4
100
AcDbLine
 10
341.749
 20
110.2035
 30
0.0
 11
343.749
 21
109.261
 31
0.0
  0
LINE
  5
6D2
330
20
100
AcDbEntity
  8
0
  6
Continuous
 62
     4
100
AcDbLine
 10
353.129
 20
103.936
 30
0.0
 11
353.129
 21
109.261
 31
0.0
  0
LINE
  5
6D3
330
20
100
AcDbEntity
  8
0
  6
Continuous
 62
     4
100
AcDbLine
 10
355.129
 20
110.2035
 30
0.0
 11
355.129
 21
103.936
 31
0.0
  0
LINE
  5
6D4
330
20
100
AcDbEntity
  8
0
  6
Continuous
 62
     4
100
AcDbLine
 10
353.129
 20
103.936
 30
0.0
 11
353.129
 21
98.611
 31
0.0
  0
LINE
  5
6D5
330
20
100
AcDbEntity
  8
0
  6
Continuous
 62
     4
100
AcDbLine
 10
355.129
 20
97.66849999999999
 30
0.0
 11
355.129
 21
103.936
 31
0.0
  0
LINE
  5
6D6
330
20
100
AcDbEntity
  8
0
  6
Continuous
 62
     4
100
AcDbLine
 10
355.129
 20
110.2035
 30
0.0
 11
353.129
 21
109.261
 31
0.0
  0
LINE
  5
6D7
330
20
100
AcDbEntity
  8
0
  6
Continuous
 62
     4
100
AcDbLine
 10
355.129
 20
97.66849999999999
 30
0.0
 11
353.129
 21
98.611
 31
0.0
  0
LWPOLYLINE
  5
6D8
330
20
100
AcDbEntity
  8
0
  6
Continuous
 62
     4
100
AcDbPolyline
 90
        3
 70
     0
 43
0.0
 10
365.539
 20
110.516
 10
364.538102439
 20
109.604721951
 10
364.538102439
 20
103.936
  0
LINE
  5
6DD
330
20
100
AcDbEntity
  8
0
  6
Continuous
 62
     4
100
AcDbLine
 10
364.538102439
 20
109.604721951
 30
0.0
 11
353.129
 21
109.261
 31
0.0
  0
LWPOLYLINE
  5
6DE
330
20
100
AcDbEntity
  8
0
  6
Continuous
 62
     4
100
AcDbPolyline
 90
        3
 70
     0
 43
0.0
 10
365.539
 20
97.35600000000001
 10
364.538102439
 20
98.267278049
 10
364.538102439
 20
103.936
  0
LINE
  5
6E3
330
20
100
AcDbEntity
  8
0
  6
Continuous
 62
     4
100
AcDbLine
 10
364.538102439
 20
98.267278049
 30
0.0
 11
353.129
 21
98.611
 31
0.0
  0
LINE
  5
6E4
330
20
100
AcDbEntity
  8
0
  6
Continuous
 62
     4
100
AcDbLine
 10
365.539
 20
110.516
 30
0.0
 11
355.129
 21
110.2035
 31
0.0
  0
LINE
  5
6E5
330
20
100
AcDbEntity
  8
0
  6
Continuous
 62
     4
100
AcDbLine
 10
365.539
 20
97.35600000000001
 30
0.0
 11
355.129
 21
97.66849999999999
 31
0.0
  0
LWPOLYLINE
  5
6E6
330
20
100
AcDbEntity
  8
0
  6
Continuous
 62
     4
100
AcDbPolyline
 90
        3
 70
     0
 43
0.0
 10
331.339
 20
97.35600000000001
 10
332.339897561
 20
98.267278049
 10
332.339897561
 20
103.936
  0
LINE
  5
6EB
330
20
100
AcDbEntity
  8
0
  6
Continuous
 62
     4
100
AcDbLine
 10
332.339897561
 20
98.267278049
 30
0.0
 11
343.749
 21
98.611
 31
0.0
  0
LWPOLYLINE
  5
6EC
330
20
100
AcDbEntity
  8
0
  6
Continuous
 62
     4
100
AcDbPolyline
 90
        3
 70
     0
 43
0.0
 10
331.339
 20
110.516
 10
332.339897561
 20
109.604721951
 10
332.339897561
 20
103.936
  0
LINE
  5
6F1
330
20
100
AcDbEntity
  8
0
  6
Continuous
 62
     4
100
AcDbLine
 10
332.339897561
 20
109.604721951
 30
0.0
 11
343.749
 21
109.261
 31
0.0
  0
LINE
  5
6F2
330
20
100
AcDbEntity
  8
0
  6
Continuous
 62
     4
100
AcDbLine
 10
331.339
 20
97.35600000000001
 30
0.0
 11
341.749
 21
97.66849999999999
 31
0.0
  0
LINE
  5
6F3
330
20
100
AcDbEntity
  8
0
  6
Continuous
 62
     4
100
AcDbLine
 10
331.339
 20
110.516
 30
0.0
 11
341.749
 21
110.2035
 31
0.0
  0
LINE
  5
6F4
330
20
100
AcDbEntity
  8
0
  6
Continuous
 62
     4
100
AcDbLine
 10
337.339
 20
99.936
 30
0.0
 11
320.339
 21
99.936
 31
0.0
  0
LINE
  5
6F5
330
20
100
AcDbEntity
  8
0
  6
Continuous
 62
     4
100
AcDbLine
 10
303.339
 20
99.936
 30
0.0
 11
320.339
 21
99.936
 31
0.0
  0
LINE
  5
6F6
330
20
100
AcDbEntity
  8
0
  6
Continuous
 62
     4
100
AcDbLine
 10
337.339
 20
107.936
 30
0.0
 11
320.339
 21
107.936
 31
0.0
  0
LINE
  5
6F7
330
20
100
AcDbEntity
  8
0
  6
Continuous
 62
     4
100
AcDbLine
 10
303.339
 20
107.936
 30
0.0
 11
320.339
 21
107.936
 31
0.0
  0
LINE
  5
6F8
330
20
100
AcDbEntity
  8
0
  6
Continuous
 62
     4
100
AcDbLine
 10
327.439
 20
109.856153812
 30
0.0
 11
325.339
 21
110.89101874
 31
0.0
  0
LINE
  5
6F9
330
20
100
AcDbEntity
  8
0
  6
Continuous
 62
     4
100
AcDbLine
 10
337.339
 20
109.546763351
 30
0.0
 11
327.439
 21
109.856153812
 31
0.0
  0
LINE
  5
6FA
330
20
100
AcDbEntity
  8
0
  6
Continuous
 62
     4
100
AcDbLine
 10
327.439
 20
98.01584618799999
 30
0.0
 11
325.339
 21
96.98098125999999
 31
0.0
  0
LINE
  5
6FB
330
20
100
AcDbEntity
  8
0
  6
Continuous
 62
     4
100
AcDbLine
 10
337.339
 20
98.325236649
 30
0.0
 11
327.439
 21
98.01584618799999
 31
0.0
  0
LINE
  5
6FC
330
20
100
AcDbEntity
  8
0
  6
Continuous
 62
     4
100
AcDbLine
 10
313.239
 20
98.01584618799999
 30
0.0
 11
315.339
 21
96.98098125999999
 31
0.0
  0
LINE
  5
6FD
330
20
100
AcDbEntity
  8
0
  6
Continuous
 62
     4
100
AcDbLine
 10
303.339
 20
98.325236649
 30
0.0
 11
313.239
 21
98.01584618799999
 31
0.0
  0
LINE
  5
6FE
330
20
100
AcDbEntity
  8
0
  6
Continuous
 62
     4
100
AcDbLine
 10
313.239
 20
109.856153812
 30
0.0
 11
315.339
 21
110.89101874
 31
0.0
  0
LINE
  5
6FF
330
20
100
AcDbEntity
  8
0
  6
Continuous
 62
     4
100
AcDbLine
 10
303.339
 20
109.546763351
 30
0.0
 11
313.239
 21
109.856153812
 31
0.0
  0
LINE
  5
700
330
20
100
AcDbEntity
  8
0
  6
Continuous
 62
     4
100
AcDbLine
 10
393.539
 20
99.936
 30
0.0
 11
376.539
 21
99.936
 31
0.0
  0
LINE
  5
701
330
20
100
AcDbEntity
  8
0
  6
Continuous
 62
     4
100
AcDbLine
 10
359.539
 20
99.936
 30
0.0
 11
376.539
 21
99.936
 31
0.0
  0
LINE
  5
702
330
20
100
AcDbEntity
  8
0
  6
Continuous
 62
     4
100
AcDbLine
 10
393.539
 20
107.936
 30
0.0
 11
376.539
 21
107.936
 31
0.0
  0
LINE
  5
703
330
20
100
AcDbEntity
  8
0
  6
Continuous
 62
     4
100
AcDbLine
 10
359.539
 20
107.936
 30
0.0
 11
376.539
 21
107.936
 31
0.0
  0
LINE
  5
704
330
20
100
AcDbEntity
  8
0
  6
Continuous
 62
     4
100
AcDbLine
 10
383.639
 20
109.856153812
 30
0.0
 11
381.539
 21
110.89101874
 31
0.0
  0
LINE
  5
705
330
20
100
AcDbEntity
  8
0
  6
Continuous
 62
     4
100
AcDbLine
 10
393.539
 20
109.546763351
 30
0.0
 11
383.639
 21
109.856153812
 31
0.0
  0
LINE
  5
706
330
20
100
AcDbEntity
  8
0
  6
Continuous
 62
     4
100
AcDbLine
 10
383.639
 20
98.01584618799999
 30
0.0
 11
381.539
 21
96.98098125999999
 31
0.0
  0
LINE
  5
707
330
20
100
AcDbEntity
  8
0
  6
Continuous
 62
     4
100
AcDbLine
 10
393.539
 20
98.325236649
 30
0.0
 11
383.639
 21
98.01584618799999
 31
0.0
  0
LINE
  5
708
330
20
100
AcDbEntity
  8
0
  6
Continuous
 62
     4
100
AcDbLine
 10
369.439
 20
98.01584618799999
 30
0.0
 11
371.539
 21
96.98098125999999
 31
0.0
  0
LINE
  5
709
330
20
100
AcDbEntity
  8
0
  6
Continuous
 62
     4
100
AcDbLine
 10
359.539
 20
98.325236649
 30
0.0
 11
369.439
 21
98.01584618799999
 31
0.0
  0
LINE
  5
70A
330
20
100
AcDbEntity
  8
0
  6
Continuous
 62
     4
100
AcDbLine
 10
369.439
 20
109.856153812
 30
0.0
 11
371.539
 21
110.89101874
 31
0.0
  0
LINE
  5
70B
330
20
100
AcDbEntity
  8
0
  6
Continuous
 62
     4
100
AcDbLine
 10
359.539
 20
109.546763351
 30
0.0
 11
369.439
 21
109.856153812
 31
0.0
  0
LWPOLYLINE
  5
70C
330
20
100
AcDbEntity
  8
0
  6
Continuous
 62
     4
100
AcDbPolyline
 90
        3
 70
     0
 43
0.0
 10
314.474882353
 20
360.869529412
 10
314.124882353
 20
360.269529412
 10
302.339
 20
359.369529412
  0
LINE
  5
711
330
20
100
AcDbEntity
  8
0
  6
Continuous
 62
     4
100
AcDbLine
 10
314.474882353
 20
347.0024705880001
 30
0.0
 11
314.124882353
 21
347.602470588
 31
0.0
  0
LINE
  5
712
330
20
100
AcDbEntity
  8
0
  6
Continuous
 62
     4
100
AcDbLine
 10
314.124882353
 20
347.602470588
 30
0.0
 11
302.339
 21
348.5024705880001
 31
0.0
  0
LINE
  5
713
330
20
100
AcDbEntity
  8
0
  6
Continuous
 62
     4
100
AcDbLine
 10
333.339
 20
353.936
 30
0.0
 11
333.339
 21
348.436
 31
0.0
  0
LINE
  5
714
330
20
100
AcDbEntity
  8
0
  6
Continuous
 62
     4
100
AcDbLine
 10
333.339
 20
348.436
 30
0.0
 11
326.639
 21
348.436
 31
0.0
  0
LINE
  5
715
330
20
100
AcDbEntity
  8
0
  6
Continuous
 62
     4
100
AcDbLine
 10
333.339
 20
353.936
 30
0.0
 11
333.339
 21
359.436
 31
0.0
  0
LINE
  5
716
330
20
100
AcDbEntity
  8
0
  6
Continuous
 62
     4
100
AcDbLine
 10
333.339
 20
359.436
 30
0.0
 11
326.639
 21
359.436
 31
0.0
  0
LINE
  5
717
330
20
100
AcDbEntity
  8
0
  6
Continuous
 62
     4
100
AcDbLine
 10
324.339
 20
353.936
 30
0.0
 11
324.339
 21
349.936
 31
0.0
  0
LINE
  5
718
330
20
100
AcDbEntity
  8
0
  6
Continuous
 62
     4
100
AcDbLine
 10
324.339
 20
349.936
 30
0.0
 11
333.339
 21
349.936
 31
0.0
  0
LINE
  5
719
330
20
100
AcDbEntity
  8
0
  6
Continuous
 62
     4
100
AcDbLine
 10
324.339
 20
353.936
 30
0.0
 11
324.339
 21
357.936
 31
0.0
  0
LINE
  5
71A
330
20
100
AcDbEntity
  8
0
  6
Continuous
 62
     4
100
AcDbLine
 10
324.339
 20
357.936
 30
0.0
 11
333.339
 21
357.936
 31
0.0
  0
LWPOLYLINE
  5
71B
330
20
100
AcDbEntity
  8
0
  6
Continuous
 62
     4
100
AcDbPolyline
 90
        3
 70
     0
 43
0.0
 10
408.605470588
 20
169.071882353
 10
409.205470588
 20
168.721882353
 10
410.105470588
 20
156.936
  0
LINE
  5
720
330
20
100
AcDbEntity
  8
0
  6
Continuous
 62
     4
100
AcDbLine
 10
422.4725294119999
 20
169.071882353
 30
0.0
 11
421.8725294119999
 21
168.721882353
 31
0.0
  0
LINE
  5
721
330
20
100
AcDbEntity
  8
0
  6
Continuous
 62
     4
100
AcDbLine
 10
421.8725294119999
 20
168.721882353
 30
0.0
 11
420.972529412
 21
156.936
 31
0.0
  0
LINE
  5
722
330
20
100
AcDbEntity
  8
0
  6
Continuous
 62
     4
100
AcDbLine
 10
415.5389999999999
 20
187.936
 30
0.0
 11
421.039
 21
187.936
 31
0.0
  0
LINE
  5
723
330
20
100
AcDbEntity
  8
0
  6
Continuous
 62
     4
100
AcDbLine
 10
421.039
 20
187.936
 30
0.0
 11
421.039
 21
181.236
 31
0.0
  0
LINE
  5
724
330
20
100
AcDbEntity
  8
0
  6
Continuous
 62
     4
100
AcDbLine
 10
415.5389999999999
 20
187.936
 30
0.0
 11
410.0389999999999
 21
187.936
 31
0.0
  0
LINE
  5
725
330
20
100
AcDbEntity
  8
0
  6
Continuous
 62
     4
100
AcDbLine
 10
410.0389999999999
 20
187.936
 30
0.0
 11
410.0389999999999
 21
181.236
 31
0.0
  0
LINE
  5
726
330
20
100
AcDbEntity
  8
0
  6
Continuous
 62
     4
100
AcDbLine
 10
415.5389999999999
 20
178.936
 30
0.0
 11
419.5389999999999
 21
178.936
 31
0.0
  0
LINE
  5
727
330
20
100
AcDbEntity
  8
0
  6
Continuous
 62
     4
100
AcDbLine
 10
419.5389999999999
 20
178.936
 30
0.0
 11
419.5389999999999
 21
187.936
 31
0.0
  0
LINE
  5
728
330
20
100
AcDbEntity
  8
0
  6
Continuous
 62
     4
100
AcDbLine
 10
415.5389999999999
 20
178.936
 30
0.0
 11
411.5389999999999
 21
178.936
 31
0.0
  0
LINE
  5
729
330
20
100
AcDbEntity
  8
0
  6
Continuous
 62
     4
100
AcDbLine
 10
411.5389999999999
 20
178.936
 30
0.0
 11
411.5389999999999
 21
187.936
 31
0.0
  0
LINE
  5
72A
330
20
100
AcDbEntity
  8
0
  6
Continuous
 62
     4
100
AcDbLine
 10
159.489
 20
370.936
 30
0.0
 11
159.489
 21
86.93600000000001
 31
0.0
  0
LINE
  5
72B
330
20
100
AcDbEntity
  8
0
  6
Continuous
 62
     4
100
AcDbLine
 10
127.189
 20
370.936
 30
0.0
 11
127.189
 21
86.93600000000001
 31
0.0
  0
LWPOLYLINE
  5
72C
330
20
100
AcDbEntity
  8
0
  6
Continuous
 62
     4
100
AcDbPolyline
 90
        3
 70
     0
 43
0.0
 10
314.474882353
 20
496.077529412
 10
314.124882353
 20
495.477529412
 10
302.339
 20
494.5775294119999
  0
LINE
  5
731
330
20
100
AcDbEntity
  8
0
  6
Continuous
 62
     4
100
AcDbLine
 10
314.474882353
 20
482.210470588
 30
0.0
 11
314.124882353
 21
482.810470588
 31
0.0
  0
LINE
  5
732
330
20
100
AcDbEntity
  8
0
  6
Continuous
 62
     4
100
AcDbLine
 10
314.124882353
 20
482.810470588
 30
0.0
 11
302.339
 21
483.710470588
 31
0.0
  0
LINE
  5
733
330
20
100
AcDbEntity
  8
0
  6
Continuous
 62
     4
100
AcDbLine
 10
343.749
 20
489.144
 30
0.0
 11
343.749
 21
483.8189999999999
 31
0.0
  0
LINE
  5
734
330
20
100
AcDbEntity
  8
0
  6
Continuous
 62
     4
100
AcDbLine
 10
341.749
 20
482.8765
 30
0.0
 11
341.749
 21
489.144
 31
0.0
  0
LINE
  5
735
330
20
100
AcDbEntity
  8
0
  6
Continuous
 62
     4
100
AcDbLine
 10
343.749
 20
489.144
 30
0.0
 11
343.749
 21
494.469
 31
0.0
  0
LINE
  5
736
330
20
100
AcDbEntity
  8
0
  6
Continuous
 62
     4
100
AcDbLine
 10
341.749
 20
495.4114999999999
 30
0.0
 11
341.749
 21
489.144
 31
0.0
  0
LINE
  5
737
330
20
100
AcDbEntity
  8
0
  6
Continuous
 62
     4
100
AcDbLine
 10
341.749
 20
482.8765
 30
0.0
 11
343.749
 21
483.8189999999999
 31
0.0
  0
LINE
  5
738
330
20
100
AcDbEntity
  8
0
  6
Continuous
 62
     4
100
AcDbLine
 10
341.749
 20
495.4114999999999
 30
0.0
 11
343.749
 21
494.469
 31
0.0
  0
LINE
  5
739
330
20
100
AcDbEntity
  8
0
  6
Continuous
 62
     4
100
AcDbLine
 10
353.129
 20
489.144
 30
0.0
 11
353.129
 21
494.469
 31
0.0
  0
LINE
  5
73A
330
20
100
AcDbEntity
  8
0
  6
Continuous
 62
     4
100
AcDbLine
 10
355.129
 20
495.4114999999999
 30
0.0
 11
355.129
 21
489.144
 31
0.0
  0
LINE
  5
73B
330
20
100
AcDbEntity
  8
0
  6
Continuous
 62
     4
100
AcDbLine
 10
353.129
 20
489.144
 30
0.0
 11
353.129
 21
483.8189999999999
 31
0.0
  0
LINE
  5
73C
330
20
100
AcDbEntity
  8
0
  6
Continuous
 62
     4
100
AcDbLine
 10
355.129
 20
482.8765
 30
0.0
 11
355.129
 21
489.144
 31
0.0
  0
LINE
  5
73D
330
20
100
AcDbEntity
  8
0
  6
Continuous
 62
     4
100
AcDbLine
 10
355.129
 20
495.4114999999999
 30
0.0
 11
353.129
 21
494.469
 31
0.0
  0
LINE
  5
73E
330
20
100
AcDbEntity
  8
0
  6
Continuous
 62
     4
100
AcDbLine
 10
355.129
 20
482.8765
 30
0.0
 11
353.129
 21
483.8189999999999
 31
0.0
  0
LWPOLYLINE
  5
73F
330
20
100
AcDbEntity
  8
0
  6
Continuous
 62
     4
100
AcDbPolyline
 90
        3
 70
     0
 43
0.0
 10
365.539
 20
495.7239999999999
 10
364.538102439
 20
494.8127219509999
 10
364.538102439
 20
489.144
  0
LINE
  5
744
330
20
100
AcDbEntity
  8
0
  6
Continuous
 62
     4
100
AcDbLine
 10
364.538102439
 20
494.8127219509999
 30
0.0
 11
353.129
 21
494.469
 31
0.0
  0
LWPOLYLINE
  5
745
330
20
100
AcDbEntity
  8
0
  6
Continuous
 62
     4
100
AcDbPolyline
 90
        3
 70
     0
 43
0.0
 10
365.539
 20
482.5639999999999
 10
364.538102439
 20
483.4752780489999
 10
364.538102439
 20
489.144
  0
LINE
  5
74A
330
20
100
AcDbEntity
  8
0
  6
Continuous
 62
     4
100
AcDbLine
 10
364.538102439
 20
483.4752780489999
 30
0.0
 11
353.129
 21
483.8189999999999
 31
0.0
  0
LINE
  5
74B
330
20
100
AcDbEntity
  8
0
  6
Continuous
 62
     4
100
AcDbLine
 10
365.539
 20
495.7239999999999
 30
0.0
 11
355.129
 21
495.4114999999999
 31
0.0
  0
LINE
  5
74C
330
20
100
AcDbEntity
  8
0
  6
Continuous
 62
     4
100
AcDbLine
 10
365.539
 20
482.5639999999999
 30
0.0
 11
355.129
 21
482.8765
 31
0.0
  0
LWPOLYLINE
  5
74D
330
20
100
AcDbEntity
  8
0
  6
Continuous
 62
     4
100
AcDbPolyline
 90
        3
 70
     0
 43
0.0
 10
331.339
 20
482.5639999999999
 10
332.339897561
 20
483.4752780489999
 10
332.339897561
 20
489.144
  0
LINE
  5
752
330
20
100
AcDbEntity
  8
0
  6
Continuous
 62
     4
100
AcDbLine
 10
332.339897561
 20
483.4752780489999
 30
0.0
 11
343.749
 21
483.8189999999999
 31
0.0
  0
LWPOLYLINE
  5
753
330
20
100
AcDbEntity
  8
0
  6
Continuous
 62
     4
100
AcDbPolyline
 90
        3
 70
     0
 43
0.0
 10
331.339
 20
495.7239999999999
 10
332.339897561
 20
494.8127219509999
 10
332.339897561
 20
489.144
  0
LINE
  5
758
330
20
100
AcDbEntity
  8
0
  6
Continuous
 62
     4
100
AcDbLine
 10
332.339897561
 20
494.8127219509999
 30
0.0
 11
343.749
 21
494.469
 31
0.0
  0
LINE
  5
759
330
20
100
AcDbEntity
  8
0
  6
Continuous
 62
     4
100
AcDbLine
 10
331.339
 20
482.5639999999999
 30
0.0
 11
341.749
 21
482.8765
 31
0.0
  0
LINE
  5
75A
330
20
100
AcDbEntity
  8
0
  6
Continuous
 62
     4
100
AcDbLine
 10
331.339
 20
495.7239999999999
 30
0.0
 11
341.749
 21
495.4114999999999
 31
0.0
  0
LINE
  5
75B
330
20
100
AcDbEntity
  8
0
  6
Continuous
 62
     4
100
AcDbLine
 10
337.339
 20
485.144
 30
0.0
 11
326.839
 21
485.144
 31
0.0
  0
LINE
  5
75C
330
20
100
AcDbEntity
  8
0
  6
Continuous
 62
     4
100
AcDbLine
 10
337.339
 20
493.144
 30
0.0
 11
326.839
 21
493.144
 31
0.0
  0
LINE
  5
75D
330
20
100
AcDbEntity
  8
0
  6
Continuous
 62
     4
100
AcDbLine
 10
327.439
 20
495.064153812
 30
0.0
 11
326.839
 21
495.3598295059999
 31
0.0
  0
LINE
  5
75E
330
20
100
AcDbEntity
  8
0
  6
Continuous
 62
     4
100
AcDbLine
 10
337.339
 20
494.754763351
 30
0.0
 11
327.439
 21
495.064153812
 31
0.0
  0
LINE
  5
75F
330
20
100
AcDbEntity
  8
0
  6
Continuous
 62
     4
100
AcDbLine
 10
327.439
 20
483.223846188
 30
0.0
 11
326.839
 21
482.928170494
 31
0.0
  0
LINE
  5
760
330
20
100
AcDbEntity
  8
0
  6
Continuous
 62
     4
100
AcDbLine
 10
337.339
 20
483.533236649
 30
0.0
 11
327.439
 21
483.223846188
 31
0.0
  0
LINE
  5
761
330
20
100
AcDbEntity
  8
0
  6
Continuous
 62
     4
100
AcDbLine
 10
384.539
 20
485.144
 30
0.0
 11
376.539
 21
485.144
 31
0.0
  0
LINE
  5
762
330
20
100
AcDbEntity
  8
0
  6
Continuous
 62
     4
100
AcDbLine
 10
359.539
 20
485.144
 30
0.0
 11
376.539
 21
485.144
 31
0.0
  0
LINE
  5
763
330
20
100
AcDbEntity
  8
0
  6
Continuous
 62
     4
100
AcDbLine
 10
384.539
 20
493.144
 30
0.0
 11
376.539
 21
493.144
 31
0.0
  0
LINE
  5
764
330
20
100
AcDbEntity
  8
0
  6
Continuous
 62
     4
100
AcDbLine
 10
359.539
 20
493.144
 30
0.0
 11
376.539
 21
493.144
 31
0.0
  0
LINE
  5
765
330
20
100
AcDbEntity
  8
0
  6
Continuous
 62
     4
100
AcDbLine
 10
383.639
 20
495.064153812
 30
0.0
 11
381.539
 21
496.09901874
 31
0.0
  0
LINE
  5
766
330
20
100
AcDbEntity
  8
0
  6
Continuous
 62
     4
100
AcDbLine
 10
384.539
 20
495.0360274059999
 30
0.0
 11
383.639
 21
495.064153812
 31
0.0
  0
LINE
  5
767
330
20
100
AcDbEntity
  8
0
  6
Continuous
 62
     4
100
AcDbLine
 10
383.639
 20
483.223846188
 30
0.0
 11
381.539
 21
482.18898126
 31
0.0
  0
LINE
  5
768
330
20
100
AcDbEntity
  8
0
  6
Continuous
 62
     4
100
AcDbLine
 10
384.539
 20
483.251972594
 30
0.0
 11
383.639
 21
483.223846188
 31
0.0
  0
LINE
  5
769
330
20
100
AcDbEntity
  8
0
  6
Continuous
 62
     4
100
AcDbLine
 10
369.439
 20
483.223846188
 30
0.0
 11
371.539
 21
482.18898126
 31
0.0
  0
LINE
  5
76A
330
20
100
AcDbEntity
  8
0
  6
Continuous
 62
     4
100
AcDbLine
 10
359.539
 20
483.533236649
 30
0.0
 11
369.439
 21
483.223846188
 31
0.0
  0
LINE
  5
76B
330
20
100
AcDbEntity
  8
0
  6
Continuous
 62
     4
100
AcDbLine
 10
369.439
 20
495.064153812
 30
0.0
 11
371.539
 21
496.09901874
 31
0.0
  0
LINE
  5
76C
330
20
100
AcDbEntity
  8
0
  6
Continuous
 62
     4
100
AcDbLine
 10
359.539
 20
494.754763351
 30
0.0
 11
369.439
 21
495.064153812
 31
0.0
  0
TEXT
  5
76D
330
20
100
AcDbEntity
  8
2
  6
Continuous
 62
     4
100
AcDbText
 10
119.439
 20
541.2759999999999
 30
0.6
 40
10.0
  1
ＧＭＦ－２－Ｎ２ＣＶ１
  7
KANJI0
100
AcDbText
  0
ENDSEC
  0
SECTION
  2
OBJECTS
  0
DICTIONARY
  5
C
330
0
100
AcDbDictionary
281
     1
  3
ACAD_COLOR
350
1B
  3
ACAD_GROUP
350
D
  3
ACAD_LAYOUT
350
19
  3
ACAD_MATERIAL
350
1A
  3
ACAD_MLINESTYLE
350
16
  3
ACAD_PLOTSETTINGS
350
18
  3
ACAD_PLOTSTYLENAME
350
E
  3
ACDBHEADERROUNDTRIPXREC
350
774
  3
AcDbVariableDictionary
350
770
  0
DICTIONARY
  5
1B
102
{ACAD_REACTORS
330
C
102
}
330
C
100
AcDbDictionary
281
     1
  0
DICTIONARY
  5
D
102
{ACAD_REACTORS
330
C
102
}
330
C
100
AcDbDictionary
281
     1
  0
DICTIONARY
  5
19
102
{ACAD_REACTORS
330
C
102
}
330
C
100
AcDbDictionary
281
     1
  3
Model
350
23
  3
レイアウト1
350
1F
  0
DICTIONARY
  5
1A
102
{ACAD_REACTORS
330
C
102
}
330
C
100
AcDbDictionary
281
     1
  0
DICTIONARY
  5
16
102
{ACAD_REACTORS
330
C
102
}
330
C
100
AcDbDictionary
281
     1
  3
Standard
350
17
  0
DICTIONARY
  5
18
102
{ACAD_REACTORS
330
C
102
}
330
C
100
AcDbDictionary
281
     1
  0
ACDBDICTIONARYWDFLT
  5
E
102
{ACAD_REACTORS
330
C
102
}
330
C
100
AcDbDictionary
281
     1
  3
Normal
350
F
100
AcDbDictionaryWithDefault
340
F
  0
DICTIONARY
  5
774
102
{ACAD_REACTORS
330
C
102
}
330
C
100
AcDbDictionary
281
     1
  3
COLORDICT
350
776
  3
MATERIALDICT
350
775
  0
DICTIONARY
  5
770
102
{ACAD_REACTORS
330
C
102
}
330
C
100
AcDbDictionary
281
     1
  3
DIMASSOC
350
771
  3
PROJECTNAME
350
772
  0
LAYOUT
  5
23
102
{ACAD_XDICTIONARY
360
779
102
}
102
{ACAD_REACTORS
330
19
102
}
330
19
100
AcDbPlotSettings
  1

  2
C:\Documents and Settings\sakata\Application Data\Autodesk\AutoCAD 2004\R16.0\jpn\plotters\Default Windows System Printer.pc3
  4

  6

 40
0.0
 41
0.0
 42
0.0
 43
0.0
 44
0.0
 45
0.0
 46
0.0
 47
0.0
 48
0.0
 49
0.0
140
0.0
141
0.0
142
1.0
143
1.0
 70
  1712
 72
     0
 73
     0
 74
     0
  7

 75
     0
147
1.0
148
0.0
149
0.0
100
AcDbLayout
  1
Model
 70
     1
 71
     0
 10
0.0
 20
0.0
 11
12.0
 21
9.0
 12
0.0
 22
0.0
 32
0.0
 14
0.0
 24
0.0
 34
0.0
 15
0.0
 25
0.0
 35
0.0
146
0.0
 13
0.0
 23
0.0
 33
0.0
 16
1.0
 26
0.0
 36
0.0
 17
0.0
 27
1.0
 37
0.0
 76
     0
330
20
  0
LAYOUT
  5
1F
102
{ACAD_XDICTIONARY
360
777
102
}
102
{ACAD_REACTORS
330
19
102
}
330
19
100
AcDbPlotSettings
  1

  2
C:\Documents and Settings\sakata\Application Data\Autodesk\AutoCAD 2004\R16.0\jpn\plotters\Default Windows System Printer.pc3
  4

  6

 40
0.0
 41
0.0
 42
0.0
 43
0.0
 44
0.0
 45
0.0
 46
0.0
 47
0.0
 48
0.0
 49
0.0
140
0.0
141
0.0
142
1.0
143
1.0
 70
   688
 72
     0
 73
     0
 74
     5
  7

 75
    16
147
1.0
148
0.0
149
0.0
100
AcDbLayout
  1
レイアウト1
 70
     1
 71
     1
 10
0.0
 20
0.0
 11
12.0
 21
9.0
 12
0.0
 22
0.0
 32
0.0
 14
1.000000000000000E+20
 24
1.000000000000000E+20
 34
1.000000000000000E+20
 15
-1.000000000000000E+20
 25
-1.000000000000000E+20
 35
-1.000000000000000E+20
146
0.0
 13
0.0
 23
0.0
 33
0.0
 16
1.0
 26
0.0
 36
0.0
 17
0.0
 27
1.0
 37
0.0
 76
     0
330
1C
  0
MLINESTYLE
  5
17
102
{ACAD_REACTORS
330
16
102
}
330
16
100
AcDbMlineStyle
  2
STANDARD
 70
     0
  3

 62
   256
 51
90.0
 52
90.0
 71
     2
 49
0.5
 62
   256
  6
BYLAYER
 49
-0.5
 62
   256
  6
BYLAYER
  0
ACDBPLACEHOLDER
  5
F
102
{ACAD_REACTORS
330
E
102
}
330
E
  0
XRECORD
  5
776
102
{ACAD_REACTORS
330
774
102
}
330
774
100
AcDbXrecord
280
     1
340
1B
  0
XRECORD
  5
775
102
{ACAD_REACTORS
330
774
102
}
330
774
100
AcDbXrecord
280
     1
340
1A
  0
DICTIONARYVAR
  5
771
102
{ACAD_REACTORS
330
770
102
}
330
770
100
DictionaryVariables
280
     0
  1
1
  0
DICTIONARYVAR
  5
772
102
{ACAD_REACTORS
330
770
102
}
330
770
100
DictionaryVariables
280
     0
  1

  0
DICTIONARY
  5
779
330
23
100
AcDbDictionary
280
     1
281
     1
  3
ACAD_XREC_ROUNDTRIP
360
77A
  0
DICTIONARY
  5
777
330
1F
100
AcDbDictionary
280
     1
281
     1
  3
ACAD_XREC_ROUNDTRIP
360
778
  0
XRECORD
  5
77A
102
{ACAD_REACTORS
330
779
102
}
330
779
100
AcDbXrecord
280
     1
102
SHADEPLOT
 70
     0
102
SHADEPLOTRESLEVEL
 70
     2
102
SHADEPLOTCUSTOMDPI
 70
   300
  0
XRECORD
  5
778
102
{ACAD_REACTORS
330
777
102
}
330
777
100
AcDbXrecord
280
     1
102
SHADEPLOT
 70
     0
102
SHADEPLOTRESLEVEL
 70
     2
102
SHADEPLOTCUSTOMDPI
 70
   300
  0
ENDSEC
  0
EOF
