  0
SECTION
  2
HEADER
  9
$ACADVER
  1
AC1015
  9
$ACADMAINTVER
 70
    20
  9
$DWGCODEPAGE
  3
ANSI_932
  9
$INSBASE
 10
0.0
 20
0.0
 30
0.0
  9
$EXTMIN
 10
47.61172629195698
 20
53.59588727075129
 30
-0.0015258207003583
  9
$EXTMAX
 10
469.7091992363673
 20
372.1719369573659
 30
2.250671424263479
  9
$LIMMIN
 10
0.0
 20
0.0
  9
$LIMMAX
 10
594.0
 20
420.0
  9
$ORTHOMODE
 70
     0
  9
$REGENMODE
 70
     1
  9
$FILLMODE
 70
     1
  9
$QTEXTMODE
 70
     0
  9
$MIRRTEXT
 70
     0
  9
$LTSCALE
 40
1.0
  9
$ATTMODE
 70
     1
  9
$TEXTSIZE
 40
0.2
  9
$TRACEWID
 40
0.05
  9
$TEXTSTYLE
  7
STANDARD
  9
$CLAYER
  8
0
  9
$CELTYPE
  6
CONTINUOUS
  9
$CECOLOR
 62
   256
  9
$CELTSCALE
 40
1.0
  9
$DISPSILH
 70
     0
  9
$DIMSCALE
 40
1.0
  9
$DIMASZ
 40
0.18
  9
$DIMEXO
 40
0.0625
  9
$DIMDLI
 40
0.38
  9
$DIMRND
 40
0.0
  9
$DIMDLE
 40
0.0
  9
$DIMEXE
 40
0.18
  9
$DIMTP
 40
0.0
  9
$DIMTM
 40
0.0
  9
$DIMTXT
 40
0.18
  9
$DIMCEN
 40
0.09
  9
$DIMTSZ
 40
0.0
  9
$DIMTOL
 70
     0
  9
$DIMLIM
 70
     0
  9
$DIMTIH
 70
     1
  9
$DIMTOH
 70
     1
  9
$DIMSE1
 70
     0
  9
$DIMSE2
 70
     0
  9
$DIMTAD
 70
     0
  9
$DIMZIN
 70
     0
  9
$DIMBLK
  1

  9
$DIMASO
 70
     1
  9
$DIMSHO
 70
     1
  9
$DIMPOST
  1

  9
$DIMAPOST
  1

  9
$DIMALT
 70
     0
  9
$DIMALTD
 70
     2
  9
$DIMALTF
 40
25.4
  9
$DIMLFAC
 40
1.0
  9
$DIMTOFL
 70
     0
  9
$DIMTVP
 40
0.0
  9
$DIMTIX
 70
     0
  9
$DIMSOXD
 70
     0
  9
$DIMSAH
 70
     0
  9
$DIMBLK1
  1

  9
$DIMBLK2
  1

  9
$DIMSTYLE
  2
Standard
  9
$DIMCLRD
 70
     0
  9
$DIMCLRE
 70
     0
  9
$DIMCLRT
 70
     0
  9
$DIMTFAC
 40
1.0
  9
$DIMGAP
 40
0.09
  9
$DIMJUST
 70
     0
  9
$DIMSD1
 70
     0
  9
$DIMSD2
 70
     0
  9
$DIMTOLJ
 70
     1
  9
$DIMTZIN
 70
     0
  9
$DIMALTZ
 70
     0
  9
$DIMALTTZ
 70
     0
  9
$DIMUPT
 70
     0
  9
$DIMDEC
 70
     4
  9
$DIMTDEC
 70
     4
  9
$DIMALTU
 70
     2
  9
$DIMALTTD
 70
     2
  9
$DIMTXSTY
  7
STANDARD
  9
$DIMAUNIT
 70
     0
  9
$DIMADEC
 70
     0
  9
$DIMALTRND
 40
0.0
  9
$DIMAZIN
 70
     0
  9
$DIMDSEP
 70
    46
  9
$DIMATFIT
 70
     3
  9
$DIMFRAC
 70
     0
  9
$DIMLDRBLK
  1

  9
$DIMLUNIT
 70
     2
  9
$DIMLWD
 70
    -2
  9
$DIMLWE
 70
    -2
  9
$DIMTMOVE
 70
     0
  9
$LUNITS
 70
     2
  9
$LUPREC
 70
     4
  9
$SKETCHINC
 40
0.1
  9
$FILLETRAD
 40
0.0
  9
$AUNITS
 70
     0
  9
$AUPREC
 70
     0
  9
$MENU
  1
.
  9
$ELEVATION
 40
0.0
  9
$PELEVATION
 40
0.0
  9
$THICKNESS
 40
0.0
  9
$LIMCHECK
 70
     0
  9
$CHAMFERA
 40
0.0
  9
$CHAMFERB
 40
0.0
  9
$CHAMFERC
 40
0.0
  9
$CHAMFERD
 40
0.0
  9
$SKPOLY
 70
     0
  9
$TDCREATE
 40
2453592.391355972
  9
$TDUCREATE
 40
2453592.016355973
  9
$TDUPDATE
 40
2453592.391782407
  9
$TDUUPDATE
 40
2453592.016782407
  9
$TDINDWG
 40
0.0004266088
  9
$TDUSRTIMER
 40
0.0004266088
  9
$USRTIMER
 70
     1
  9
$ANGBASE
 50
0.0
  9
$ANGDIR
 70
     0
  9
$PDMODE
 70
     0
  9
$PDSIZE
 40
0.0
  9
$PLINEWID
 40
0.0
  9
$SPLFRAME
 70
     0
  9
$SPLINETYPE
 70
     6
  9
$SPLINESEGS
 70
     8
  9
$HANDSEED
  5
379
  9
$SURFTAB1
 70
     6
  9
$SURFTAB2
 70
     6
  9
$SURFTYPE
 70
     6
  9
$SURFU
 70
     6
  9
$SURFV
 70
     6
  9
$UCSBASE
  2

  9
$UCSNAME
  2

  9
$UCSORG
 10
0.0
 20
0.0
 30
0.0
  9
$UCSXDIR
 10
1.0
 20
0.0
 30
0.0
  9
$UCSYDIR
 10
0.0
 20
1.0
 30
0.0
  9
$UCSORTHOREF
  2

  9
$UCSORTHOVIEW
 70
     0
  9
$UCSORGTOP
 10
0.0
 20
0.0
 30
0.0
  9
$UCSORGBOTTOM
 10
0.0
 20
0.0
 30
0.0
  9
$UCSORGLEFT
 10
0.0
 20
0.0
 30
0.0
  9
$UCSORGRIGHT
 10
0.0
 20
0.0
 30
0.0
  9
$UCSORGFRONT
 10
0.0
 20
0.0
 30
0.0
  9
$UCSORGBACK
 10
0.0
 20
0.0
 30
0.0
  9
$PUCSBASE
  2

  9
$PUCSNAME
  2

  9
$PUCSORG
 10
0.0
 20
0.0
 30
0.0
  9
$PUCSXDIR
 10
1.0
 20
0.0
 30
0.0
  9
$PUCSYDIR
 10
0.0
 20
1.0
 30
0.0
  9
$PUCSORTHOREF
  2

  9
$PUCSORTHOVIEW
 70
     0
  9
$PUCSORGTOP
 10
0.0
 20
0.0
 30
0.0
  9
$PUCSORGBOTTOM
 10
0.0
 20
0.0
 30
0.0
  9
$PUCSORGLEFT
 10
0.0
 20
0.0
 30
0.0
  9
$PUCSORGRIGHT
 10
0.0
 20
0.0
 30
0.0
  9
$PUCSORGFRONT
 10
0.0
 20
0.0
 30
0.0
  9
$PUCSORGBACK
 10
0.0
 20
0.0
 30
0.0
  9
$USERI1
 70
     0
  9
$USERI2
 70
     0
  9
$USERI3
 70
     0
  9
$USERI4
 70
     0
  9
$USERI5
 70
     0
  9
$USERR1
 40
0.0
  9
$USERR2
 40
0.0
  9
$USERR3
 40
0.0
  9
$USERR4
 40
0.0
  9
$USERR5
 40
0.0
  9
$WORLDVIEW
 70
     1
  9
$SHADEDGE
 70
     3
  9
$SHADEDIF
 70
    70
  9
$TILEMODE
 70
     1
  9
$MAXACTVP
 70
    64
  9
$PINSBASE
 10
0.0
 20
0.0
 30
0.0
  9
$PLIMCHECK
 70
     0
  9
$PEXTMIN
 10
1.000000000000000E+20
 20
1.000000000000000E+20
 30
1.000000000000000E+20
  9
$PEXTMAX
 10
-1.000000000000000E+20
 20
-1.000000000000000E+20
 30
-1.000000000000000E+20
  9
$PLIMMIN
 10
0.0
 20
0.0
  9
$PLIMMAX
 10
12.0
 20
9.0
  9
$UNITMODE
 70
     0
  9
$VISRETAIN
 70
     1
  9
$PLINEGEN
 70
     0
  9
$PSLTSCALE
 70
     1
  9
$TREEDEPTH
 70
  3020
  9
$CMLSTYLE
  2
Standard
  9
$CMLJUST
 70
     0
  9
$CMLSCALE
 40
1.0
  9
$PROXYGRAPHICS
 70
     1
  9
$MEASUREMENT
 70
     0
  9
$CELWEIGHT
370
    -1
  9
$ENDCAPS
280
     0
  9
$JOINSTYLE
280
     0
  9
$LWDISPLAY
290
     0
  9
$INSUNITS
 70
     0
  9
$HYPERLINKBASE
  1

  9
$STYLESHEET
  1

  9
$XEDIT
290
     1
  9
$CEPSNTYPE
380
     0
  9
$PSTYLEMODE
290
     1
  9
$FINGERPRINTGUID
  2
{D354B5E3-0BCB-4E01-9FA5-B2C9630067D7}
  9
$VERSIONGUID
  2
{D58487CA-C82E-49A2-8FDE-AEDCF9FD7743}
  9
$EXTNAMES
290
     1
  9
$PSVPSCALE
 40
0.0
  9
$OLESTARTUP
290
     0
  0
ENDSEC
  0
SECTION
  2
CLASSES
  0
CLASS
  1
ACDBDICTIONARYWDFLT
  2
AcDbDictionaryWithDefault
  3
ObjectDBX Classes
 90
        0
280
     0
281
     0
  0
CLASS
  1
DICTIONARYVAR
  2
AcDbDictionaryVar
  3
ObjectDBX Classes
 90
        0
280
     0
281
     0
  0
CLASS
  1
ACDBPLACEHOLDER
  2
AcDbPlaceHolder
  3
ObjectDBX Classes
 90
        0
280
     0
281
     0
  0
CLASS
  1
LAYOUT
  2
AcDbLayout
  3
ObjectDBX Classes
 90
        0
280
     0
281
     0
  0
ENDSEC
  0
SECTION
  2
TABLES
  0
TABLE
  2
VPORT
  5
8
330
0
100
AcDbSymbolTable
 70
     2
  0
VPORT
  5
371
330
8
100
AcDbSymbolTableRecord
100
AcDbViewportTableRecord
  2
*Active
 70
     0
 10
0.0
 20
0.0
 11
1.0
 21
1.0
 12
296.9999999999999
 22
210.0
 13
0.0
 23
0.0
 14
1.0
 24
1.0
 15
0.0
 25
0.0
 16
0.0
 26
0.0
 36
1.0
 17
0.0
 27
0.0
 37
0.0
 40
424.7279549718574
 41
1.785714285714285
 42
50.0
 43
0.0
 44
0.0
 50
0.0
 51
0.0
 71
     0
 72
   100
 73
     1
 74
     1
 75
     0
 76
     0
 77
     0
 78
     0
281
     0
 65
     1
110
0.0
120
0.0
130
0.0
111
1.0
121
0.0
131
0.0
112
0.0
122
1.0
132
0.0
 79
     0
146
0.0
  0
ENDTAB
  0
TABLE
  2
LTYPE
  5
5
330
0
100
AcDbSymbolTable
 70
     2
  0
LTYPE
  5
13
330
5
100
AcDbSymbolTableRecord
100
AcDbLinetypeTableRecord
  2
ByBlock
 70
     0
  3

 72
    65
 73
     0
 40
0.0
  0
LTYPE
  5
14
330
5
100
AcDbSymbolTableRecord
100
AcDbLinetypeTableRecord
  2
ByLayer
 70
     0
  3

 72
    65
 73
     0
 40
0.0
  0
LTYPE
  5
15
330
5
100
AcDbSymbolTableRecord
100
AcDbLinetypeTableRecord
  2
CONTINUOUS
 70
     0
  3
Solid line
 72
    65
 73
     0
 40
0.0
  0
LTYPE
  5
24
330
5
100
AcDbSymbolTableRecord
100
AcDbLinetypeTableRecord
  2
LTYPE1
 70
     0
  3
CENTER
 72
    65
 73
     4
 40
15.0
 49
10.5
 74
     0
 49
-1.5
 74
     0
 49
1.5
 74
     0
 49
-1.5
 74
     0
  0
ENDTAB
  0
TABLE
  2
LAYER
  5
2
330
0
100
AcDbSymbolTable
 70
   128
  0
LAYER
  5
10
330
2
100
AcDbSymbolTableRecord
100
AcDbLayerTableRecord
  2
0
 70
     0
 62
     7
  6
CONTINUOUS
370
    -3
390
F
  0
LAYER
  5
25
330
2
100
AcDbSymbolTableRecord
100
AcDbLayerTableRecord
  2
2
 70
     0
 62
     7
  6
CONTINUOUS
370
    -3
390
F
  0
LAYER
  5
26
330
2
100
AcDbSymbolTableRecord
100
AcDbLayerTableRecord
  2
3
 70
     0
 62
     7
  6
CONTINUOUS
370
    -3
390
F
  0
ENDTAB
  0
TABLE
  2
STYLE
  5
3
330
0
100
AcDbSymbolTable
 70
    10
  0
STYLE
  5
11
330
3
100
AcDbSymbolTableRecord
100
AcDbTextStyleTableRecord
  2
STANDARD
 70
     0
 40
0.0
 41
1.0
 50
0.0
 71
     0
 42
0.2
  3
txt
  4

  0
STYLE
  5
A4
330
3
100
AcDbSymbolTableRecord
100
AcDbTextStyleTableRecord
  2
KANJI0
 70
     0
 40
2.7
 41
0.87037037
 50
0.0
 71
     0
 42
2.7
  3

  4
bigfont
  0
STYLE
  5
A5
330
3
100
AcDbSymbolTableRecord
100
AcDbTextStyleTableRecord
  2
KANJI1
 70
     0
 40
2.64
 41
1.0
 50
0.0
 71
     0
 42
2.64
  3

  4
bigfont
  0
STYLE
  5
A6
330
3
100
AcDbSymbolTableRecord
100
AcDbTextStyleTableRecord
  2
KANJI2
 70
     0
 40
8.039999999999999
 41
0.7174129350000001
 50
0.0
 71
     0
 42
8.039999999999999
  3

  4
bigfont
  0
STYLE
  5
A7
330
3
100
AcDbSymbolTableRecord
100
AcDbTextStyleTableRecord
  2
KANJI3
 70
     0
 40
4.0
 41
1.0
 50
0.0
 71
     0
 42
4.0
  3

  4
bigfont
  0
STYLE
  5
A8
330
3
100
AcDbSymbolTableRecord
100
AcDbTextStyleTableRecord
  2
KANJI4
 70
     0
 40
5.0
 41
1.0
 50
0.0
 71
     0
 42
5.0
  3

  4
bigfont
  0
STYLE
  5
A9
330
3
100
AcDbSymbolTableRecord
100
AcDbTextStyleTableRecord
  2
KANJI5
 70
     4
 40
5.099999999999999
 41
1.0
 50
0.0
 71
     0
 42
5.099999999999999
  3

  4
bigfont
  0
STYLE
  5
AA
330
3
100
AcDbSymbolTableRecord
100
AcDbTextStyleTableRecord
  2
KANJI6
 70
     0
 40
4.599999999999999
 41
1.0
 50
0.0
 71
     0
 42
4.599999999999999
  3

  4
bigfont
  0
STYLE
  5
AB
330
3
100
AcDbSymbolTableRecord
100
AcDbTextStyleTableRecord
  2
KANJI7
 70
     0
 40
4.9
 41
1.0
 50
0.0
 71
     0
 42
4.9
  3

  4
bigfont
  0
STYLE
  5
AC
330
3
100
AcDbSymbolTableRecord
100
AcDbTextStyleTableRecord
  2
KANJI8
 70
     0
 40
6.08
 41
0.954887218
 50
0.0
 71
     0
 42
6.08
  3

  4
bigfont
  0
ENDTAB
  0
TABLE
  2
VIEW
  5
6
330
0
100
AcDbSymbolTable
 70
     0
  0
ENDTAB
  0
TABLE
  2
UCS
  5
7
330
0
100
AcDbSymbolTable
 70
     0
  0
ENDTAB
  0
TABLE
  2
APPID
  5
9
330
0
100
AcDbSymbolTable
 70
     1
  0
APPID
  5
12
330
9
100
AcDbSymbolTableRecord
100
AcDbRegAppTableRecord
  2
ACAD
 70
     0
  0
ENDTAB
  0
TABLE
  2
DIMSTYLE
  5
A
330
0
100
AcDbSymbolTable
 70
     1
100
AcDbDimStyleTable
 71
     0
  0
DIMSTYLE
105
36C
330
A
100
AcDbSymbolTableRecord
100
AcDbDimStyleTableRecord
  2
Standard
 70
     0
340
11
  0
ENDTAB
  0
TABLE
  2
BLOCK_RECORD
  5
1
330
0
100
AcDbSymbolTable
 70
     0
  0
BLOCK_RECORD
  5
20
330
1
100
AcDbSymbolTableRecord
100
AcDbBlockTableRecord
  2
*Model_Space
340
23
  0
BLOCK_RECORD
  5
1C
330
1
100
AcDbSymbolTableRecord
100
AcDbBlockTableRecord
  2
*Paper_Space
340
1F
  0
ENDTAB
  0
ENDSEC
  0
SECTION
  2
BLOCKS
  0
BLOCK
  5
21
330
20
100
AcDbEntity
  8
0
100
AcDbBlockBegin
  2
*Model_Space
 70
     0
 10
0.0
 20
0.0
 30
0.0
  3
*Model_Space
  1

  0
ENDBLK
  5
22
330
20
100
AcDbEntity
  8
0
100
AcDbBlockEnd
  0
BLOCK
  5
1D
330
1C
100
AcDbEntity
 67
     1
  8
0
100
AcDbBlockBegin
  2
*Paper_Space
 70
     0
 10
0.0
 20
0.0
 30
0.0
  3
*Paper_Space
  1

  0
ENDBLK
  5
1E
330
1C
100
AcDbEntity
 67
     1
  8
0
100
AcDbBlockEnd
  0
ENDSEC
  0
SECTION
  2
ENTITIES
  0
LINE
  5
B0
330
20
100
AcDbEntity
  8
0
  6
Continuous
 62
     3
100
AcDbLine
 10
363.656707
 20
129.910765
 30
0.0
 11
363.656707
 21
229.910765
 31
0.0
  0
ARC
  5
B1
330
20
100
AcDbEntity
  8
0
  6
Continuous
 62
     3
100
AcDbCircle
 10
320.656707
 20
179.910765
 30
0.0
 40
100.0
100
AcDbArc
 50
150.0
 51
210.0
  0
LINE
  5
B2
330
20
100
AcDbEntity
  8
0
  6
Continuous
 62
     3
100
AcDbLine
 10
363.656707
 20
229.910765
 30
0.0
 11
234.054166622
 21
229.910765
 31
0.0
  0
LINE
  5
B3
330
20
100
AcDbEntity
  8
0
  6
Continuous
 62
     3
100
AcDbLine
 10
234.054166622
 20
129.910765
 30
0.0
 11
363.656707
 21
129.910765
 31
0.0
  0
ARC
  5
B4
330
20
100
AcDbEntity
  8
0
  6
Continuous
 62
     3
100
AcDbCircle
 10
320.656707
 20
179.910765
 30
0.0
 40
99.0
100
AcDbArc
 50
150.333579967
 51
209.666420033
  0
LINE
  5
B5
330
20
100
AcDbEntity
  8
0
  6
Continuous
 62
     3
100
AcDbLine
 10
360.656707
 20
228.910765
 30
0.0
 11
234.63345433
 21
228.910765
 31
0.0
  0
LWPOLYLINE
  5
B6
330
20
100
AcDbEntity
  8
0
  6
Continuous
 62
     3
100
AcDbPolyline
 90
        3
 70
     0
 43
0.0
 10
234.63345433
 20
130.910765
 10
360.656707
 20
130.910765
 10
360.656707
 20
228.910765
  0
LINE
  5
BB
330
20
100
AcDbEntity
  8
0
  6
Continuous
 62
     3
100
AcDbLine
 10
363.656707
 20
222.410765
 30
0.0
 11
378.656707
 21
222.410765
 31
0.0
  0
LINE
  5
BC
330
20
100
AcDbEntity
  8
0
  6
Continuous
 62
     3
100
AcDbLine
 10
378.656707
 20
222.410765
 30
0.0
 11
378.656707
 21
220.410765
 31
0.0
  0
LINE
  5
BD
330
20
100
AcDbEntity
  8
0
  6
Continuous
 62
     3
100
AcDbLine
 10
378.656707
 20
220.410765
 30
0.0
 11
374.656707
 21
220.410765
 31
0.0
  0
LINE
  5
BE
330
20
100
AcDbEntity
  8
0
  6
Continuous
 62
     3
100
AcDbLine
 10
374.656707
 20
220.410765
 30
0.0
 11
374.656707
 21
211.260765
 31
0.0
  0
LINE
  5
BF
330
20
100
AcDbEntity
  8
0
  6
Continuous
 62
     3
100
AcDbLine
 10
374.656707
 20
211.260765
 30
0.0
 11
378.656707
 21
211.260765
 31
0.0
  0
LINE
  5
C0
330
20
100
AcDbEntity
  8
0
  6
Continuous
 62
     3
100
AcDbLine
 10
378.656707
 20
211.260765
 30
0.0
 11
378.656707
 21
209.260765
 31
0.0
  0
LINE
  5
C1
330
20
100
AcDbEntity
  8
0
  6
Continuous
 62
     3
100
AcDbLine
 10
378.656707
 20
209.260765
 30
0.0
 11
374.656707
 21
209.260765
 31
0.0
  0
LINE
  5
C2
330
20
100
AcDbEntity
  8
0
  6
Continuous
 62
     3
100
AcDbLine
 10
374.656707
 20
209.260765
 30
0.0
 11
374.656707
 21
201.110765
 31
0.0
  0
LINE
  5
C3
330
20
100
AcDbEntity
  8
0
  6
Continuous
 62
     3
100
AcDbLine
 10
374.656707
 20
201.110765
 30
0.0
 11
378.656707
 21
201.110765
 31
0.0
  0
LINE
  5
C4
330
20
100
AcDbEntity
  8
0
  6
Continuous
 62
     3
100
AcDbLine
 10
378.656707
 20
201.110765
 30
0.0
 11
378.656707
 21
199.110765
 31
0.0
  0
LINE
  5
C5
330
20
100
AcDbEntity
  8
0
  6
Continuous
 62
     3
100
AcDbLine
 10
378.656707
 20
199.110765
 30
0.0
 11
374.656707
 21
199.110765
 31
0.0
  0
LINE
  5
C6
330
20
100
AcDbEntity
  8
0
  6
Continuous
 62
     3
100
AcDbLine
 10
374.656707
 20
199.110765
 30
0.0
 11
374.656707
 21
190.960765
 31
0.0
  0
LINE
  5
C7
330
20
100
AcDbEntity
  8
0
  6
Continuous
 62
     3
100
AcDbLine
 10
374.656707
 20
190.960765
 30
0.0
 11
378.656707
 21
190.960765
 31
0.0
  0
LINE
  5
C8
330
20
100
AcDbEntity
  8
0
  6
Continuous
 62
     3
100
AcDbLine
 10
378.656707
 20
190.960765
 30
0.0
 11
378.656707
 21
188.960765
 31
0.0
  0
LINE
  5
C9
330
20
100
AcDbEntity
  8
0
  6
Continuous
 62
     3
100
AcDbLine
 10
378.656707
 20
188.960765
 30
0.0
 11
374.656707
 21
188.960765
 31
0.0
  0
LINE
  5
CA
330
20
100
AcDbEntity
  8
0
  6
Continuous
 62
     3
100
AcDbLine
 10
374.656707
 20
188.960765
 30
0.0
 11
374.656707
 21
180.810765
 31
0.0
  0
LINE
  5
CB
330
20
100
AcDbEntity
  8
0
  6
Continuous
 62
     3
100
AcDbLine
 10
374.656707
 20
180.810765
 30
0.0
 11
378.656707
 21
180.810765
 31
0.0
  0
LINE
  5
CC
330
20
100
AcDbEntity
  8
0
  6
Continuous
 62
     3
100
AcDbLine
 10
378.656707
 20
180.810765
 30
0.0
 11
378.656707
 21
178.810765
 31
0.0
  0
LINE
  5
CD
330
20
100
AcDbEntity
  8
0
  6
Continuous
 62
     3
100
AcDbLine
 10
378.656707
 20
178.810765
 30
0.0
 11
374.656707
 21
178.810765
 31
0.0
  0
LINE
  5
CE
330
20
100
AcDbEntity
  8
0
  6
Continuous
 62
     3
100
AcDbLine
 10
374.656707
 20
178.810765
 30
0.0
 11
374.656707
 21
170.660765
 31
0.0
  0
LINE
  5
CF
330
20
100
AcDbEntity
  8
0
  6
Continuous
 62
     3
100
AcDbLine
 10
374.656707
 20
170.660765
 30
0.0
 11
378.656707
 21
170.660765
 31
0.0
  0
LINE
  5
D0
330
20
100
AcDbEntity
  8
0
  6
Continuous
 62
     3
100
AcDbLine
 10
378.656707
 20
170.660765
 30
0.0
 11
378.656707
 21
168.660765
 31
0.0
  0
LINE
  5
D1
330
20
100
AcDbEntity
  8
0
  6
Continuous
 62
     3
100
AcDbLine
 10
378.656707
 20
168.660765
 30
0.0
 11
374.656707
 21
168.660765
 31
0.0
  0
LINE
  5
D2
330
20
100
AcDbEntity
  8
0
  6
Continuous
 62
     3
100
AcDbLine
 10
374.656707
 20
168.660765
 30
0.0
 11
374.656707
 21
160.510765
 31
0.0
  0
LINE
  5
D3
330
20
100
AcDbEntity
  8
0
  6
Continuous
 62
     3
100
AcDbLine
 10
374.656707
 20
160.510765
 30
0.0
 11
378.656707
 21
160.510765
 31
0.0
  0
LINE
  5
D4
330
20
100
AcDbEntity
  8
0
  6
Continuous
 62
     3
100
AcDbLine
 10
378.656707
 20
160.510765
 30
0.0
 11
378.656707
 21
158.510765
 31
0.0
  0
LINE
  5
D5
330
20
100
AcDbEntity
  8
0
  6
Continuous
 62
     3
100
AcDbLine
 10
378.656707
 20
158.510765
 30
0.0
 11
374.656707
 21
158.510765
 31
0.0
  0
LINE
  5
D6
330
20
100
AcDbEntity
  8
0
  6
Continuous
 62
     3
100
AcDbLine
 10
374.656707
 20
158.510765
 30
0.0
 11
374.656707
 21
150.360765
 31
0.0
  0
LINE
  5
D7
330
20
100
AcDbEntity
  8
0
  6
Continuous
 62
     3
100
AcDbLine
 10
374.656707
 20
150.360765
 30
0.0
 11
378.656707
 21
150.360765
 31
0.0
  0
LINE
  5
D8
330
20
100
AcDbEntity
  8
0
  6
Continuous
 62
     3
100
AcDbLine
 10
378.656707
 20
150.360765
 30
0.0
 11
378.656707
 21
148.360765
 31
0.0
  0
LINE
  5
D9
330
20
100
AcDbEntity
  8
0
  6
Continuous
 62
     3
100
AcDbLine
 10
378.656707
 20
148.360765
 30
0.0
 11
374.656707
 21
148.360765
 31
0.0
  0
LINE
  5
DA
330
20
100
AcDbEntity
  8
0
  6
Continuous
 62
     3
100
AcDbLine
 10
374.656707
 20
148.360765
 30
0.0
 11
374.656707
 21
139.210765
 31
0.0
  0
LINE
  5
DB
330
20
100
AcDbEntity
  8
0
  6
Continuous
 62
     3
100
AcDbLine
 10
374.656707
 20
139.210765
 30
0.0
 11
378.656707
 21
139.210765
 31
0.0
  0
LINE
  5
DC
330
20
100
AcDbEntity
  8
0
  6
Continuous
 62
     3
100
AcDbLine
 10
378.656707
 20
139.210765
 30
0.0
 11
378.656707
 21
137.210765
 31
0.0
  0
LINE
  5
DD
330
20
100
AcDbEntity
  8
0
  6
Continuous
 62
     3
100
AcDbLine
 10
378.656707
 20
137.210765
 30
0.0
 11
363.656707
 21
137.210765
 31
0.0
  0
CIRCLE
  5
DE
330
20
100
AcDbEntity
  8
0
  6
Continuous
 62
     3
100
AcDbCircle
 10
265.656707
 20
222.910765
 30
0.0
 40
1.199999999999999
  0
CIRCLE
  5
DF
330
20
100
AcDbEntity
  8
0
  6
Continuous
 62
     3
100
AcDbCircle
 10
277.656707
 20
222.910765
 30
0.0
 40
2.0
  0
CIRCLE
  5
E0
330
20
100
AcDbEntity
  8
0
  6
Continuous
 62
     3
100
AcDbCircle
 10
265.656707
 20
136.910765
 30
0.0
 40
1.199999999999999
  0
CIRCLE
  5
E1
330
20
100
AcDbEntity
  8
0
  6
Continuous
 62
     3
100
AcDbCircle
 10
277.656707
 20
136.910765
 30
0.0
 40
2.0
  0
CIRCLE
  5
E2
330
20
100
AcDbEntity
  8
0
  6
Continuous
 62
     3
100
AcDbCircle
 10
353.956707
 20
223.210765
 30
0.0
 40
2.799999999999999
  0
LINE
  5
E3
330
20
100
AcDbEntity
  8
0
  6
Continuous
 62
     3
100
AcDbLine
 10
352.156707
 20
222.910765
 30
0.0
 11
352.156707
 21
223.510765
 31
0.0
  0
LINE
  5
E4
330
20
100
AcDbEntity
  8
0
  6
Continuous
 62
     3
100
AcDbLine
 10
353.656707
 20
225.010765
 30
0.0
 11
354.256707
 21
225.010765
 31
0.0
  0
LINE
  5
E5
330
20
100
AcDbEntity
  8
0
  6
Continuous
 62
     3
100
AcDbLine
 10
355.756707
 20
222.910765
 30
0.0
 11
355.756707
 21
223.510765
 31
0.0
  0
LINE
  5
E6
330
20
100
AcDbEntity
  8
0
  6
Continuous
 62
     3
100
AcDbLine
 10
353.656707
 20
221.410765
 30
0.0
 11
354.256707
 21
221.410765
 31
0.0
  0
LINE
  5
E7
330
20
100
AcDbEntity
  8
0
  6
Continuous
 62
     3
100
AcDbLine
 10
355.756707
 20
222.910765
 30
0.0
 11
355.156707
 21
222.910765
 31
0.0
  0
LINE
  5
E8
330
20
100
AcDbEntity
  8
0
  6
Continuous
 62
     3
100
AcDbLine
 10
354.256707
 20
221.410765
 30
0.0
 11
354.256707
 21
222.010765
 31
0.0
  0
LINE
  5
E9
330
20
100
AcDbEntity
  8
0
  6
Continuous
 62
     3
100
AcDbLine
 10
353.656707
 20
221.410765
 30
0.0
 11
353.656707
 21
222.010765
 31
0.0
  0
LINE
  5
EA
330
20
100
AcDbEntity
  8
0
  6
Continuous
 62
     3
100
AcDbLine
 10
352.156707
 20
223.510765
 30
0.0
 11
352.756707
 21
223.510765
 31
0.0
  0
LINE
  5
EB
330
20
100
AcDbEntity
  8
0
  6
Continuous
 62
     3
100
AcDbLine
 10
354.256707
 20
225.010765
 30
0.0
 11
354.256707
 21
224.410765
 31
0.0
  0
LINE
  5
EC
330
20
100
AcDbEntity
  8
0
  6
Continuous
 62
     3
100
AcDbLine
 10
355.756707
 20
222.910765
 30
0.0
 11
355.156707
 21
222.910765
 31
0.0
  0
LINE
  5
ED
330
20
100
AcDbEntity
  8
0
  6
Continuous
 62
     3
100
AcDbLine
 10
355.756707
 20
223.510765
 30
0.0
 11
355.156707
 21
223.510765
 31
0.0
  0
LINE
  5
EE
330
20
100
AcDbEntity
  8
0
  6
Continuous
 62
     3
100
AcDbLine
 10
353.656707
 20
225.010765
 30
0.0
 11
353.656707
 21
224.410765
 31
0.0
  0
LINE
  5
EF
330
20
100
AcDbEntity
  8
0
  6
Continuous
 62
     3
100
AcDbLine
 10
352.156707
 20
222.910765
 30
0.0
 11
352.756707
 21
222.910765
 31
0.0
  0
ARC
  5
F0
330
20
100
AcDbEntity
  8
0
  6
Continuous
 62
     3
100
AcDbCircle
 10
355.056707
 20
224.310765
 30
0.0
 40
0.8
100
AcDbArc
 50
172.3
 51
277.7
  0
ARC
  5
F1
330
20
100
AcDbEntity
  8
0
  6
Continuous
 62
     3
100
AcDbCircle
 10
352.856707
 20
224.310765
 30
0.0
 40
0.8
100
AcDbArc
 50
262.3
 51
7.699999999999999
  0
ARC
  5
F2
330
20
100
AcDbEntity
  8
0
  6
Continuous
 62
     3
100
AcDbCircle
 10
352.856707
 20
222.110765
 30
0.0
 40
0.8
100
AcDbArc
 50
352.3
 51
97.70000000000001
  0
ARC
  5
F3
330
20
100
AcDbEntity
  8
0
  6
Continuous
 62
     3
100
AcDbCircle
 10
355.056707
 20
222.110765
 30
0.0
 40
0.8
100
AcDbArc
 50
82.3
 51
187.7
  0
CIRCLE
  5
F4
330
20
100
AcDbEntity
  8
0
  6
Continuous
 62
     3
100
AcDbCircle
 10
353.956707
 20
136.610765
 30
0.0
 40
2.799999999999999
  0
LINE
  5
F5
330
20
100
AcDbEntity
  8
0
  6
Continuous
 62
     3
100
AcDbLine
 10
352.156707
 20
136.910765
 30
0.0
 11
352.156707
 21
136.310765
 31
0.0
  0
LINE
  5
F6
330
20
100
AcDbEntity
  8
0
  6
Continuous
 62
     3
100
AcDbLine
 10
353.656707
 20
134.810765
 30
0.0
 11
354.256707
 21
134.810765
 31
0.0
  0
LINE
  5
F7
330
20
100
AcDbEntity
  8
0
  6
Continuous
 62
     3
100
AcDbLine
 10
355.756707
 20
136.910765
 30
0.0
 11
355.756707
 21
136.310765
 31
0.0
  0
LINE
  5
F8
330
20
100
AcDbEntity
  8
0
  6
Continuous
 62
     3
100
AcDbLine
 10
353.656707
 20
138.410765
 30
0.0
 11
354.256707
 21
138.410765
 31
0.0
  0
LINE
  5
F9
330
20
100
AcDbEntity
  8
0
  6
Continuous
 62
     3
100
AcDbLine
 10
355.756707
 20
136.910765
 30
0.0
 11
355.156707
 21
136.910765
 31
0.0
  0
LINE
  5
FA
330
20
100
AcDbEntity
  8
0
  6
Continuous
 62
     3
100
AcDbLine
 10
354.256707
 20
138.410765
 30
0.0
 11
354.256707
 21
137.810765
 31
0.0
  0
LINE
  5
FB
330
20
100
AcDbEntity
  8
0
  6
Continuous
 62
     3
100
AcDbLine
 10
353.656707
 20
138.410765
 30
0.0
 11
353.656707
 21
137.810765
 31
0.0
  0
LINE
  5
FC
330
20
100
AcDbEntity
  8
0
  6
Continuous
 62
     3
100
AcDbLine
 10
352.156707
 20
136.310765
 30
0.0
 11
352.756707
 21
136.310765
 31
0.0
  0
LINE
  5
FD
330
20
100
AcDbEntity
  8
0
  6
Continuous
 62
     3
100
AcDbLine
 10
354.256707
 20
134.810765
 30
0.0
 11
354.256707
 21
135.410765
 31
0.0
  0
LINE
  5
FE
330
20
100
AcDbEntity
  8
0
  6
Continuous
 62
     3
100
AcDbLine
 10
355.756707
 20
136.910765
 30
0.0
 11
355.156707
 21
136.910765
 31
0.0
  0
LINE
  5
FF
330
20
100
AcDbEntity
  8
0
  6
Continuous
 62
     3
100
AcDbLine
 10
355.756707
 20
136.310765
 30
0.0
 11
355.156707
 21
136.310765
 31
0.0
  0
LINE
  5
100
330
20
100
AcDbEntity
  8
0
  6
Continuous
 62
     3
100
AcDbLine
 10
353.656707
 20
134.810765
 30
0.0
 11
353.656707
 21
135.410765
 31
0.0
  0
LINE
  5
101
330
20
100
AcDbEntity
  8
0
  6
Continuous
 62
     3
100
AcDbLine
 10
352.156707
 20
136.910765
 30
0.0
 11
352.756707
 21
136.910765
 31
0.0
  0
ARC
  5
102
330
20
100
AcDbEntity
  8
0
  6
Continuous
 62
     3
100
AcDbCircle
 10
355.056707
 20
135.510765
 30
0.0
 40
0.8
100
AcDbArc
 50
82.3
 51
187.7
  0
ARC
  5
103
330
20
100
AcDbEntity
  8
0
  6
Continuous
 62
     3
100
AcDbCircle
 10
352.856707
 20
135.510765
 30
0.0
 40
0.8
100
AcDbArc
 50
352.3
 51
97.70000000000001
  0
ARC
  5
104
330
20
100
AcDbEntity
  8
0
  6
Continuous
 62
     3
100
AcDbCircle
 10
352.856707
 20
137.710765
 30
0.0
 40
0.8
100
AcDbArc
 50
262.3
 51
7.699999999999999
  0
ARC
  5
105
330
20
100
AcDbEntity
  8
0
  6
Continuous
 62
     3
100
AcDbCircle
 10
355.056707
 20
137.710765
 30
0.0
 40
0.8
100
AcDbArc
 50
172.3
 51
277.7
  0
CIRCLE
  5
106
330
20
100
AcDbEntity
  8
0
  6
Continuous
 62
     3
100
AcDbCircle
 10
246.756707
 20
223.210765
 30
0.0
 40
2.799999999999999
  0
LINE
  5
107
330
20
100
AcDbEntity
  8
0
  6
Continuous
 62
     3
100
AcDbLine
 10
244.956707
 20
222.910765
 30
0.0
 11
244.956707
 21
223.510765
 31
0.0
  0
LINE
  5
108
330
20
100
AcDbEntity
  8
0
  6
Continuous
 62
     3
100
AcDbLine
 10
246.456707
 20
225.010765
 30
0.0
 11
247.056707
 21
225.010765
 31
0.0
  0
LINE
  5
109
330
20
100
AcDbEntity
  8
0
  6
Continuous
 62
     3
100
AcDbLine
 10
248.556707
 20
222.910765
 30
0.0
 11
248.556707
 21
223.510765
 31
0.0
  0
LINE
  5
10A
330
20
100
AcDbEntity
  8
0
  6
Continuous
 62
     3
100
AcDbLine
 10
246.456707
 20
221.410765
 30
0.0
 11
247.056707
 21
221.410765
 31
0.0
  0
LINE
  5
10B
330
20
100
AcDbEntity
  8
0
  6
Continuous
 62
     3
100
AcDbLine
 10
248.556707
 20
222.910765
 30
0.0
 11
247.956707
 21
222.910765
 31
0.0
  0
LINE
  5
10C
330
20
100
AcDbEntity
  8
0
  6
Continuous
 62
     3
100
AcDbLine
 10
247.056707
 20
221.410765
 30
0.0
 11
247.056707
 21
222.010765
 31
0.0
  0
LINE
  5
10D
330
20
100
AcDbEntity
  8
0
  6
Continuous
 62
     3
100
AcDbLine
 10
246.456707
 20
221.410765
 30
0.0
 11
246.456707
 21
222.010765
 31
0.0
  0
LINE
  5
10E
330
20
100
AcDbEntity
  8
0
  6
Continuous
 62
     3
100
AcDbLine
 10
244.956707
 20
223.510765
 30
0.0
 11
245.556707
 21
223.510765
 31
0.0
  0
LINE
  5
10F
330
20
100
AcDbEntity
  8
0
  6
Continuous
 62
     3
100
AcDbLine
 10
247.056707
 20
225.010765
 30
0.0
 11
247.056707
 21
224.410765
 31
0.0
  0
LINE
  5
110
330
20
100
AcDbEntity
  8
0
  6
Continuous
 62
     3
100
AcDbLine
 10
248.556707
 20
222.910765
 30
0.0
 11
247.956707
 21
222.910765
 31
0.0
  0
LINE
  5
111
330
20
100
AcDbEntity
  8
0
  6
Continuous
 62
     3
100
AcDbLine
 10
248.556707
 20
223.510765
 30
0.0
 11
247.956707
 21
223.510765
 31
0.0
  0
LINE
  5
112
330
20
100
AcDbEntity
  8
0
  6
Continuous
 62
     3
100
AcDbLine
 10
246.456707
 20
225.010765
 30
0.0
 11
246.456707
 21
224.410765
 31
0.0
  0
LINE
  5
113
330
20
100
AcDbEntity
  8
0
  6
Continuous
 62
     3
100
AcDbLine
 10
244.956707
 20
222.910765
 30
0.0
 11
245.556707
 21
222.910765
 31
0.0
  0
ARC
  5
114
330
20
100
AcDbEntity
  8
0
  6
Continuous
 62
     3
100
AcDbCircle
 10
247.856707
 20
224.310765
 30
0.0
 40
0.8
100
AcDbArc
 50
172.3
 51
277.7
  0
ARC
  5
115
330
20
100
AcDbEntity
  8
0
  6
Continuous
 62
     3
100
AcDbCircle
 10
245.656707
 20
224.310765
 30
0.0
 40
0.8
100
AcDbArc
 50
262.3
 51
7.699999999999999
  0
ARC
  5
116
330
20
100
AcDbEntity
  8
0
  6
Continuous
 62
     3
100
AcDbCircle
 10
245.656707
 20
222.110765
 30
0.0
 40
0.8
100
AcDbArc
 50
352.3
 51
97.70000000000001
  0
ARC
  5
117
330
20
100
AcDbEntity
  8
0
  6
Continuous
 62
     3
100
AcDbCircle
 10
247.856707
 20
222.110765
 30
0.0
 40
0.8
100
AcDbArc
 50
82.3
 51
187.7
  0
CIRCLE
  5
118
330
20
100
AcDbEntity
  8
0
  6
Continuous
 62
     3
100
AcDbCircle
 10
246.756707
 20
136.610765
 30
0.0
 40
2.799999999999999
  0
LINE
  5
119
330
20
100
AcDbEntity
  8
0
  6
Continuous
 62
     3
100
AcDbLine
 10
244.956707
 20
136.910765
 30
0.0
 11
244.956707
 21
136.310765
 31
0.0
  0
LINE
  5
11A
330
20
100
AcDbEntity
  8
0
  6
Continuous
 62
     3
100
AcDbLine
 10
246.456707
 20
134.810765
 30
0.0
 11
247.056707
 21
134.810765
 31
0.0
  0
LINE
  5
11B
330
20
100
AcDbEntity
  8
0
  6
Continuous
 62
     3
100
AcDbLine
 10
248.556707
 20
136.910765
 30
0.0
 11
248.556707
 21
136.310765
 31
0.0
  0
LINE
  5
11C
330
20
100
AcDbEntity
  8
0
  6
Continuous
 62
     3
100
AcDbLine
 10
246.456707
 20
138.410765
 30
0.0
 11
247.056707
 21
138.410765
 31
0.0
  0
LINE
  5
11D
330
20
100
AcDbEntity
  8
0
  6
Continuous
 62
     3
100
AcDbLine
 10
248.556707
 20
136.910765
 30
0.0
 11
247.956707
 21
136.910765
 31
0.0
  0
LINE
  5
11E
330
20
100
AcDbEntity
  8
0
  6
Continuous
 62
     3
100
AcDbLine
 10
247.056707
 20
138.410765
 30
0.0
 11
247.056707
 21
137.810765
 31
0.0
  0
LINE
  5
11F
330
20
100
AcDbEntity
  8
0
  6
Continuous
 62
     3
100
AcDbLine
 10
246.456707
 20
138.410765
 30
0.0
 11
246.456707
 21
137.810765
 31
0.0
  0
LINE
  5
120
330
20
100
AcDbEntity
  8
0
  6
Continuous
 62
     3
100
AcDbLine
 10
244.956707
 20
136.310765
 30
0.0
 11
245.556707
 21
136.310765
 31
0.0
  0
LINE
  5
121
330
20
100
AcDbEntity
  8
0
  6
Continuous
 62
     3
100
AcDbLine
 10
247.056707
 20
134.810765
 30
0.0
 11
247.056707
 21
135.410765
 31
0.0
  0
LINE
  5
122
330
20
100
AcDbEntity
  8
0
  6
Continuous
 62
     3
100
AcDbLine
 10
248.556707
 20
136.910765
 30
0.0
 11
247.956707
 21
136.910765
 31
0.0
  0
LINE
  5
123
330
20
100
AcDbEntity
  8
0
  6
Continuous
 62
     3
100
AcDbLine
 10
248.556707
 20
136.310765
 30
0.0
 11
247.956707
 21
136.310765
 31
0.0
  0
LINE
  5
124
330
20
100
AcDbEntity
  8
0
  6
Continuous
 62
     3
100
AcDbLine
 10
246.456707
 20
134.810765
 30
0.0
 11
246.456707
 21
135.410765
 31
0.0
  0
LINE
  5
125
330
20
100
AcDbEntity
  8
0
  6
Continuous
 62
     3
100
AcDbLine
 10
244.956707
 20
136.910765
 30
0.0
 11
245.556707
 21
136.910765
 31
0.0
  0
ARC
  5
126
330
20
100
AcDbEntity
  8
0
  6
Continuous
 62
     3
100
AcDbCircle
 10
247.856707
 20
135.510765
 30
0.0
 40
0.8
100
AcDbArc
 50
82.3
 51
187.7
  0
ARC
  5
127
330
20
100
AcDbEntity
  8
0
  6
Continuous
 62
     3
100
AcDbCircle
 10
245.656707
 20
135.510765
 30
0.0
 40
0.8
100
AcDbArc
 50
352.3
 51
97.70000000000001
  0
ARC
  5
128
330
20
100
AcDbEntity
  8
0
  6
Continuous
 62
     3
100
AcDbCircle
 10
245.656707
 20
137.710765
 30
0.0
 40
0.8
100
AcDbArc
 50
262.3
 51
7.699999999999999
  0
ARC
  5
129
330
20
100
AcDbEntity
  8
0
  6
Continuous
 62
     3
100
AcDbCircle
 10
247.856707
 20
137.710765
 30
0.0
 40
0.8
100
AcDbArc
 50
172.3
 51
277.7
  0
LINE
  5
12A
330
20
100
AcDbEntity
  8
2
  6
Continuous
 62
     3
100
AcDbLine
 10
238.656707
 20
244.910765
 30
0.0
 11
239.856707
 21
244.910765
 31
0.0
  0
LINE
  5
12B
330
20
100
AcDbEntity
  8
2
  6
Continuous
 62
     3
100
AcDbLine
 10
238.656707
 20
229.910765
 30
0.0
 11
278.656707
 21
229.910765
 31
0.0
  0
LINE
  5
12C
330
20
100
AcDbEntity
  8
2
  6
Continuous
 62
     3
100
AcDbLine
 10
278.656707
 20
229.910765
 30
0.0
 11
278.656707
 21
231.110765
 31
0.0
  0
LINE
  5
12D
330
20
100
AcDbEntity
  8
2
  6
Continuous
 62
     3
100
AcDbLine
 10
278.656707
 20
231.110765
 30
0.0
 11
239.856707
 21
231.110765
 31
0.0
  0
LINE
  5
12E
330
20
100
AcDbEntity
  8
2
  6
Continuous
 62
     3
100
AcDbLine
 10
239.856707
 20
231.110765
 30
0.0
 11
239.856707
 21
244.910765
 31
0.0
  0
LINE
  5
12F
330
20
100
AcDbEntity
  8
2
  6
Continuous
 62
     3
100
AcDbLine
 10
238.656707
 20
229.910765
 30
0.0
 11
238.656707
 21
244.910765
 31
0.0
  0
LINE
  5
130
330
20
100
AcDbEntity
  8
2
  6
Continuous
 62
     3
100
AcDbLine
 10
238.656707
 20
114.910765
 30
0.0
 11
239.856707
 21
114.910765
 31
0.0
  0
LINE
  5
131
330
20
100
AcDbEntity
  8
2
  6
Continuous
 62
     3
100
AcDbLine
 10
238.656707
 20
129.910765
 30
0.0
 11
278.656707
 21
129.910765
 31
0.0
  0
LINE
  5
132
330
20
100
AcDbEntity
  8
2
  6
Continuous
 62
     3
100
AcDbLine
 10
278.656707
 20
129.910765
 30
0.0
 11
278.656707
 21
128.710765
 31
0.0
  0
LINE
  5
133
330
20
100
AcDbEntity
  8
2
  6
Continuous
 62
     3
100
AcDbLine
 10
278.656707
 20
128.710765
 30
0.0
 11
239.856707
 21
128.710765
 31
0.0
  0
LINE
  5
134
330
20
100
AcDbEntity
  8
2
  6
Continuous
 62
     3
100
AcDbLine
 10
239.856707
 20
128.710765
 30
0.0
 11
239.856707
 21
114.910765
 31
0.0
  0
LINE
  5
135
330
20
100
AcDbEntity
  8
2
  6
Continuous
 62
     3
100
AcDbLine
 10
238.656707
 20
129.910765
 30
0.0
 11
238.656707
 21
114.910765
 31
0.0
  0
LWPOLYLINE
  5
136
330
20
100
AcDbEntity
  8
0
  6
Continuous
 62
     3
100
AcDbPolyline
 90
        4
 70
     1
 43
0.0
 10
147.756707
 20
129.910765
 10
177.756707
 20
129.910765
 10
177.756707
 20
229.910765
 10
147.756707
 20
229.910765
  0
LINE
  5
13C
330
20
100
AcDbEntity
  8
0
  6
Continuous
 62
     3
100
AcDbLine
 10
150.756707
 20
226.710765
 30
0.0
 11
175.756707
 21
226.710765
 31
0.0
  0
LINE
  5
13D
330
20
100
AcDbEntity
  8
0
  6
Continuous
 62
     3
100
AcDbLine
 10
154.556707
 20
224.610765
 30
0.0
 11
173.756707
 21
224.610765
 31
0.0
  0
LINE
  5
13E
330
20
100
AcDbEntity
  8
0
  6
Continuous
 62
     3
100
AcDbLine
 10
150.756707
 20
133.110765
 30
0.0
 11
175.756707
 21
133.110765
 31
0.0
  0
LINE
  5
13F
330
20
100
AcDbEntity
  8
0
  6
Continuous
 62
     3
100
AcDbLine
 10
154.556707
 20
135.2107649999999
 30
0.0
 11
173.756707
 21
135.2107649999999
 31
0.0
  0
LINE
  5
140
330
20
100
AcDbEntity
  8
0
  6
Continuous
 62
     3
100
AcDbLine
 10
150.756707
 20
133.110765
 30
0.0
 11
150.756707
 21
226.710765
 31
0.0
  0
LINE
  5
141
330
20
100
AcDbEntity
  8
0
  6
Continuous
 62
     3
100
AcDbLine
 10
173.756707
 20
224.610765
 30
0.0
 11
173.756707
 21
135.2107649999999
 31
0.0
  0
LINE
  5
142
330
20
100
AcDbEntity
  8
0
  6
Continuous
 62
     3
100
AcDbLine
 10
175.756707
 20
226.710765
 30
0.0
 11
175.756707
 21
133.110765
 31
0.0
  0
LINE
  5
143
330
20
100
AcDbEntity
  8
0
  6
Continuous
 62
     3
100
AcDbLine
 10
167.956707
 20
145.810765
 30
0.0
 11
167.956707
 21
216.710765
 31
0.0
  0
LINE
  5
144
330
20
100
AcDbEntity
  8
0
  6
Continuous
 62
     3
100
AcDbLine
 10
167.956707
 20
145.810765
 30
0.0
 11
162.456707
 21
145.810765
 31
0.0
  0
LINE
  5
145
330
20
100
AcDbEntity
  8
0
  6
Continuous
 62
     3
100
AcDbLine
 10
167.956707
 20
159.990765
 30
0.0
 11
162.456707
 21
159.990765
 31
0.0
  0
LINE
  5
146
330
20
100
AcDbEntity
  8
0
  6
Continuous
 62
     3
100
AcDbLine
 10
167.956707
 20
174.170765
 30
0.0
 11
162.456707
 21
174.170765
 31
0.0
  0
LINE
  5
147
330
20
100
AcDbEntity
  8
0
  6
Continuous
 62
     3
100
AcDbLine
 10
167.956707
 20
188.350765
 30
0.0
 11
162.456707
 21
188.350765
 31
0.0
  0
LINE
  5
148
330
20
100
AcDbEntity
  8
0
  6
Continuous
 62
     3
100
AcDbLine
 10
167.956707
 20
202.530765
 30
0.0
 11
162.456707
 21
202.530765
 31
0.0
  0
LINE
  5
149
330
20
100
AcDbEntity
  8
0
  6
Continuous
 62
     3
100
AcDbLine
 10
167.956707
 20
216.710765
 30
0.0
 11
162.456707
 21
216.710765
 31
0.0
  0
LINE
  5
14A
330
20
100
AcDbEntity
  8
0
  6
Continuous
 62
     3
100
AcDbLine
 10
167.956707
 20
152.900765
 30
0.0
 11
164.156707
 21
152.900765
 31
0.0
  0
LINE
  5
14B
330
20
100
AcDbEntity
  8
0
  6
Continuous
 62
     3
100
AcDbLine
 10
167.956707
 20
152.900765
 30
0.0
 11
164.156707
 21
152.900765
 31
0.0
  0
TEXT
  5
14C
330
20
100
AcDbEntity
  8
0
  6
Continuous
 62
     3
100
AcDbText
 10
157.156707
 20
158.510765
 30
0.0
 40
2.7
  1
２０
 41
0.87037037
  7
KANJI0
100
AcDbText
  0
TEXT
  5
14D
330
20
100
AcDbEntity
  8
0
  6
Continuous
 62
     3
100
AcDbText
 10
157.156707
 20
172.690765
 30
0.0
 40
2.7
  1
４０
 41
0.87037037
  7
KANJI0
100
AcDbText
  0
TEXT
  5
14E
330
20
100
AcDbEntity
  8
0
  6
Continuous
 62
     3
100
AcDbText
 10
157.156707
 20
186.8707649999999
 30
0.0
 40
2.7
  1
６０
 41
0.87037037
  7
KANJI0
100
AcDbText
  0
TEXT
  5
14F
330
20
100
AcDbEntity
  8
0
  6
Continuous
 62
     3
100
AcDbText
 10
157.156707
 20
201.050765
 30
0.0
 40
2.7
  1
８０
 41
0.87037037
  7
KANJI0
100
AcDbText
  0
TEXT
  5
150
330
20
100
AcDbEntity
  8
0
  6
Continuous
 62
     3
100
AcDbText
 10
154.956707
 20
215.230765
 30
0.0
 40
2.7
  1
１００
 41
0.87037037
  7
KANJI0
100
AcDbText
  0
TEXT
  5
151
330
20
100
AcDbEntity
  8
0
  6
Continuous
 62
     3
100
AcDbText
 10
159.056707
 20
144.330765
 30
0.0
 40
2.7
  1
０
 41
0.87037037
  7
KANJI0
100
AcDbText
  0
LINE
  5
152
330
20
100
AcDbEntity
  8
2
  6
Continuous
 62
     3
100
AcDbLine
 10
177.756707
 20
129.910765
 30
0.0
 11
147.756707
 21
129.910765
 31
0.0
  0
LINE
  5
153
330
20
100
AcDbEntity
  8
2
  6
Continuous
 62
     3
100
AcDbLine
 10
147.756707
 20
129.910765
 30
0.0
 11
147.756707
 21
114.910765
 31
0.0
  0
LINE
  5
154
330
20
100
AcDbEntity
  8
2
  6
Continuous
 62
     3
100
AcDbLine
 10
147.756707
 20
114.910765
 30
0.0
 11
177.756707
 21
114.910765
 31
0.0
  0
LINE
  5
155
330
20
100
AcDbEntity
  8
2
  6
Continuous
 62
     3
100
AcDbLine
 10
177.756707
 20
114.910765
 30
0.0
 11
177.756707
 21
129.910765
 31
0.0
  0
LINE
  5
156
330
20
100
AcDbEntity
  8
2
  6
Continuous
 62
     3
100
AcDbLine
 10
147.756707
 20
229.910765
 30
0.0
 11
177.756707
 21
229.910765
 31
0.0
  0
LINE
  5
157
330
20
100
AcDbEntity
  8
2
  6
Continuous
 62
     3
100
AcDbLine
 10
177.756707
 20
229.910765
 30
0.0
 11
177.756707
 21
244.910765
 31
0.0
  0
LINE
  5
158
330
20
100
AcDbEntity
  8
2
  6
Continuous
 62
     3
100
AcDbLine
 10
177.756707
 20
244.910765
 30
0.0
 11
147.756707
 21
244.910765
 31
0.0
  0
LINE
  5
159
330
20
100
AcDbEntity
  8
2
  6
Continuous
 62
     3
100
AcDbLine
 10
147.756707
 20
244.910765
 30
0.0
 11
147.756707
 21
229.910765
 31
0.0
  0
ARC
  5
15A
330
20
100
AcDbEntity
  8
2
  6
Continuous
 62
     3
100
AcDbCircle
 10
164.656707
 20
239.910765
 30
0.0
 40
2.0
100
AcDbArc
 50
269.999890717
 51
90.00010928299998
  0
ARC
  5
15B
330
20
100
AcDbEntity
  8
2
  6
Continuous
 62
     3
100
AcDbCircle
 10
160.656707
 20
239.910765
 30
0.0
 40
2.0
100
AcDbArc
 50
89.99989071700003
 51
270.000109283
  0
LINE
  5
15C
330
20
100
AcDbEntity
  8
2
  6
Continuous
 62
     3
100
AcDbLine
 10
164.656703185
 20
237.910765
 30
0.0
 11
160.656710815
 21
237.910765
 31
0.0
  0
LINE
  5
15D
330
20
100
AcDbEntity
  8
2
  6
Continuous
 62
     3
100
AcDbLine
 10
164.656703185
 20
241.910765
 30
0.0
 11
160.656710815
 21
241.910765
 31
0.0
  0
ARC
  5
15E
330
20
100
AcDbEntity
  8
2
  6
Continuous
 62
     3
100
AcDbCircle
 10
160.856707
 20
119.910765
 30
0.0
 40
2.0
100
AcDbArc
 50
89.99989071700003
 51
270.000109283
  0
ARC
  5
15F
330
20
100
AcDbEntity
  8
2
  6
Continuous
 62
     3
100
AcDbCircle
 10
164.856707
 20
119.910765
 30
0.0
 40
2.0
100
AcDbArc
 50
269.999890717
 51
90.00010928299998
  0
LINE
  5
160
330
20
100
AcDbEntity
  8
2
  6
Continuous
 62
     3
100
AcDbLine
 10
160.856710815
 20
121.9107649999999
 30
0.0
 11
164.856703185
 21
121.9107649999999
 31
0.0
  0
LINE
  5
161
330
20
100
AcDbEntity
  8
2
  6
Continuous
 62
     3
100
AcDbLine
 10
160.856710815
 20
117.910765
 30
0.0
 11
164.856703185
 21
117.910765
 31
0.0
  0
LINE
  5
162
330
20
100
AcDbEntity
  8
0
  6
Continuous
 62
     3
100
AcDbLine
 10
154.556707
 20
151.110765
 30
0.0
 11
154.556707
 21
224.610765
 31
0.0
  0
LINE
  5
163
330
20
100
AcDbEntity
  8
0
  6
Continuous
 62
     3
100
AcDbLine
 10
154.556707
 20
135.2107649999999
 30
0.0
 11
154.556707
 21
150.610765
 31
0.0
  0
LINE
  5
164
330
20
100
AcDbEntity
  8
0
  6
Continuous
 62
     3
100
AcDbLine
 10
98.056707
 20
179.910765
 30
0.0
 11
98.056707
 21
230.410765
 31
0.0
  0
LINE
  5
165
330
20
100
AcDbEntity
  8
0
  6
Continuous
 62
     3
100
AcDbLine
 10
98.056707
 20
230.410765
 30
0.0
 11
82.55670699999999
 21
230.410765
 31
0.0
  0
LINE
  5
166
330
20
100
AcDbEntity
  8
0
  6
Continuous
 62
     3
100
AcDbLine
 10
67.05670699999998
 20
179.910765
 30
0.0
 11
67.05670699999998
 21
230.410765
 31
0.0
  0
LINE
  5
167
330
20
100
AcDbEntity
  8
0
  6
Continuous
 62
     3
100
AcDbLine
 10
67.05670699999998
 20
230.410765
 30
0.0
 11
82.55670699999999
 21
230.410765
 31
0.0
  0
CIRCLE
  5
168
330
20
100
AcDbEntity
  8
0
  6
Continuous
 62
     3
100
AcDbCircle
 10
82.55670699999999
 20
239.910765
 30
0.0
 40
1.75
  0
LINE
  5
169
330
20
100
AcDbEntity
  8
0
  6
Continuous
 62
     3
100
AcDbLine
 10
98.056707
 20
179.910765
 30
0.0
 11
98.056707
 21
129.410765
 31
0.0
  0
LINE
  5
16A
330
20
100
AcDbEntity
  8
0
  6
Continuous
 62
     3
100
AcDbLine
 10
98.056707
 20
129.410765
 30
0.0
 11
82.55670699999999
 21
129.410765
 31
0.0
  0
LINE
  5
16B
330
20
100
AcDbEntity
  8
0
  6
Continuous
 62
     3
100
AcDbLine
 10
67.05670699999998
 20
179.910765
 30
0.0
 11
67.05670699999998
 21
129.410765
 31
0.0
  0
LINE
  5
16C
330
20
100
AcDbEntity
  8
0
  6
Continuous
 62
     3
100
AcDbLine
 10
67.05670699999998
 20
129.410765
 30
0.0
 11
82.55670699999999
 21
129.410765
 31
0.0
  0
CIRCLE
  5
16D
330
20
100
AcDbEntity
  8
0
  6
Continuous
 62
     3
100
AcDbCircle
 10
82.55670699999999
 20
119.910765
 30
0.0
 40
1.75
  0
LINE
  5
16E
330
20
100
AcDbEntity
  8
0
  6
Continuous
 62
     3
100
AcDbLine
 10
422.456707
 20
129.910765
 30
0.0
 11
452.456707
 21
129.910765
 31
0.0
  0
LWPOLYLINE
  5
16F
330
20
100
AcDbEntity
  8
0
  6
Continuous
 62
     3
100
AcDbPolyline
 90
        4
 70
     0
 43
0.0
 10
452.456707
 20
129.910765
 10
452.456707
 20
229.910765
 10
422.456707
 20
229.910765
 10
422.456707
 20
129.910765
  0
LINE
  5
175
330
20
100
AcDbEntity
  8
0
  6
Continuous
 62
     3
100
AcDbLine
 10
427.356707
 20
220.410765
 30
0.0
 11
436.156707
 21
220.410765
 31
0.0
  0
LINE
  5
176
330
20
100
AcDbEntity
  8
0
  6
Continuous
 62
     3
100
AcDbLine
 10
427.356707
 20
139.210765
 30
0.0
 11
436.156707
 21
139.210765
 31
0.0
  0
LINE
  5
177
330
20
100
AcDbEntity
  8
0
  6
Continuous
 62
     3
100
AcDbLine
 10
436.156707
 20
139.210765
 30
0.0
 11
436.156707
 21
179.810765
 31
0.0
  0
LINE
  5
178
330
20
100
AcDbEntity
  8
0
  6
Continuous
 62
     3
100
AcDbLine
 10
427.356707
 20
180.810765
 30
0.0
 11
436.156707
 21
180.810765
 31
0.0
  0
LINE
  5
179
330
20
100
AcDbEntity
  8
0
  6
Continuous
 62
     3
100
AcDbLine
 10
427.356707
 20
178.810765
 30
0.0
 11
436.156707
 21
178.810765
 31
0.0
  0
LINE
  5
17A
330
20
100
AcDbEntity
  8
0
  6
Continuous
 62
     3
100
AcDbLine
 10
427.356707
 20
190.960765
 30
0.0
 11
436.156707
 21
190.960765
 31
0.0
  0
LINE
  5
17B
330
20
100
AcDbEntity
  8
0
  6
Continuous
 62
     3
100
AcDbLine
 10
427.356707
 20
188.960765
 30
0.0
 11
436.156707
 21
188.960765
 31
0.0
  0
LINE
  5
17C
330
20
100
AcDbEntity
  8
0
  6
Continuous
 62
     3
100
AcDbLine
 10
427.356707
 20
201.110765
 30
0.0
 11
436.156707
 21
201.110765
 31
0.0
  0
LINE
  5
17D
330
20
100
AcDbEntity
  8
0
  6
Continuous
 62
     3
100
AcDbLine
 10
427.356707
 20
199.110765
 30
0.0
 11
436.156707
 21
199.110765
 31
0.0
  0
LINE
  5
17E
330
20
100
AcDbEntity
  8
0
  6
Continuous
 62
     3
100
AcDbLine
 10
427.356707
 20
211.260765
 30
0.0
 11
436.156707
 21
211.260765
 31
0.0
  0
LINE
  5
17F
330
20
100
AcDbEntity
  8
0
  6
Continuous
 62
     3
100
AcDbLine
 10
427.356707
 20
209.260765
 30
0.0
 11
436.156707
 21
209.260765
 31
0.0
  0
LWPOLYLINE
  5
180
330
20
100
AcDbEntity
  8
0
  6
Continuous
 62
     3
100
AcDbPolyline
 90
        3
 70
     0
 43
0.0
 10
427.356707
 20
222.410765
 10
436.156707
 20
222.410765
 10
436.156707
 20
179.810765
  0
LINE
  5
185
330
20
100
AcDbEntity
  8
0
  6
Continuous
 62
     3
100
AcDbLine
 10
427.356707
 20
139.210765
 30
0.0
 11
436.156707
 21
139.210765
 31
0.0
  0
LINE
  5
186
330
20
100
AcDbEntity
  8
0
  6
Continuous
 62
     3
100
AcDbLine
 10
427.356707
 20
178.810765
 30
0.0
 11
436.156707
 21
178.810765
 31
0.0
  0
LINE
  5
187
330
20
100
AcDbEntity
  8
0
  6
Continuous
 62
     3
100
AcDbLine
 10
427.356707
 20
180.810765
 30
0.0
 11
436.156707
 21
180.810765
 31
0.0
  0
LINE
  5
188
330
20
100
AcDbEntity
  8
0
  6
Continuous
 62
     3
100
AcDbLine
 10
427.356707
 20
168.660765
 30
0.0
 11
436.156707
 21
168.660765
 31
0.0
  0
LINE
  5
189
330
20
100
AcDbEntity
  8
0
  6
Continuous
 62
     3
100
AcDbLine
 10
427.356707
 20
170.660765
 30
0.0
 11
436.156707
 21
170.660765
 31
0.0
  0
LINE
  5
18A
330
20
100
AcDbEntity
  8
0
  6
Continuous
 62
     3
100
AcDbLine
 10
427.356707
 20
158.510765
 30
0.0
 11
436.156707
 21
158.510765
 31
0.0
  0
LINE
  5
18B
330
20
100
AcDbEntity
  8
0
  6
Continuous
 62
     3
100
AcDbLine
 10
427.356707
 20
160.510765
 30
0.0
 11
436.156707
 21
160.510765
 31
0.0
  0
LINE
  5
18C
330
20
100
AcDbEntity
  8
0
  6
Continuous
 62
     3
100
AcDbLine
 10
427.356707
 20
148.360765
 30
0.0
 11
436.156707
 21
148.360765
 31
0.0
  0
LINE
  5
18D
330
20
100
AcDbEntity
  8
0
  6
Continuous
 62
     3
100
AcDbLine
 10
427.356707
 20
150.360765
 30
0.0
 11
436.156707
 21
150.360765
 31
0.0
  0
LINE
  5
18E
330
20
100
AcDbEntity
  8
0
  6
Continuous
 62
     3
100
AcDbLine
 10
436.156707
 20
137.210765
 30
0.0
 11
436.156707
 21
179.810765
 31
0.0
  0
LINE
  5
18F
330
20
100
AcDbEntity
  8
0
  6
Continuous
 62
     3
100
AcDbLine
 10
427.356707
 20
137.210765
 30
0.0
 11
436.156707
 21
137.210765
 31
0.0
  0
LINE
  5
190
330
20
100
AcDbEntity
  8
0
  6
Continuous
 62
     3
100
AcDbLine
 10
427.356707
 20
222.410765
 30
0.0
 11
427.356707
 21
137.210765
 31
0.0
  0
LWPOLYLINE
  5
191
330
20
100
AcDbEntity
  8
0
  6
Continuous
 62
     3
100
AcDbPolyline
 90
        6
 70
     1
 43
0.0
 10
434.3547832109999
 20
217.335765
 10
431.7567069999999
 20
218.835765
 10
429.158630789
 20
217.335765
 10
429.158630789
 20
214.335765
 10
431.7567069999999
 20
212.835765
 10
434.3547832109999
 20
214.335765
  0
LWPOLYLINE
  5
199
330
20
100
AcDbEntity
  8
0
  6
Continuous
 62
     3
100
AcDbPolyline
 90
        6
 70
     1
 43
0.0
 10
434.3547832109999
 20
206.685765
 10
431.7567069999999
 20
208.185765
 10
429.158630789
 20
206.685765
 10
429.158630789
 20
203.685765
 10
431.7567069999999
 20
202.185765
 10
434.3547832109999
 20
203.685765
  0
LWPOLYLINE
  5
1A1
330
20
100
AcDbEntity
  8
0
  6
Continuous
 62
     3
100
AcDbPolyline
 90
        6
 70
     1
 43
0.0
 10
434.3547832109999
 20
196.535765
 10
431.7567069999999
 20
198.035765
 10
429.158630789
 20
196.535765
 10
429.158630789
 20
193.535765
 10
431.7567069999999
 20
192.035765
 10
434.3547832109999
 20
193.535765
  0
LWPOLYLINE
  5
1A9
330
20
100
AcDbEntity
  8
0
  6
Continuous
 62
     3
100
AcDbPolyline
 90
        6
 70
     1
 43
0.0
 10
434.3547832109999
 20
186.385765
 10
431.7567069999999
 20
187.885765
 10
429.158630789
 20
186.385765
 10
429.158630789
 20
183.385765
 10
431.7567069999999
 20
181.885765
 10
434.3547832109999
 20
183.385765
  0
LWPOLYLINE
  5
1B1
330
20
100
AcDbEntity
  8
0
  6
Continuous
 62
     3
100
AcDbPolyline
 90
        6
 70
     1
 43
0.0
 10
434.3547832109999
 20
176.235765
 10
431.7567069999999
 20
177.735765
 10
429.158630789
 20
176.235765
 10
429.158630789
 20
173.235765
 10
431.7567069999999
 20
171.735765
 10
434.3547832109999
 20
173.235765
  0
LWPOLYLINE
  5
1B9
330
20
100
AcDbEntity
  8
0
  6
Continuous
 62
     3
100
AcDbPolyline
 90
        6
 70
     1
 43
0.0
 10
434.3547832109999
 20
166.085765
 10
431.7567069999999
 20
167.585765
 10
429.158630789
 20
166.085765
 10
429.158630789
 20
163.085765
 10
431.7567069999999
 20
161.585765
 10
434.3547832109999
 20
163.085765
  0
LWPOLYLINE
  5
1C1
330
20
100
AcDbEntity
  8
0
  6
Continuous
 62
     3
100
AcDbPolyline
 90
        6
 70
     1
 43
0.0
 10
434.3547832109999
 20
155.935765
 10
431.7567069999999
 20
157.435765
 10
429.158630789
 20
155.935765
 10
429.158630789
 20
152.935765
 10
431.7567069999999
 20
151.435765
 10
434.3547832109999
 20
152.935765
  0
LWPOLYLINE
  5
1C9
330
20
100
AcDbEntity
  8
0
  6
Continuous
 62
     3
100
AcDbPolyline
 90
        6
 70
     1
 43
0.0
 10
434.3547832109999
 20
142.285765
 10
431.7567069999999
 20
140.785765
 10
429.158630789
 20
142.285765
 10
429.158630789
 20
145.285765
 10
431.7567069999999
 20
146.785765
 10
434.3547832109999
 20
145.285765
  0
LINE
  5
1D1
330
20
100
AcDbEntity
  8
0
  6
Continuous
 62
     3
100
AcDbLine
 10
446.956707
 20
129.910765
 30
0.0
 11
446.956707
 21
229.910765
 31
0.0
  0
CIRCLE
  5
1D2
330
20
100
AcDbEntity
  8
0
  6
Continuous
 62
     3
100
AcDbCircle
 10
443.156707
 20
138.175099639
 30
0.0
 40
2.799999999999999
  0
LINE
  5
1D3
330
20
100
AcDbEntity
  8
0
  6
Continuous
 62
     3
100
AcDbLine
 10
441.356707
 20
137.8750996389999
 30
0.0
 11
441.356707
 21
138.475099639
 31
0.0
  0
LINE
  5
1D4
330
20
100
AcDbEntity
  8
0
  6
Continuous
 62
     3
100
AcDbLine
 10
442.856707
 20
139.975099639
 30
0.0
 11
443.456707
 21
139.975099639
 31
0.0
  0
LINE
  5
1D5
330
20
100
AcDbEntity
  8
0
  6
Continuous
 62
     3
100
AcDbLine
 10
444.956707
 20
137.8750996389999
 30
0.0
 11
444.956707
 21
138.475099639
 31
0.0
  0
LINE
  5
1D6
330
20
100
AcDbEntity
  8
0
  6
Continuous
 62
     3
100
AcDbLine
 10
442.856707
 20
136.375099639
 30
0.0
 11
443.456707
 21
136.375099639
 31
0.0
  0
LINE
  5
1D7
330
20
100
AcDbEntity
  8
0
  6
Continuous
 62
     3
100
AcDbLine
 10
444.956707
 20
137.8750996389999
 30
0.0
 11
444.356707
 21
137.8750996389999
 31
0.0
  0
LINE
  5
1D8
330
20
100
AcDbEntity
  8
0
  6
Continuous
 62
     3
100
AcDbLine
 10
443.456707
 20
136.375099639
 30
0.0
 11
443.456707
 21
136.975099639
 31
0.0
  0
LINE
  5
1D9
330
20
100
AcDbEntity
  8
0
  6
Continuous
 62
     3
100
AcDbLine
 10
442.856707
 20
136.375099639
 30
0.0
 11
442.856707
 21
136.975099639
 31
0.0
  0
LINE
  5
1DA
330
20
100
AcDbEntity
  8
0
  6
Continuous
 62
     3
100
AcDbLine
 10
441.356707
 20
138.475099639
 30
0.0
 11
441.956707
 21
138.475099639
 31
0.0
  0
LINE
  5
1DB
330
20
100
AcDbEntity
  8
0
  6
Continuous
 62
     3
100
AcDbLine
 10
443.456707
 20
139.975099639
 30
0.0
 11
443.456707
 21
139.375099639
 31
0.0
  0
LINE
  5
1DC
330
20
100
AcDbEntity
  8
0
  6
Continuous
 62
     3
100
AcDbLine
 10
444.956707
 20
137.8750996389999
 30
0.0
 11
444.356707
 21
137.8750996389999
 31
0.0
  0
LINE
  5
1DD
330
20
100
AcDbEntity
  8
0
  6
Continuous
 62
     3
100
AcDbLine
 10
444.956707
 20
138.475099639
 30
0.0
 11
444.356707
 21
138.475099639
 31
0.0
  0
LINE
  5
1DE
330
20
100
AcDbEntity
  8
0
  6
Continuous
 62
     3
100
AcDbLine
 10
442.856707
 20
139.975099639
 30
0.0
 11
442.856707
 21
139.375099639
 31
0.0
  0
LINE
  5
1DF
330
20
100
AcDbEntity
  8
0
  6
Continuous
 62
     3
100
AcDbLine
 10
441.356707
 20
137.8750996389999
 30
0.0
 11
441.956707
 21
137.8750996389999
 31
0.0
  0
ARC
  5
1E0
330
20
100
AcDbEntity
  8
0
  6
Continuous
 62
     3
100
AcDbCircle
 10
444.2567069999999
 20
139.275099639
 30
0.0
 40
0.8
100
AcDbArc
 50
172.3
 51
277.7
  0
ARC
  5
1E1
330
20
100
AcDbEntity
  8
0
  6
Continuous
 62
     3
100
AcDbCircle
 10
442.056707
 20
139.275099639
 30
0.0
 40
0.8
100
AcDbArc
 50
262.3
 51
7.699999999999999
  0
ARC
  5
1E2
330
20
100
AcDbEntity
  8
0
  6
Continuous
 62
     3
100
AcDbCircle
 10
442.056707
 20
137.075099639
 30
0.0
 40
0.8
100
AcDbArc
 50
352.3
 51
97.70000000000001
  0
ARC
  5
1E3
330
20
100
AcDbEntity
  8
0
  6
Continuous
 62
     3
100
AcDbCircle
 10
444.2567069999999
 20
137.075099639
 30
0.0
 40
0.8
100
AcDbArc
 50
82.3
 51
187.7
  0
LINE
  5
1E4
330
20
100
AcDbEntity
  8
0
  6
Continuous
 62
     3
100
AcDbLine
 10
446.256707
 20
140.260765
 30
0.0
 11
446.256707
 21
136.089434277
 31
0.0
  0
LINE
  5
1E5
330
20
100
AcDbEntity
  8
0
  6
Continuous
 62
     3
100
AcDbLine
 10
440.056707
 20
140.260765
 30
0.0
 11
440.056707
 21
136.089434277
 31
0.0
  0
ARC
  5
1E6
330
20
100
AcDbEntity
  8
0
  6
Continuous
 62
     3
100
AcDbCircle
 10
443.156707
 20
138.175099639
 30
0.0
 40
3.736308338
100
AcDbArc
 50
213.932479777
 51
326.067520223
  0
ARC
  5
1E7
330
20
100
AcDbEntity
  8
0
  6
Continuous
 62
     3
100
AcDbCircle
 10
443.156707
 20
138.175099639
 30
0.0
 40
3.736308338
100
AcDbArc
 50
33.932479777
 51
146.067520223
  0
CIRCLE
  5
1E8
330
20
100
AcDbEntity
  8
0
  6
Continuous
 62
     3
100
AcDbCircle
 10
443.156707
 20
159.575099639
 30
0.0
 40
2.799999999999999
  0
LINE
  5
1E9
330
20
100
AcDbEntity
  8
0
  6
Continuous
 62
     3
100
AcDbLine
 10
441.356707
 20
159.275099639
 30
0.0
 11
441.356707
 21
159.875099639
 31
0.0
  0
LINE
  5
1EA
330
20
100
AcDbEntity
  8
0
  6
Continuous
 62
     3
100
AcDbLine
 10
442.856707
 20
161.375099639
 30
0.0
 11
443.456707
 21
161.375099639
 31
0.0
  0
LINE
  5
1EB
330
20
100
AcDbEntity
  8
0
  6
Continuous
 62
     3
100
AcDbLine
 10
444.956707
 20
159.275099639
 30
0.0
 11
444.956707
 21
159.875099639
 31
0.0
  0
LINE
  5
1EC
330
20
100
AcDbEntity
  8
0
  6
Continuous
 62
     3
100
AcDbLine
 10
442.856707
 20
157.775099639
 30
0.0
 11
443.456707
 21
157.775099639
 31
0.0
  0
LINE
  5
1ED
330
20
100
AcDbEntity
  8
0
  6
Continuous
 62
     3
100
AcDbLine
 10
444.956707
 20
159.275099639
 30
0.0
 11
444.356707
 21
159.275099639
 31
0.0
  0
LINE
  5
1EE
330
20
100
AcDbEntity
  8
0
  6
Continuous
 62
     3
100
AcDbLine
 10
443.456707
 20
157.775099639
 30
0.0
 11
443.456707
 21
158.375099639
 31
0.0
  0
LINE
  5
1EF
330
20
100
AcDbEntity
  8
0
  6
Continuous
 62
     3
100
AcDbLine
 10
442.856707
 20
157.775099639
 30
0.0
 11
442.856707
 21
158.375099639
 31
0.0
  0
LINE
  5
1F0
330
20
100
AcDbEntity
  8
0
  6
Continuous
 62
     3
100
AcDbLine
 10
441.356707
 20
159.875099639
 30
0.0
 11
441.956707
 21
159.875099639
 31
0.0
  0
LINE
  5
1F1
330
20
100
AcDbEntity
  8
0
  6
Continuous
 62
     3
100
AcDbLine
 10
443.456707
 20
161.375099639
 30
0.0
 11
443.456707
 21
160.775099639
 31
0.0
  0
LINE
  5
1F2
330
20
100
AcDbEntity
  8
0
  6
Continuous
 62
     3
100
AcDbLine
 10
444.956707
 20
159.275099639
 30
0.0
 11
444.356707
 21
159.275099639
 31
0.0
  0
LINE
  5
1F3
330
20
100
AcDbEntity
  8
0
  6
Continuous
 62
     3
100
AcDbLine
 10
444.956707
 20
159.875099639
 30
0.0
 11
444.356707
 21
159.875099639
 31
0.0
  0
LINE
  5
1F4
330
20
100
AcDbEntity
  8
0
  6
Continuous
 62
     3
100
AcDbLine
 10
442.856707
 20
161.375099639
 30
0.0
 11
442.856707
 21
160.775099639
 31
0.0
  0
LINE
  5
1F5
330
20
100
AcDbEntity
  8
0
  6
Continuous
 62
     3
100
AcDbLine
 10
441.356707
 20
159.275099639
 30
0.0
 11
441.956707
 21
159.275099639
 31
0.0
  0
ARC
  5
1F6
330
20
100
AcDbEntity
  8
0
  6
Continuous
 62
     3
100
AcDbCircle
 10
444.2567069999999
 20
160.675099639
 30
0.0
 40
0.8
100
AcDbArc
 50
172.3
 51
277.7
  0
ARC
  5
1F7
330
20
100
AcDbEntity
  8
0
  6
Continuous
 62
     3
100
AcDbCircle
 10
442.056707
 20
160.675099639
 30
0.0
 40
0.8
100
AcDbArc
 50
262.3
 51
7.699999999999999
  0
ARC
  5
1F8
330
20
100
AcDbEntity
  8
0
  6
Continuous
 62
     3
100
AcDbCircle
 10
442.056707
 20
158.475099639
 30
0.0
 40
0.8
100
AcDbArc
 50
352.3
 51
97.70000000000001
  0
ARC
  5
1F9
330
20
100
AcDbEntity
  8
0
  6
Continuous
 62
     3
100
AcDbCircle
 10
444.2567069999999
 20
158.475099639
 30
0.0
 40
0.8
100
AcDbArc
 50
82.3
 51
187.7
  0
LINE
  5
1FA
330
20
100
AcDbEntity
  8
0
  6
Continuous
 62
     3
100
AcDbLine
 10
446.256707
 20
161.660765
 30
0.0
 11
446.256707
 21
157.489434277
 31
0.0
  0
LINE
  5
1FB
330
20
100
AcDbEntity
  8
0
  6
Continuous
 62
     3
100
AcDbLine
 10
440.056707
 20
161.660765
 30
0.0
 11
440.056707
 21
157.489434277
 31
0.0
  0
ARC
  5
1FC
330
20
100
AcDbEntity
  8
0
  6
Continuous
 62
     3
100
AcDbCircle
 10
443.156707
 20
159.575099639
 30
0.0
 40
3.736308338
100
AcDbArc
 50
213.932479777
 51
326.067520223
  0
ARC
  5
1FD
330
20
100
AcDbEntity
  8
0
  6
Continuous
 62
     3
100
AcDbCircle
 10
443.156707
 20
159.575099639
 30
0.0
 40
3.736308338
100
AcDbArc
 50
33.932479777
 51
146.067520223
  0
LINE
  5
1FE
330
20
100
AcDbEntity
  8
2
  6
Continuous
 62
     3
100
AcDbLine
 10
394.756707
 20
353.410765
 30
0.0
 11
395.956707
 21
353.410765
 31
0.0
  0
LINE
  5
1FF
330
20
100
AcDbEntity
  8
2
  6
Continuous
 62
     3
100
AcDbLine
 10
394.756707
 20
368.410765
 30
0.0
 11
434.756707
 21
368.410765
 31
0.0
  0
LINE
  5
200
330
20
100
AcDbEntity
  8
2
  6
Continuous
 62
     3
100
AcDbLine
 10
434.756707
 20
368.410765
 30
0.0
 11
434.756707
 21
367.210765
 31
0.0
  0
LINE
  5
201
330
20
100
AcDbEntity
  8
2
  6
Continuous
 62
     3
100
AcDbLine
 10
434.756707
 20
367.210765
 30
0.0
 11
395.956707
 21
367.210765
 31
0.0
  0
LINE
  5
202
330
20
100
AcDbEntity
  8
2
  6
Continuous
 62
     3
100
AcDbLine
 10
395.956707
 20
367.210765
 30
0.0
 11
395.956707
 21
353.410765
 31
0.0
  0
LINE
  5
203
330
20
100
AcDbEntity
  8
2
  6
Continuous
 62
     3
100
AcDbLine
 10
394.756707
 20
368.410765
 30
0.0
 11
394.756707
 21
353.410765
 31
0.0
  0
LINE
  5
204
330
20
100
AcDbEntity
  8
2
  6
Continuous
 62
     3
100
AcDbLine
 10
394.756707
 20
312.110765
 30
0.0
 11
434.756707
 21
312.110765
 31
0.0
  0
LINE
  5
205
330
20
100
AcDbEntity
  8
2
  6
Continuous
 62
     3
100
AcDbLine
 10
434.756707
 20
312.110765
 30
0.0
 11
434.756707
 21
342.110765
 31
0.0
  0
LINE
  5
206
330
20
100
AcDbEntity
  8
2
  6
Continuous
 62
     3
100
AcDbLine
 10
434.756707
 20
342.110765
 30
0.0
 11
394.756707
 21
342.110765
 31
0.0
  0
LINE
  5
207
330
20
100
AcDbEntity
  8
2
  6
Continuous
 62
     3
100
AcDbLine
 10
394.756707
 20
342.110765
 30
0.0
 11
394.756707
 21
312.110765
 31
0.0
  0
LINE
  5
208
330
20
100
AcDbEntity
  8
2
  6
Continuous
 62
     3
100
AcDbLine
 10
395.956707
 20
342.110765
 30
0.0
 11
395.956707
 21
312.110765
 31
0.0
  0
LINE
  5
209
330
20
100
AcDbEntity
  8
2
  6
Continuous
 62
     3
100
AcDbLine
 10
422.5067069999999
 20
333.860765
 30
0.0
 11
425.756707
 21
333.860765
 31
0.0
  0
LINE
  5
20A
330
20
100
AcDbEntity
  8
2
  6
Continuous
 62
     3
100
AcDbLine
 10
422.5067069999999
 20
330.360765
 30
0.0
 11
425.756707
 21
330.360765
 31
0.0
  0
ARC
  5
20B
330
20
100
AcDbEntity
  8
2
  6
Continuous
 62
     3
100
AcDbCircle
 10
422.5067069999999
 20
332.110765
 30
0.0
 40
1.75
100
AcDbArc
 50
90.00024997199998
 51
269.999750028
  0
LINE
  5
20C
330
20
100
AcDbEntity
  8
2
  6
Continuous
 62
     3
100
AcDbLine
 10
429.006707
 20
333.860765
 30
0.0
 11
425.756707
 21
333.860765
 31
0.0
  0
LINE
  5
20D
330
20
100
AcDbEntity
  8
2
  6
Continuous
 62
     3
100
AcDbLine
 10
429.006707
 20
330.360765
 30
0.0
 11
425.756707
 21
330.360765
 31
0.0
  0
ARC
  5
20E
330
20
100
AcDbEntity
  8
2
  6
Continuous
 62
     3
100
AcDbCircle
 10
429.006707
 20
332.110765
 30
0.0
 40
1.75
100
AcDbArc
 50
270.000249972
 51
89.99975002799999
  0
LINE
  5
20F
330
20
100
AcDbEntity
  8
2
  6
Continuous
 62
     3
100
AcDbLine
 10
422.5067069999999
 20
320.360765
 30
0.0
 11
425.756707
 21
320.360765
 31
0.0
  0
LINE
  5
210
330
20
100
AcDbEntity
  8
2
  6
Continuous
 62
     3
100
AcDbLine
 10
422.5067069999999
 20
323.860765
 30
0.0
 11
425.756707
 21
323.860765
 31
0.0
  0
ARC
  5
211
330
20
100
AcDbEntity
  8
2
  6
Continuous
 62
     3
100
AcDbCircle
 10
422.5067069999999
 20
322.110765
 30
0.0
 40
1.75
100
AcDbArc
 50
90.00024997199998
 51
269.999750028
  0
LINE
  5
212
330
20
100
AcDbEntity
  8
2
  6
Continuous
 62
     3
100
AcDbLine
 10
429.006707
 20
320.360765
 30
0.0
 11
425.756707
 21
320.360765
 31
0.0
  0
LINE
  5
213
330
20
100
AcDbEntity
  8
2
  6
Continuous
 62
     3
100
AcDbLine
 10
429.006707
 20
323.860765
 30
0.0
 11
425.756707
 21
323.860765
 31
0.0
  0
ARC
  5
214
330
20
100
AcDbEntity
  8
2
  6
Continuous
 62
     3
100
AcDbCircle
 10
429.006707
 20
322.110765
 30
0.0
 40
1.75
100
AcDbArc
 50
270.000249972
 51
89.99975002799999
  0
LINE
  5
215
330
20
100
AcDbEntity
  8
2
  6
Continuous
 62
     3
100
AcDbLine
 10
361.056707
 20
368.410765
 30
0.0
 11
331.056707
 21
368.410765
 31
0.0
  0
LINE
  5
216
330
20
100
AcDbEntity
  8
2
  6
Continuous
 62
     3
100
AcDbLine
 10
331.056707
 20
368.410765
 30
0.0
 11
331.056707
 21
353.410765
 31
0.0
  0
LINE
  5
217
330
20
100
AcDbEntity
  8
2
  6
Continuous
 62
     3
100
AcDbLine
 10
331.056707
 20
353.410765
 30
0.0
 11
361.056707
 21
353.410765
 31
0.0
  0
LINE
  5
218
330
20
100
AcDbEntity
  8
2
  6
Continuous
 62
     3
100
AcDbLine
 10
361.056707
 20
353.410765
 30
0.0
 11
361.056707
 21
368.410765
 31
0.0
  0
ARC
  5
219
330
20
100
AcDbEntity
  8
2
  6
Continuous
 62
     3
100
AcDbCircle
 10
348.056707
 20
358.410765
 30
0.0
 40
2.0
100
AcDbArc
 50
269.999890717
 51
90.00010928299998
  0
ARC
  5
21A
330
20
100
AcDbEntity
  8
2
  6
Continuous
 62
     3
100
AcDbCircle
 10
344.256707
 20
358.410765
 30
0.0
 40
2.0
100
AcDbArc
 50
89.99989071700003
 51
270.000109283
  0
LINE
  5
21B
330
20
100
AcDbEntity
  8
2
  6
Continuous
 62
     3
100
AcDbLine
 10
344.256710815
 20
360.4107649999999
 30
0.0
 11
348.056703185
 21
360.4107649999999
 31
0.0
  0
LINE
  5
21C
330
20
100
AcDbEntity
  8
2
  6
Continuous
 62
     3
100
AcDbLine
 10
344.256710815
 20
356.410765
 30
0.0
 11
348.056703185
 21
356.410765
 31
0.0
  0
LWPOLYLINE
  5
21D
330
20
100
AcDbEntity
  8
0
  6
Continuous
 62
     3
100
AcDbPolyline
 90
        3
 70
     0
 43
0.0
 10
220.656707
 20
53.610765
 10
363.656707
 20
53.610765
 10
363.656707
 20
83.61076500000001
  0
CIRCLE
  5
222
330
20
100
AcDbEntity
  8
0
  6
Continuous
 62
     3
100
AcDbCircle
 10
269.656707
 20
73.610765
 30
0.0
 40
1.199999999999999
  0
CIRCLE
  5
223
330
20
100
AcDbEntity
  8
0
  6
Continuous
 62
     3
100
AcDbCircle
 10
269.656707
 20
63.610765
 30
0.0
 40
1.199999999999999
  0
LINE
  5
224
330
20
100
AcDbEntity
  8
0
  6
Continuous
 62
     3
100
AcDbLine
 10
221.756707
 20
83.61076500000001
 30
0.0
 11
221.756707
 21
82.71076500000001
 31
0.0
  0
LINE
  5
225
330
20
100
AcDbEntity
  8
0
  6
Continuous
 62
     3
100
AcDbLine
 10
363.656707
 20
83.61076500000001
 30
0.0
 11
221.756707
 21
83.61076500000001
 31
0.0
  0
LINE
  5
226
330
20
100
AcDbEntity
  8
0
  6
Continuous
 62
     3
100
AcDbLine
 10
221.756707
 20
82.71076500000001
 30
0.0
 11
233.256707
 21
82.71076500000001
 31
0.0
  0
LINE
  5
227
330
20
100
AcDbEntity
  8
0
  6
Continuous
 62
     3
100
AcDbLine
 10
233.256707
 20
82.61076499999999
 30
0.0
 11
233.256707
 21
83.61076500000001
 31
0.0
  0
LINE
  5
228
330
20
100
AcDbEntity
  8
0
  6
Continuous
 62
     3
100
AcDbLine
 10
250.763
 20
53.610765
 30
0.0
 11
250.763
 21
81.610765
 31
0.0
  0
LINE
  5
229
330
20
100
AcDbEntity
  8
0
  6
Continuous
 62
     3
100
AcDbLine
 10
220.656707
 20
81.610765
 30
0.0
 11
220.656707
 21
53.610765
 31
0.0
  0
LINE
  5
22A
330
20
100
AcDbEntity
  8
0
  6
Continuous
 62
     3
100
AcDbLine
 10
250.763
 20
81.610765
 30
0.0
 11
220.656707
 21
81.610765
 31
0.0
  0
LINE
  5
22B
330
20
100
AcDbEntity
  8
0
  6
Continuous
 62
     3
100
AcDbLine
 10
233.256707
 20
81.610765
 30
0.0
 11
233.256707
 21
53.610765
 31
0.0
  0
LINE
  5
22C
330
20
100
AcDbEntity
  8
0
  6
Continuous
 62
     3
100
AcDbLine
 10
232.156707
 20
82.71076500000001
 30
0.0
 11
232.156707
 21
81.610765
 31
0.0
  0
CIRCLE
  5
22D
330
20
100
AcDbEntity
  8
0
  6
Continuous
 62
     3
100
AcDbCircle
 10
443.156707
 20
179.910765
 30
0.0
 40
3.306055051
  0
LINE
  5
22E
330
20
100
AcDbEntity
  8
0
  6
Continuous
 62
     3
100
AcDbLine
 10
439.8886800719999
 20
180.410765
 30
0.0
 11
446.4247339279999
 21
180.410765
 31
0.0
  0
LINE
  5
22F
330
20
100
AcDbEntity
  8
0
  6
Continuous
 62
     3
100
AcDbLine
 10
439.8886800719999
 20
179.410765
 30
0.0
 11
446.4247339279999
 21
179.410765
 31
0.0
  0
CIRCLE
  5
230
330
20
100
AcDbEntity
  8
0
  6
LTYPE1
 62
     1
100
AcDbCircle
 10
265.656707
 20
222.910765
 30
0.0
 40
1.5
  0
LINE
  5
231
330
20
100
AcDbEntity
  8
0
  6
LTYPE1
 62
     1
100
AcDbLine
 10
265.656707
 20
220.410765
 30
0.0
 11
265.656707
 21
225.410765
 31
0.0
  0
LINE
  5
232
330
20
100
AcDbEntity
  8
0
  6
LTYPE1
 62
     1
100
AcDbLine
 10
263.156707
 20
222.910765
 30
0.0
 11
268.156707
 21
222.910765
 31
0.0
  0
LINE
  5
233
330
20
100
AcDbEntity
  8
0
  6
LTYPE1
 62
     1
100
AcDbLine
 10
279.656707
 20
222.910765
 30
0.0
 11
275.656707
 21
222.910765
 31
0.0
  0
LINE
  5
234
330
20
100
AcDbEntity
  8
0
  6
LTYPE1
 62
     1
100
AcDbLine
 10
277.656707
 20
224.910765
 30
0.0
 11
277.656707
 21
220.910765
 31
0.0
  0
CIRCLE
  5
235
330
20
100
AcDbEntity
  8
0
  6
LTYPE1
 62
     1
100
AcDbCircle
 10
265.656707
 20
136.910765
 30
0.0
 40
1.5
  0
LINE
  5
236
330
20
100
AcDbEntity
  8
0
  6
LTYPE1
 62
     1
100
AcDbLine
 10
265.656707
 20
139.410765
 30
0.0
 11
265.656707
 21
134.410765
 31
0.0
  0
LINE
  5
237
330
20
100
AcDbEntity
  8
0
  6
LTYPE1
 62
     1
100
AcDbLine
 10
263.156707
 20
136.910765
 30
0.0
 11
268.156707
 21
136.910765
 31
0.0
  0
LINE
  5
238
330
20
100
AcDbEntity
  8
0
  6
LTYPE1
 62
     1
100
AcDbLine
 10
279.656707
 20
136.910765
 30
0.0
 11
275.656707
 21
136.910765
 31
0.0
  0
LINE
  5
239
330
20
100
AcDbEntity
  8
0
  6
LTYPE1
 62
     1
100
AcDbLine
 10
277.656707
 20
134.910765
 30
0.0
 11
277.656707
 21
138.910765
 31
0.0
  0
LINE
  5
23A
330
20
100
AcDbEntity
  8
0
  6
LTYPE1
 62
     1
100
AcDbLine
 10
353.956707
 20
227.510765
 30
0.0
 11
353.956707
 21
218.910765
 31
0.0
  0
LINE
  5
23B
330
20
100
AcDbEntity
  8
0
  6
LTYPE1
 62
     1
100
AcDbLine
 10
349.656707
 20
223.210765
 30
0.0
 11
358.256707
 21
223.210765
 31
0.0
  0
LINE
  5
23C
330
20
100
AcDbEntity
  8
0
  6
LTYPE1
 62
     1
100
AcDbLine
 10
353.956707
 20
132.310765
 30
0.0
 11
353.956707
 21
140.910765
 31
0.0
  0
LINE
  5
23D
330
20
100
AcDbEntity
  8
0
  6
LTYPE1
 62
     1
100
AcDbLine
 10
349.656707
 20
136.610765
 30
0.0
 11
358.256707
 21
136.610765
 31
0.0
  0
LINE
  5
23E
330
20
100
AcDbEntity
  8
0
  6
LTYPE1
 62
     1
100
AcDbLine
 10
246.756707
 20
227.510765
 30
0.0
 11
246.756707
 21
218.910765
 31
0.0
  0
LINE
  5
23F
330
20
100
AcDbEntity
  8
0
  6
LTYPE1
 62
     1
100
AcDbLine
 10
242.456707
 20
223.210765
 30
0.0
 11
251.056707
 21
223.210765
 31
0.0
  0
LINE
  5
240
330
20
100
AcDbEntity
  8
0
  6
LTYPE1
 62
     1
100
AcDbLine
 10
246.756707
 20
132.310765
 30
0.0
 11
246.756707
 21
140.910765
 31
0.0
  0
LINE
  5
241
330
20
100
AcDbEntity
  8
0
  6
LTYPE1
 62
     1
100
AcDbLine
 10
242.456707
 20
136.610765
 30
0.0
 11
251.056707
 21
136.610765
 31
0.0
  0
LINE
  5
242
330
20
100
AcDbEntity
  8
2
  6
LTYPE1
 62
     1
100
AcDbLine
 10
269.656707
 20
228.410765
 30
0.0
 11
269.656707
 21
232.810765
 31
0.0
  0
LINE
  5
243
330
20
100
AcDbEntity
  8
2
  6
LTYPE1
 62
     1
100
AcDbLine
 10
269.656707
 20
131.410765
 30
0.0
 11
269.656707
 21
127.010765
 31
0.0
  0
LINE
  5
244
330
20
100
AcDbEntity
  8
2
  6
LTYPE1
 62
     1
100
AcDbLine
 10
235.256707
 20
239.910765
 30
0.0
 11
241.656707
 21
239.910765
 31
0.0
  0
LINE
  5
245
330
20
100
AcDbEntity
  8
2
  6
LTYPE1
 62
     1
100
AcDbLine
 10
242.656707
 20
119.910765
 30
0.0
 11
235.156707
 21
119.910765
 31
0.0
  0
LINE
  5
246
330
20
100
AcDbEntity
  8
2
  6
LTYPE1
 62
     1
100
AcDbLine
 10
162.756707
 20
121.9107649999999
 30
0.0
 11
162.756707
 21
117.910765
 31
0.0
  0
LINE
  5
247
330
20
100
AcDbEntity
  8
2
  6
LTYPE1
 62
     1
100
AcDbLine
 10
162.756707
 20
237.910765
 30
0.0
 11
162.756707
 21
241.910765
 31
0.0
  0
LINE
  5
248
330
20
100
AcDbEntity
  8
2
  6
LTYPE1
 62
     1
100
AcDbLine
 10
156.156707
 20
239.910765
 30
0.0
 11
167.656707
 21
239.910765
 31
0.0
  0
LINE
  5
249
330
20
100
AcDbEntity
  8
2
  6
LTYPE1
 62
     1
100
AcDbLine
 10
168.556707
 20
119.910765
 30
0.0
 11
156.156707
 21
119.910765
 31
0.0
  0
LINE
  5
24A
330
20
100
AcDbEntity
  8
0
  6
LTYPE1
 62
     1
100
AcDbLine
 10
84.30670699999998
 20
239.910765
 30
0.0
 11
80.80670699999998
 21
239.910765
 31
0.0
  0
LINE
  5
24B
330
20
100
AcDbEntity
  8
0
  6
LTYPE1
 62
     1
100
AcDbLine
 10
82.55670699999999
 20
241.660765
 30
0.0
 11
82.55670699999999
 21
238.160765
 31
0.0
  0
LINE
  5
24C
330
20
100
AcDbEntity
  8
0
  6
LTYPE1
 62
     1
100
AcDbLine
 10
84.30670699999998
 20
119.910765
 30
0.0
 11
80.80670699999998
 21
119.910765
 31
0.0
  0
LINE
  5
24D
330
20
100
AcDbEntity
  8
0
  6
LTYPE1
 62
     1
100
AcDbLine
 10
82.55670699999999
 20
118.160765
 30
0.0
 11
82.55670699999999
 21
121.660765
 31
0.0
  0
LINE
  5
24E
330
20
100
AcDbEntity
  8
2
  6
LTYPE1
 62
     1
100
AcDbLine
 10
352.556707
 20
358.410765
 30
0.0
 11
339.556707
 21
358.410765
 31
0.0
  0
LINE
  5
24F
330
20
100
AcDbEntity
  8
2
  6
LTYPE1
 62
     1
100
AcDbLine
 10
346.056707
 20
360.4107649999999
 30
0.0
 11
346.056707
 21
356.410765
 31
0.0
  0
LINE
  5
250
330
20
100
AcDbEntity
  8
2
  6
LTYPE1
 62
     1
100
AcDbLine
 10
430.756707
 20
332.110765
 30
0.0
 11
420.756707
 21
332.110765
 31
0.0
  0
LINE
  5
251
330
20
100
AcDbEntity
  8
2
  6
LTYPE1
 62
     1
100
AcDbLine
 10
425.756707
 20
333.860765
 30
0.0
 11
425.756707
 21
330.360765
 31
0.0
  0
LINE
  5
252
330
20
100
AcDbEntity
  8
2
  6
LTYPE1
 62
     1
100
AcDbLine
 10
430.756707
 20
322.110765
 30
0.0
 11
420.756707
 21
322.110765
 31
0.0
  0
LINE
  5
253
330
20
100
AcDbEntity
  8
2
  6
LTYPE1
 62
     1
100
AcDbLine
 10
425.756707
 20
323.860765
 30
0.0
 11
425.756707
 21
320.360765
 31
0.0
  0
LINE
  5
254
330
20
100
AcDbEntity
  8
2
  6
LTYPE1
 62
     1
100
AcDbLine
 10
425.756707
 20
369.910765
 30
0.0
 11
425.756707
 21
365.510765
 31
0.0
  0
CIRCLE
  5
255
330
20
100
AcDbEntity
  8
0
  6
LTYPE1
 62
     1
100
AcDbCircle
 10
269.656707
 20
73.610765
 30
0.0
 40
1.5
  0
LINE
  5
256
330
20
100
AcDbEntity
  8
0
  6
LTYPE1
 62
     1
100
AcDbLine
 10
269.656707
 20
76.110765
 30
0.0
 11
269.656707
 21
71.110765
 31
0.0
  0
LINE
  5
257
330
20
100
AcDbEntity
  8
0
  6
LTYPE1
 62
     1
100
AcDbLine
 10
267.156707
 20
73.610765
 30
0.0
 11
272.156707
 21
73.610765
 31
0.0
  0
CIRCLE
  5
258
330
20
100
AcDbEntity
  8
0
  6
LTYPE1
 62
     1
100
AcDbCircle
 10
269.656707
 20
63.610765
 30
0.0
 40
1.5
  0
LINE
  5
259
330
20
100
AcDbEntity
  8
0
  6
LTYPE1
 62
     1
100
AcDbLine
 10
269.656707
 20
66.110765
 30
0.0
 11
269.656707
 21
61.110765
 31
0.0
  0
LINE
  5
25A
330
20
100
AcDbEntity
  8
0
  6
LTYPE1
 62
     1
100
AcDbLine
 10
267.156707
 20
63.610765
 30
0.0
 11
272.156707
 21
63.610765
 31
0.0
  0
LINE
  5
25B
330
20
100
AcDbEntity
  8
0
  6
Continuous
 62
     4
100
AcDbLine
 10
167.956707
 20
167.080765
 30
0.0
 11
164.156707
 21
167.080765
 31
0.0
  0
LINE
  5
25C
330
20
100
AcDbEntity
  8
0
  6
Continuous
 62
     4
100
AcDbLine
 10
167.956707
 20
181.260765
 30
0.0
 11
164.156707
 21
181.260765
 31
0.0
  0
LINE
  5
25D
330
20
100
AcDbEntity
  8
0
  6
Continuous
 62
     4
100
AcDbLine
 10
167.956707
 20
195.440765
 30
0.0
 11
164.156707
 21
195.440765
 31
0.0
  0
LINE
  5
25E
330
20
100
AcDbEntity
  8
0
  6
Continuous
 62
     4
100
AcDbLine
 10
167.956707
 20
209.620765
 30
0.0
 11
164.156707
 21
209.620765
 31
0.0
  0
LINE
  5
25F
330
20
100
AcDbEntity
  8
0
  6
Continuous
 62
     4
100
AcDbLine
 10
167.956707
 20
147.228765
 30
0.0
 11
164.156707
 21
147.228765
 31
0.0
  0
LINE
  5
260
330
20
100
AcDbEntity
  8
0
  6
Continuous
 62
     4
100
AcDbLine
 10
167.956707
 20
148.6467649999999
 30
0.0
 11
164.156707
 21
148.6467649999999
 31
0.0
  0
LINE
  5
261
330
20
100
AcDbEntity
  8
0
  6
Continuous
 62
     4
100
AcDbLine
 10
167.956707
 20
150.064765
 30
0.0
 11
164.156707
 21
150.064765
 31
0.0
  0
LINE
  5
262
330
20
100
AcDbEntity
  8
0
  6
Continuous
 62
     4
100
AcDbLine
 10
167.956707
 20
151.482765
 30
0.0
 11
164.156707
 21
151.482765
 31
0.0
  0
LINE
  5
263
330
20
100
AcDbEntity
  8
0
  6
Continuous
 62
     4
100
AcDbLine
 10
167.956707
 20
154.318765
 30
0.0
 11
164.156707
 21
154.318765
 31
0.0
  0
LINE
  5
264
330
20
100
AcDbEntity
  8
0
  6
Continuous
 62
     4
100
AcDbLine
 10
167.956707
 20
155.736765
 30
0.0
 11
164.156707
 21
155.736765
 31
0.0
  0
LINE
  5
265
330
20
100
AcDbEntity
  8
0
  6
Continuous
 62
     4
100
AcDbLine
 10
167.956707
 20
157.154765
 30
0.0
 11
164.156707
 21
157.154765
 31
0.0
  0
LINE
  5
266
330
20
100
AcDbEntity
  8
0
  6
Continuous
 62
     4
100
AcDbLine
 10
167.956707
 20
158.572765
 30
0.0
 11
164.156707
 21
158.572765
 31
0.0
  0
LINE
  5
267
330
20
100
AcDbEntity
  8
0
  6
Continuous
 62
     4
100
AcDbLine
 10
167.956707
 20
161.408765
 30
0.0
 11
164.156707
 21
161.408765
 31
0.0
  0
LINE
  5
268
330
20
100
AcDbEntity
  8
0
  6
Continuous
 62
     4
100
AcDbLine
 10
167.956707
 20
162.826765
 30
0.0
 11
164.156707
 21
162.826765
 31
0.0
  0
LINE
  5
269
330
20
100
AcDbEntity
  8
0
  6
Continuous
 62
     4
100
AcDbLine
 10
167.956707
 20
164.244765
 30
0.0
 11
164.156707
 21
164.244765
 31
0.0
  0
LINE
  5
26A
330
20
100
AcDbEntity
  8
0
  6
Continuous
 62
     4
100
AcDbLine
 10
167.956707
 20
165.662765
 30
0.0
 11
164.156707
 21
165.662765
 31
0.0
  0
LINE
  5
26B
330
20
100
AcDbEntity
  8
0
  6
Continuous
 62
     4
100
AcDbLine
 10
167.956707
 20
168.498765
 30
0.0
 11
164.156707
 21
168.498765
 31
0.0
  0
LINE
  5
26C
330
20
100
AcDbEntity
  8
0
  6
Continuous
 62
     4
100
AcDbLine
 10
167.956707
 20
169.916765
 30
0.0
 11
164.156707
 21
169.916765
 31
0.0
  0
LINE
  5
26D
330
20
100
AcDbEntity
  8
0
  6
Continuous
 62
     4
100
AcDbLine
 10
167.956707
 20
171.334765
 30
0.0
 11
164.156707
 21
171.334765
 31
0.0
  0
LINE
  5
26E
330
20
100
AcDbEntity
  8
0
  6
Continuous
 62
     4
100
AcDbLine
 10
167.956707
 20
172.752765
 30
0.0
 11
164.156707
 21
172.752765
 31
0.0
  0
LINE
  5
26F
330
20
100
AcDbEntity
  8
0
  6
Continuous
 62
     4
100
AcDbLine
 10
167.956707
 20
175.588765
 30
0.0
 11
164.156707
 21
175.588765
 31
0.0
  0
LINE
  5
270
330
20
100
AcDbEntity
  8
0
  6
Continuous
 62
     4
100
AcDbLine
 10
167.956707
 20
177.006765
 30
0.0
 11
164.156707
 21
177.006765
 31
0.0
  0
LINE
  5
271
330
20
100
AcDbEntity
  8
0
  6
Continuous
 62
     4
100
AcDbLine
 10
167.956707
 20
178.424765
 30
0.0
 11
164.156707
 21
178.424765
 31
0.0
  0
LINE
  5
272
330
20
100
AcDbEntity
  8
0
  6
Continuous
 62
     4
100
AcDbLine
 10
167.956707
 20
179.8427649999999
 30
0.0
 11
164.156707
 21
179.8427649999999
 31
0.0
  0
LINE
  5
273
330
20
100
AcDbEntity
  8
0
  6
Continuous
 62
     4
100
AcDbLine
 10
167.956707
 20
182.678765
 30
0.0
 11
164.156707
 21
182.678765
 31
0.0
  0
LINE
  5
274
330
20
100
AcDbEntity
  8
0
  6
Continuous
 62
     4
100
AcDbLine
 10
167.956707
 20
184.096765
 30
0.0
 11
164.156707
 21
184.096765
 31
0.0
  0
LINE
  5
275
330
20
100
AcDbEntity
  8
0
  6
Continuous
 62
     4
100
AcDbLine
 10
167.956707
 20
185.514765
 30
0.0
 11
164.156707
 21
185.514765
 31
0.0
  0
LINE
  5
276
330
20
100
AcDbEntity
  8
0
  6
Continuous
 62
     4
100
AcDbLine
 10
167.956707
 20
186.932765
 30
0.0
 11
164.156707
 21
186.932765
 31
0.0
  0
LINE
  5
277
330
20
100
AcDbEntity
  8
0
  6
Continuous
 62
     4
100
AcDbLine
 10
167.956707
 20
189.768765
 30
0.0
 11
164.156707
 21
189.768765
 31
0.0
  0
LINE
  5
278
330
20
100
AcDbEntity
  8
0
  6
Continuous
 62
     4
100
AcDbLine
 10
167.956707
 20
191.1867649999999
 30
0.0
 11
164.156707
 21
191.1867649999999
 31
0.0
  0
LINE
  5
279
330
20
100
AcDbEntity
  8
0
  6
Continuous
 62
     4
100
AcDbLine
 10
167.956707
 20
192.604765
 30
0.0
 11
164.156707
 21
192.604765
 31
0.0
  0
LINE
  5
27A
330
20
100
AcDbEntity
  8
0
  6
Continuous
 62
     4
100
AcDbLine
 10
167.956707
 20
194.022765
 30
0.0
 11
164.156707
 21
194.022765
 31
0.0
  0
LINE
  5
27B
330
20
100
AcDbEntity
  8
0
  6
Continuous
 62
     4
100
AcDbLine
 10
167.956707
 20
196.858765
 30
0.0
 11
164.156707
 21
196.858765
 31
0.0
  0
LINE
  5
27C
330
20
100
AcDbEntity
  8
0
  6
Continuous
 62
     4
100
AcDbLine
 10
167.956707
 20
198.2767649999999
 30
0.0
 11
164.156707
 21
198.2767649999999
 31
0.0
  0
LINE
  5
27D
330
20
100
AcDbEntity
  8
0
  6
Continuous
 62
     4
100
AcDbLine
 10
167.956707
 20
199.694765
 30
0.0
 11
164.156707
 21
199.694765
 31
0.0
  0
LINE
  5
27E
330
20
100
AcDbEntity
  8
0
  6
Continuous
 62
     4
100
AcDbLine
 10
167.956707
 20
201.112765
 30
0.0
 11
164.156707
 21
201.112765
 31
0.0
  0
LINE
  5
27F
330
20
100
AcDbEntity
  8
0
  6
Continuous
 62
     4
100
AcDbLine
 10
167.956707
 20
203.948765
 30
0.0
 11
164.156707
 21
203.948765
 31
0.0
  0
LINE
  5
280
330
20
100
AcDbEntity
  8
0
  6
Continuous
 62
     4
100
AcDbLine
 10
167.956707
 20
205.366765
 30
0.0
 11
164.156707
 21
205.366765
 31
0.0
  0
LINE
  5
281
330
20
100
AcDbEntity
  8
0
  6
Continuous
 62
     4
100
AcDbLine
 10
167.956707
 20
206.784765
 30
0.0
 11
164.156707
 21
206.784765
 31
0.0
  0
LINE
  5
282
330
20
100
AcDbEntity
  8
0
  6
Continuous
 62
     4
100
AcDbLine
 10
167.956707
 20
208.202765
 30
0.0
 11
164.156707
 21
208.202765
 31
0.0
  0
LINE
  5
283
330
20
100
AcDbEntity
  8
0
  6
Continuous
 62
     4
100
AcDbLine
 10
167.956707
 20
211.038765
 30
0.0
 11
164.156707
 21
211.038765
 31
0.0
  0
LINE
  5
284
330
20
100
AcDbEntity
  8
0
  6
Continuous
 62
     4
100
AcDbLine
 10
167.956707
 20
212.456765
 30
0.0
 11
164.156707
 21
212.456765
 31
0.0
  0
LINE
  5
285
330
20
100
AcDbEntity
  8
0
  6
Continuous
 62
     4
100
AcDbLine
 10
167.956707
 20
213.874765
 30
0.0
 11
164.156707
 21
213.874765
 31
0.0
  0
LINE
  5
286
330
20
100
AcDbEntity
  8
0
  6
Continuous
 62
     4
100
AcDbLine
 10
167.956707
 20
215.292765
 30
0.0
 11
164.156707
 21
215.292765
 31
0.0
  0
LINE
  5
287
330
20
100
AcDbEntity
  8
2
  6
Continuous
 62
     4
100
AcDbLine
 10
147.756707
 20
128.710765
 30
0.0
 11
177.856707
 21
128.710765
 31
0.0
  0
LINE
  5
288
330
20
100
AcDbEntity
  8
2
  6
Continuous
 62
     4
100
AcDbLine
 10
177.756707
 20
231.110765
 30
0.0
 11
147.656707
 21
231.110765
 31
0.0
  0
LINE
  5
289
330
20
100
AcDbEntity
  8
0
  6
Continuous
 62
     4
100
AcDbLine
 10
166.756707
 20
150.610765
 30
0.0
 11
166.756707
 21
151.110765
 31
0.0
  0
LINE
  5
28A
330
20
100
AcDbEntity
  8
0
  6
Continuous
 62
     4
100
AcDbLine
 10
166.756707
 20
151.110765
 30
0.0
 11
153.756707
 21
151.110765
 31
0.0
  0
LINE
  5
28B
330
20
100
AcDbEntity
  8
0
  6
Continuous
 62
     4
100
AcDbLine
 10
153.756707
 20
150.610765
 30
0.0
 11
166.756707
 21
150.610765
 31
0.0
  0
LINE
  5
28C
330
20
100
AcDbEntity
  8
0
  6
Continuous
 62
     4
100
AcDbLine
 10
153.756707
 20
150.610765
 30
0.0
 11
153.756707
 21
151.110765
 31
0.0
  0
TEXT
  5
28D
330
20
100
AcDbEntity
  8
0
  6
Continuous
 62
     4
100
AcDbText
 10
157.356707
 20
220.010765
 30
0.36
 40
2.64
  1
Ｌ／ｈ
  7
KANJI1
100
AcDbText
  0
LINE
  5
28E
330
20
100
AcDbEntity
  8
2
  6
Continuous
 62
     4
100
AcDbLine
 10
331.056707
 20
367.210765
 30
0.36
 11
361.156707
 21
367.210765
 31
0.36
  0
TEXT
  5
28F
330
20
100
AcDbEntity
  8
3
  6
Continuous
 62
     4
100
AcDbText
 10
71.27928840000001
 20
359.8314
 30
0.0
 40
8.039999999999999
  1
形　名　　：　ＴＭＥ－１００Ａ
 41
0.7174129350000001
  7
KANJI2
100
AcDbText
  0
LINE
  5
290
330
20
100
AcDbEntity
  8
3
  6
Continuous
 62
     4
100
AcDbLine
 10
220.656707
 20
180.910765
 30
0.0
 11
220.656707
 21
256.510765
 31
0.0
  0
LINE
  5
291
330
20
100
AcDbEntity
  8
3
  6
Continuous
 62
     4
100
AcDbLine
 10
220.656707
 20
255.510765
 30
0.0
 11
223.071521566
 21
254.863717387
 31
0.0
  0
LINE
  5
292
330
20
100
AcDbEntity
  8
3
  6
Continuous
 62
     4
100
AcDbLine
 10
220.656707
 20
255.510765
 30
0.0
 11
223.071521566
 21
256.157812613
 31
0.0
  0
LINE
  5
293
330
20
100
AcDbEntity
  8
3
  6
Continuous
 62
     4
100
AcDbLine
 10
220.656707
 20
255.510765
 30
0.0
 11
363.656707
 21
255.510765
 31
0.0
  0
LINE
  5
294
330
20
100
AcDbEntity
  8
3
  6
Continuous
 62
     4
100
AcDbLine
 10
363.656707
 20
255.510765
 30
0.0
 11
361.241892434
 21
256.157812613
 31
0.0
  0
LINE
  5
295
330
20
100
AcDbEntity
  8
3
  6
Continuous
 62
     4
100
AcDbLine
 10
363.656707
 20
255.510765
 30
0.0
 11
361.241892434
 21
254.863717387
 31
0.0
  0
LINE
  5
296
330
20
100
AcDbEntity
  8
3
  6
Continuous
 62
     4
100
AcDbLine
 10
363.656707
 20
230.910765
 30
0.0
 11
363.656707
 21
256.510765
 31
0.0
  0
LINE
  5
297
330
20
100
AcDbEntity
  8
3
  6
Continuous
 62
     4
100
AcDbLine
 10
221.844502472
 20
164.54364958
 30
0.0
 11
224.330066533
 21
164.275374911
 31
0.0
  0
LINE
  5
298
330
20
100
AcDbEntity
  8
3
  6
Continuous
 62
     4
100
AcDbLine
 10
221.844502472
 20
164.54364958
 30
0.0
 11
224.131201426
 21
165.554098932
 31
0.0
  0
LINE
  5
299
330
20
100
AcDbEntity
  8
3
  6
Continuous
 62
     4
100
AcDbLine
 10
221.844502472
 20
164.54364958
 30
0.0
 11
320.656707
 21
179.910765
 31
0.0
  0
LINE
  5
29A
330
20
100
AcDbEntity
  8
3
  6
Continuous
 62
     4
100
AcDbLine
 10
363.656707
 20
255.510765
 30
0.0
 11
366.071521566
 21
254.863717387
 31
0.0
  0
LINE
  5
29B
330
20
100
AcDbEntity
  8
3
  6
Continuous
 62
     4
100
AcDbLine
 10
363.656707
 20
255.510765
 30
0.0
 11
366.071521566
 21
256.157812613
 31
0.0
  0
LWPOLYLINE
  5
29C
330
20
100
AcDbEntity
  8
3
  6
Continuous
 62
     4
100
AcDbPolyline
 90
        3
 70
     0
 43
0.0
 10
363.656707
 20
255.510765
 10
378.656707
 20
255.510765
 10
376.241892434
 20
256.157812613
  0
LINE
  5
2A1
330
20
100
AcDbEntity
  8
3
  6
Continuous
 62
     4
100
AcDbLine
 10
378.656707
 20
255.510765
 30
0.0
 11
376.241892434
 21
254.863717387
 31
0.0
  0
LINE
  5
2A2
330
20
100
AcDbEntity
  8
3
  6
Continuous
 62
     4
100
AcDbLine
 10
378.656707
 20
223.410765
 30
0.0
 11
378.656707
 21
256.510765
 31
0.0
  0
LINE
  5
2A3
330
20
100
AcDbEntity
  8
3
  6
Continuous
 62
     4
100
AcDbLine
 10
220.656707
 20
244.010765
 30
0.0
 11
220.656707
 21
244.410765
 31
0.0
  0
LINE
  5
2A4
330
20
100
AcDbEntity
  8
3
  6
Continuous
 62
     4
100
AcDbLine
 10
220.656707
 20
243.410765
 30
0.0
 11
223.071521566
 21
242.763717387
 31
0.0
  0
LINE
  5
2A5
330
20
100
AcDbEntity
  8
3
  6
Continuous
 62
     4
100
AcDbLine
 10
220.656707
 20
243.410765
 30
0.0
 11
223.071521566
 21
244.057812613
 31
0.0
  0
LINE
  5
2A6
330
20
100
AcDbEntity
  8
3
  6
Continuous
 62
     4
100
AcDbLine
 10
220.656707
 20
243.410765
 30
0.0
 11
265.656707
 21
243.410765
 31
0.0
  0
LINE
  5
2A7
330
20
100
AcDbEntity
  8
3
  6
Continuous
 62
     4
100
AcDbLine
 10
265.656707
 20
243.410765
 30
0.0
 11
263.241892434
 21
244.057812613
 31
0.0
  0
LINE
  5
2A8
330
20
100
AcDbEntity
  8
3
  6
Continuous
 62
     4
100
AcDbLine
 10
265.656707
 20
243.410765
 30
0.0
 11
263.241892434
 21
242.763717387
 31
0.0
  0
LINE
  5
2A9
330
20
100
AcDbEntity
  8
3
  6
Continuous
 62
     4
100
AcDbLine
 10
265.656707
 20
226.410765
 30
0.0
 11
265.656707
 21
244.410765
 31
0.0
  0
LINE
  5
2AA
330
20
100
AcDbEntity
  8
3
  6
Continuous
 62
     4
100
AcDbLine
 10
265.656707
 20
243.410765
 30
0.0
 11
268.071521566
 21
242.763717387
 31
0.0
  0
LINE
  5
2AB
330
20
100
AcDbEntity
  8
3
  6
Continuous
 62
     4
100
AcDbLine
 10
265.656707
 20
243.410765
 30
0.0
 11
268.071521566
 21
244.057812613
 31
0.0
  0
LWPOLYLINE
  5
2AC
330
20
100
AcDbEntity
  8
3
  6
Continuous
 62
     4
100
AcDbPolyline
 90
        3
 70
     0
 43
0.0
 10
265.656707
 20
243.410765
 10
277.656707
 20
243.410765
 10
275.241892434
 20
244.057812613
  0
LINE
  5
2B1
330
20
100
AcDbEntity
  8
3
  6
Continuous
 62
     4
100
AcDbLine
 10
277.656707
 20
243.410765
 30
0.0
 11
275.241892434
 21
242.763717387
 31
0.0
  0
LINE
  5
2B2
330
20
100
AcDbEntity
  8
3
  6
Continuous
 62
     4
100
AcDbLine
 10
277.656707
 20
225.910765
 30
0.0
 11
277.656707
 21
244.410765
 31
0.0
  0
LINE
  5
2B3
330
20
100
AcDbEntity
  8
3
  6
Continuous
 62
     4
100
AcDbLine
 10
280.656707
 20
222.910765
 30
0.0
 11
302.856707
 21
222.910765
 31
0.0
  0
LINE
  5
2B4
330
20
100
AcDbEntity
  8
3
  6
Continuous
 62
     4
100
AcDbLine
 10
301.856707
 20
222.910765
 30
0.0
 11
301.209659387
 21
220.495950434
 31
0.0
  0
LINE
  5
2B5
330
20
100
AcDbEntity
  8
3
  6
Continuous
 62
     4
100
AcDbLine
 10
301.856707
 20
222.910765
 30
0.0
 11
302.503754613
 21
220.495950434
 31
0.0
  0
LINE
  5
2B6
330
20
100
AcDbEntity
  8
3
  6
Continuous
 62
     4
100
AcDbLine
 10
301.856707
 20
222.910765
 30
0.0
 11
301.856707
 21
136.910765
 31
0.0
  0
LINE
  5
2B7
330
20
100
AcDbEntity
  8
3
  6
Continuous
 62
     4
100
AcDbLine
 10
301.856707
 20
136.910765
 30
0.0
 11
302.503754613
 21
139.325579566
 31
0.0
  0
LINE
  5
2B8
330
20
100
AcDbEntity
  8
3
  6
Continuous
 62
     4
100
AcDbLine
 10
301.856707
 20
136.910765
 30
0.0
 11
301.209659387
 21
139.325579566
 31
0.0
  0
LINE
  5
2B9
330
20
100
AcDbEntity
  8
3
  6
Continuous
 62
     4
100
AcDbLine
 10
280.656707
 20
136.910765
 30
0.0
 11
302.856707
 21
136.910765
 31
0.0
  0
LINE
  5
2BA
330
20
100
AcDbEntity
  8
3
  6
Continuous
 62
     4
100
AcDbLine
 10
267.256707
 20
224.210765
 30
0.0
 11
269.398689219
 21
225.499916726
 31
0.0
  0
LINE
  5
2BB
330
20
100
AcDbEntity
  8
3
  6
Continuous
 62
     4
100
AcDbLine
 10
267.256707
 20
224.210765
 30
0.0
 11
268.467142154
 21
226.398194254
 31
0.0
  0
LINE
  5
2BC
330
20
100
AcDbEntity
  8
3
  6
Continuous
 62
     4
100
AcDbLine
 10
267.256707
 20
224.210765
 30
0.0
 11
288.856707
 21
246.610765
 31
0.0
  0
LINE
  5
2BD
330
20
100
AcDbEntity
  8
3
  6
Continuous
 62
     4
100
AcDbLine
 10
288.856707
 20
246.610765
 30
0.0
 11
318.656707
 21
246.610765
 31
0.0
  0
TEXT
  5
2BE
330
20
100
AcDbEntity
  8
3
  6
Continuous
 62
     4
100
AcDbText
 10
288.856707
 20
247.610765
 30
0.3
 40
4.0
  1
２－Ｍ３タップ
  7
KANJI3
100
AcDbText
  0
LINE
  5
2BF
330
20
100
AcDbEntity
  8
3
  6
Continuous
 62
     4
100
AcDbLine
 10
279.656707
 20
224.010765
 30
0.3
 11
281.836672535
 21
225.234591076
 31
0.3
  0
LINE
  5
2C0
330
20
100
AcDbEntity
  8
3
  6
Continuous
 62
     4
100
AcDbLine
 10
279.656707
 20
224.010765
 30
0.0
 11
280.932699495
 21
226.160612239
 31
0.0
  0
LINE
  5
2C1
330
20
100
AcDbEntity
  8
3
  6
Continuous
 62
     4
100
AcDbLine
 10
279.656707
 20
224.010765
 30
0.0
 11
292.256707
 21
236.310765
 31
0.0
  0
LINE
  5
2C2
330
20
100
AcDbEntity
  8
3
  6
Continuous
 62
     4
100
AcDbLine
 10
292.256707
 20
236.310765
 30
0.0
 11
309.156707
 21
236.310765
 31
0.0
  0
TEXT
  5
2C3
330
20
100
AcDbEntity
  8
3
  6
Continuous
 62
     4
100
AcDbText
 10
292.256707
 20
237.310765
 30
0.3
 40
4.0
  1
２－φ４
  7
KANJI3
100
AcDbText
  0
LINE
  5
2C4
330
20
100
AcDbEntity
  8
3
  6
Continuous
 62
     4
100
AcDbLine
 10
220.656707
 20
256.510765
 30
0.3
 11
220.656707
 21
277.010765
 31
0.3
  0
LINE
  5
2C5
330
20
100
AcDbEntity
  8
3
  6
Continuous
 62
     4
100
AcDbLine
 10
220.656707
 20
276.010765
 30
0.0
 11
223.071521566
 21
275.363717387
 31
0.0
  0
LINE
  5
2C6
330
20
100
AcDbEntity
  8
3
  6
Continuous
 62
     4
100
AcDbLine
 10
220.656707
 20
276.010765
 30
0.0
 11
223.071521566
 21
276.657812613
 31
0.0
  0
LINE
  5
2C7
330
20
100
AcDbEntity
  8
3
  6
Continuous
 62
     4
100
AcDbLine
 10
220.656707
 20
276.010765
 30
0.0
 11
238.656707
 21
276.010765
 31
0.0
  0
LINE
  5
2C8
330
20
100
AcDbEntity
  8
3
  6
Continuous
 62
     4
100
AcDbLine
 10
238.656707
 20
276.010765
 30
0.0
 11
236.241892434
 21
276.657812613
 31
0.0
  0
LINE
  5
2C9
330
20
100
AcDbEntity
  8
3
  6
Continuous
 62
     4
100
AcDbLine
 10
238.656707
 20
276.010765
 30
0.0
 11
236.241892434
 21
275.363717387
 31
0.0
  0
LINE
  5
2CA
330
20
100
AcDbEntity
  8
3
  6
Continuous
 62
     4
100
AcDbLine
 10
238.656707
 20
245.910765
 30
0.0
 11
238.656707
 21
277.010765
 31
0.0
  0
TEXT
  5
2CB
330
20
100
AcDbEntity
  8
3
  6
Continuous
 62
     4
100
AcDbText
 10
267.506707
 20
244.410765
 30
0.3
 40
5.0
  1
１２
  7
KANJI4
100
AcDbText
  0
TEXT
  5
2CC
330
20
100
AcDbEntity
  8
3
  6
Continuous
 62
     4
100
AcDbText
 10
245.306707
 20
244.510765
 30
0.3
 40
5.0
  1
４５
  7
KANJI4
100
AcDbText
  0
TEXT
  5
2CD
330
20
100
AcDbEntity
  8
3
  6
Continuous
 62
     4
100
AcDbText
 10
221.206707
 20
277.010765
 30
0.3
 40
5.0
  1
（１８）
  7
KANJI4
100
AcDbText
  0
TEXT
  5
2CE
330
20
100
AcDbEntity
  8
3
  6
Continuous
 62
     4
100
AcDbText
 10
285.856707
 20
256.510765
 30
0.3
 40
5.0
  1
１４３
  7
KANJI4
100
AcDbText
  0
TEXT
  5
2CF
330
20
100
AcDbEntity
  8
3
  6
Continuous
 62
     4
100
AcDbText
 10
260.703035846
 20
171.598887045
 30
0.3
 40
5.0
  1
Ｒ１００
 50
8.839735688999999
  7
KANJI4
100
AcDbText
  0
TEXT
  5
2D0
330
20
100
AcDbEntity
  8
3
  6
Continuous
 62
     4
100
AcDbText
 10
300.756707
 20
179.760765
 30
0.3
 40
5.0
  1
８６
 50
90.0
  7
KANJI4
100
AcDbText
  0
TEXT
  5
2D1
330
20
100
AcDbEntity
  8
3
  6
Continuous
 62
     4
100
AcDbText
 10
367.006707
 20
256.510765
 30
0.3
 40
5.0
  1
１５
  7
KANJI4
100
AcDbText
  0
LINE
  5
2D2
330
20
100
AcDbEntity
  8
3
  6
Continuous
 62
     4
100
AcDbLine
 10
147.756707
 20
230.910765
 30
0.3
 11
147.756707
 21
255.810765
 31
0.3
  0
LINE
  5
2D3
330
20
100
AcDbEntity
  8
3
  6
Continuous
 62
     4
100
AcDbLine
 10
147.756707
 20
254.810765
 30
0.0
 11
150.171521566
 21
254.163717387
 31
0.0
  0
LINE
  5
2D4
330
20
100
AcDbEntity
  8
3
  6
Continuous
 62
     4
100
AcDbLine
 10
147.756707
 20
254.810765
 30
0.0
 11
150.171521566
 21
255.457812613
 31
0.0
  0
LINE
  5
2D5
330
20
100
AcDbEntity
  8
3
  6
Continuous
 62
     4
100
AcDbLine
 10
147.756707
 20
254.810765
 30
0.0
 11
177.756707
 21
254.810765
 31
0.0
  0
LINE
  5
2D6
330
20
100
AcDbEntity
  8
3
  6
Continuous
 62
     4
100
AcDbLine
 10
177.756707
 20
254.810765
 30
0.0
 11
175.341892434
 21
255.457812613
 31
0.0
  0
LINE
  5
2D7
330
20
100
AcDbEntity
  8
3
  6
Continuous
 62
     4
100
AcDbLine
 10
177.756707
 20
254.810765
 30
0.0
 11
175.341892434
 21
254.163717387
 31
0.0
  0
LINE
  5
2D8
330
20
100
AcDbEntity
  8
3
  6
Continuous
 62
     4
100
AcDbLine
 10
177.756707
 20
230.910765
 30
0.0
 11
177.756707
 21
255.810765
 31
0.0
  0
LINE
  5
2D9
330
20
100
AcDbEntity
  8
3
  6
Continuous
 62
     4
100
AcDbLine
 10
178.756707
 20
229.910765
 30
0.0
 11
192.056707
 21
229.910765
 31
0.0
  0
LINE
  5
2DA
330
20
100
AcDbEntity
  8
3
  6
Continuous
 62
     4
100
AcDbLine
 10
191.056707
 20
229.910765
 30
0.0
 11
190.409659387
 21
227.495950434
 31
0.0
  0
LINE
  5
2DB
330
20
100
AcDbEntity
  8
3
  6
Continuous
 62
     4
100
AcDbLine
 10
191.056707
 20
229.910765
 30
0.0
 11
191.703754613
 21
227.495950434
 31
0.0
  0
LINE
  5
2DC
330
20
100
AcDbEntity
  8
3
  6
Continuous
 62
     4
100
AcDbLine
 10
191.056707
 20
229.910765
 30
0.0
 11
191.056707
 21
129.910765
 31
0.0
  0
LINE
  5
2DD
330
20
100
AcDbEntity
  8
3
  6
Continuous
 62
     4
100
AcDbLine
 10
191.056707
 20
129.910765
 30
0.0
 11
191.703754613
 21
132.325579566
 31
0.0
  0
LINE
  5
2DE
330
20
100
AcDbEntity
  8
3
  6
Continuous
 62
     4
100
AcDbLine
 10
191.056707
 20
129.910765
 30
0.0
 11
190.409659387
 21
132.325579566
 31
0.0
  0
LINE
  5
2DF
330
20
100
AcDbEntity
  8
3
  6
Continuous
 62
     4
100
AcDbLine
 10
178.756707
 20
129.910765
 30
0.0
 11
192.056707
 21
129.910765
 31
0.0
  0
TEXT
  5
2E0
330
20
100
AcDbEntity
  8
3
  6
Continuous
 62
     4
100
AcDbText
 10
190.056707
 20
173.610765
 30
0.3
 40
4.0
  1
１００
 50
90.0
  7
KANJI3
100
AcDbText
  0
LINE
  5
2E1
330
20
100
AcDbEntity
  8
3
  6
Continuous
 62
     4
100
AcDbLine
 10
165.456707
 20
242.210765
 30
0.3
 11
166.812886628
 21
244.310949948
 31
0.3
  0
LINE
  5
2E2
330
20
100
AcDbEntity
  8
3
  6
Continuous
 62
     4
100
AcDbLine
 10
165.456707
 20
242.210765
 30
0.0
 11
165.581100536
 21
244.707668332
 31
0.0
  0
LINE
  5
2E3
330
20
100
AcDbEntity
  8
3
  6
Continuous
 62
     4
100
AcDbLine
 10
165.456707
 20
242.210765
 30
0.0
 11
181.656707
 21
292.510765
 31
0.0
  0
TEXT
  5
2E4
330
20
100
AcDbEntity
  8
3
  6
Continuous
 62
     4
100
AcDbText
 10
158.606707
 20
255.810765
 30
0.3
 40
5.0
  1
３０
  7
KANJI4
100
AcDbText
  0
TEXT
  5
2E5
330
20
100
AcDbEntity
  8
3
  6
Continuous
 62
     4
100
AcDbText
 10
181.656707
 20
293.510765
 30
0.3
 40
5.0
  1
φ４－８
  7
KANJI4
100
AcDbText
  0
LINE
  5
2E6
330
20
100
AcDbEntity
  8
3
  6
Continuous
 62
     4
100
AcDbLine
 10
181.656707
 20
292.510765
 30
0.3
 11
203.056707
 21
292.510765
 31
0.3
  0
LINE
  5
2E7
330
20
100
AcDbEntity
  8
3
  6
Continuous
 62
     4
100
AcDbLine
 10
99.05670699999999
 20
129.410765
 30
0.0
 11
114.156707
 21
129.410765
 31
0.0
  0
LINE
  5
2E8
330
20
100
AcDbEntity
  8
3
  6
Continuous
 62
     4
100
AcDbLine
 10
113.156707
 20
129.410765
 30
0.0
 11
113.803754613
 21
131.825579566
 31
0.0
  0
LINE
  5
2E9
330
20
100
AcDbEntity
  8
3
  6
Continuous
 62
     4
100
AcDbLine
 10
113.156707
 20
129.410765
 30
0.0
 11
112.509659387
 21
131.825579566
 31
0.0
  0
LINE
  5
2EA
330
20
100
AcDbEntity
  8
3
  6
Continuous
 62
     4
100
AcDbLine
 10
113.156707
 20
129.410765
 30
0.0
 11
113.156707
 21
230.410765
 31
0.0
  0
LINE
  5
2EB
330
20
100
AcDbEntity
  8
3
  6
Continuous
 62
     4
100
AcDbLine
 10
113.156707
 20
230.410765
 30
0.0
 11
112.509659387
 21
227.995950434
 31
0.0
  0
LINE
  5
2EC
330
20
100
AcDbEntity
  8
3
  6
Continuous
 62
     4
100
AcDbLine
 10
113.156707
 20
230.410765
 30
0.0
 11
113.803754613
 21
227.995950434
 31
0.0
  0
LINE
  5
2ED
330
20
100
AcDbEntity
  8
3
  6
Continuous
 62
     4
100
AcDbLine
 10
99.05670699999999
 20
230.410765
 30
0.0
 11
114.156707
 21
230.410765
 31
0.0
  0
TEXT
  5
2EE
330
20
100
AcDbEntity
  8
3
  6
Continuous
 62
     4
100
AcDbText
 10
112.156707
 20
173.610765
 30
0.3
 40
4.0
  1
１０１
 50
90.0
  7
KANJI3
100
AcDbText
  0
LINE
  5
2EF
330
20
100
AcDbEntity
  8
3
  6
Continuous
 62
     4
100
AcDbLine
 10
108.056707
 20
129.410765
 30
0.3
 11
108.156707
 21
129.410765
 31
0.3
  0
LINE
  5
2F0
330
20
100
AcDbEntity
  8
3
  6
Continuous
 62
     4
100
AcDbLine
 10
107.156707
 20
129.410765
 30
0.0
 11
107.803754613
 21
131.825579566
 31
0.0
  0
LINE
  5
2F1
330
20
100
AcDbEntity
  8
3
  6
Continuous
 62
     4
100
AcDbLine
 10
107.156707
 20
129.410765
 30
0.0
 11
106.509659387
 21
131.825579566
 31
0.0
  0
LINE
  5
2F2
330
20
100
AcDbEntity
  8
3
  6
Continuous
 62
     4
100
AcDbLine
 10
107.156707
 20
133.160765
 30
0.0
 11
107.156707
 21
129.410765
 31
0.0
  0
LWPOLYLINE
  5
2F3
330
20
100
AcDbEntity
  8
3
  6
Continuous
 62
     4
100
AcDbPolyline
 90
        3
 70
     0
 43
0.0
 10
107.156707
 20
129.410765
 10
107.156707
 20
119.910765
 10
107.156707
 20
103.560765
  0
LINE
  5
2F8
330
20
100
AcDbEntity
  8
3
  6
Continuous
 62
     4
100
AcDbLine
 10
107.156707
 20
119.910765
 30
0.0
 11
106.509659387
 21
117.495950434
 31
0.0
  0
LINE
  5
2F9
330
20
100
AcDbEntity
  8
3
  6
Continuous
 62
     4
100
AcDbLine
 10
107.156707
 20
119.910765
 30
0.0
 11
107.803754613
 21
117.495950434
 31
0.0
  0
LINE
  5
2FA
330
20
100
AcDbEntity
  8
3
  6
Continuous
 62
     4
100
AcDbLine
 10
85.30670699999999
 20
119.910765
 30
0.0
 11
108.156707
 21
119.910765
 31
0.0
  0
LINE
  5
2FB
330
20
100
AcDbEntity
  8
3
  6
Continuous
 62
     4
100
AcDbLine
 10
107.309659387
 20
230.410765
 30
0.0
 11
107.609659387
 21
230.410765
 31
0.0
  0
LINE
  5
2FC
330
20
100
AcDbEntity
  8
3
  6
Continuous
 62
     4
100
AcDbLine
 10
106.609659387
 20
230.410765
 30
0.0
 11
105.962611774
 21
227.995950434
 31
0.0
  0
LINE
  5
2FD
330
20
100
AcDbEntity
  8
3
  6
Continuous
 62
     4
100
AcDbLine
 10
106.609659387
 20
230.410765
 30
0.0
 11
107.256707
 21
227.995950434
 31
0.0
  0
LINE
  5
2FE
330
20
100
AcDbEntity
  8
3
  6
Continuous
 62
     4
100
AcDbLine
 10
106.609659387
 20
226.660765
 30
0.0
 11
106.609659387
 21
230.410765
 31
0.0
  0
LWPOLYLINE
  5
2FF
330
20
100
AcDbEntity
  8
3
  6
Continuous
 62
     4
100
AcDbPolyline
 90
        3
 70
     0
 43
0.0
 10
106.609659387
 20
230.410765
 10
106.609659387
 20
239.910765
 10
106.609659387
 20
256.260765
  0
LINE
  5
304
330
20
100
AcDbEntity
  8
3
  6
Continuous
 62
     4
100
AcDbLine
 10
106.609659387
 20
239.910765
 30
0.0
 11
107.256707
 21
242.325579566
 31
0.0
  0
LINE
  5
305
330
20
100
AcDbEntity
  8
3
  6
Continuous
 62
     4
100
AcDbLine
 10
106.609659387
 20
239.910765
 30
0.0
 11
105.962611774
 21
242.325579566
 31
0.0
  0
LINE
  5
306
330
20
100
AcDbEntity
  8
3
  6
Continuous
 62
     4
100
AcDbLine
 10
85.30670699999999
 20
239.910765
 30
0.0
 11
107.609659387
 21
239.910765
 31
0.0
  0
LINE
  5
307
330
20
100
AcDbEntity
  8
3
  6
Continuous
 62
     4
100
AcDbLine
 10
82.55670699999999
 20
242.660765
 30
0.0
 11
82.55670699999999
 21
272.783
 31
0.0
  0
LINE
  5
308
330
20
100
AcDbEntity
  8
3
  6
Continuous
 62
     4
100
AcDbLine
 10
82.55670699999999
 20
271.783
 30
0.0
 11
80.141892434
 21
272.430047613
 31
0.0
  0
LINE
  5
309
330
20
100
AcDbEntity
  8
3
  6
Continuous
 62
     4
100
AcDbLine
 10
82.55670699999999
 20
271.783
 30
0.0
 11
80.141892434
 21
271.1359523870001
 31
0.0
  0
LINE
  5
30A
330
20
100
AcDbEntity
  8
3
  6
Continuous
 62
     4
100
AcDbLine
 10
82.55670699999999
 20
271.783
 30
0.0
 11
47.656707
 21
271.783
 31
0.0
  0
LINE
  5
30B
330
20
100
AcDbEntity
  8
3
  6
Continuous
 62
     4
100
AcDbLine
 10
67.05670699999998
 20
271.783
 30
0.0
 11
69.47152156600001
 21
271.1359523870001
 31
0.0
  0
LINE
  5
30C
330
20
100
AcDbEntity
  8
3
  6
Continuous
 62
     4
100
AcDbLine
 10
67.05670699999998
 20
271.783
 30
0.0
 11
69.47152156600001
 21
272.430047613
 31
0.0
  0
LINE
  5
30D
330
20
100
AcDbEntity
  8
3
  6
Continuous
 62
     4
100
AcDbLine
 10
67.05670699999998
 20
231.410765
 30
0.0
 11
67.05670699999998
 21
272.783
 31
0.0
  0
LINE
  5
30E
330
20
100
AcDbEntity
  8
3
  6
Continuous
 62
     4
100
AcDbLine
 10
82.55670699999999
 20
271.783
 30
0.0
 11
84.971521566
 21
271.1359523870001
 31
0.0
  0
LINE
  5
30F
330
20
100
AcDbEntity
  8
3
  6
Continuous
 62
     4
100
AcDbLine
 10
82.55670699999999
 20
271.783
 30
0.0
 11
84.971521566
 21
272.430047613
 31
0.0
  0
LINE
  5
310
330
20
100
AcDbEntity
  8
3
  6
Continuous
 62
     4
100
AcDbLine
 10
98.056707
 20
271.783
 30
0.0
 11
95.64189243399999
 21
272.430047613
 31
0.0
  0
LINE
  5
311
330
20
100
AcDbEntity
  8
3
  6
Continuous
 62
     4
100
AcDbLine
 10
98.056707
 20
271.783
 30
0.0
 11
95.64189243399999
 21
271.1359523870001
 31
0.0
  0
LINE
  5
312
330
20
100
AcDbEntity
  8
3
  6
Continuous
 62
     4
100
AcDbLine
 10
98.056707
 20
231.410765
 30
0.0
 11
98.056707
 21
272.783
 31
0.0
  0
LINE
  5
313
330
20
100
AcDbEntity
  8
3
  6
Continuous
 62
     4
100
AcDbLine
 10
83.156707
 20
118.010765
 30
0.0
 11
83.077880441
 21
115.512008034
 31
0.0
  0
LINE
  5
314
330
20
100
AcDbEntity
  8
3
  6
Continuous
 62
     4
100
AcDbLine
 10
83.156707
 20
118.010765
 30
0.0
 11
84.33781968099999
 21
115.807364711
 31
0.0
  0
LINE
  5
315
330
20
100
AcDbEntity
  8
3
  6
Continuous
 62
     4
100
AcDbLine
 10
83.156707
 20
118.010765
 30
0.0
 11
91.05670699999999
 21
84.31076500000001
 31
0.0
  0
TEXT
  5
316
330
20
100
AcDbEntity
  8
3
  6
Continuous
 62
     4
100
AcDbText
 10
47.656707
 20
272.783
 30
0.3
 40
5.0
  1
１５．５
  7
KANJI4
100
AcDbText
  0
TEXT
  5
317
330
20
100
AcDbEntity
  8
3
  6
Continuous
 62
     4
100
AcDbText
 10
100.556707
 20
272.783
 30
0.3
 40
5.0
  1
１５．５
  7
KANJI4
100
AcDbText
  0
TEXT
  5
318
330
20
100
AcDbEntity
  8
3
  6
Continuous
 62
     4
100
AcDbText
 10
105.609659387
 20
243.660765
 30
0.3
 40
5.0
  1
９．５
 50
90.0
  7
KANJI4
100
AcDbText
  0
TEXT
  5
319
330
20
100
AcDbEntity
  8
3
  6
Continuous
 62
     4
100
AcDbText
 10
106.156707
 20
103.560765
 30
0.3
 40
5.0
  1
９．５
 50
90.0
  7
KANJI4
100
AcDbText
  0
TEXT
  5
31A
330
20
100
AcDbEntity
  8
3
  6
Continuous
 62
     4
100
AcDbText
 10
91.05670699999999
 20
85.31076500000001
 30
0.3
 40
5.0
  1
２－φ３．５
  7
KANJI4
100
AcDbText
  0
LINE
  5
31B
330
20
100
AcDbEntity
  8
3
  6
Continuous
 62
     4
100
AcDbLine
 10
91.05670699999999
 20
84.31076500000001
 30
0.3
 11
123.656707
 21
84.31076500000001
 31
0.3
  0
LINE
  5
31C
330
20
100
AcDbEntity
  8
3
  6
Continuous
 62
     4
100
AcDbLine
 10
82.55670699999999
 20
271.783
 30
0.0
 11
121.356707
 21
271.783
 31
0.0
  0
TEXT
  5
31D
330
20
100
AcDbEntity
  8
3
  6
Continuous
 62
     4
100
AcDbText
 10
449.806707
 20
161.660765
 30
0.0
 40
5.099999999999999
  1
＋
  7
KANJI5
100
AcDbText
  0
TEXT
  5
31E
330
20
100
AcDbEntity
  8
3
  6
Continuous
 62
     4
100
AcDbText
 10
447.456707
 20
135.2107649999999
 30
0.0
 40
4.599999999999999
  1
－
  7
KANJI6
100
AcDbText
  0
TEXT
  5
31F
330
20
100
AcDbEntity
  8
3
  6
Continuous
 62
     4
100
AcDbText
 10
453.356707
 20
177.510765
 30
2.25
 40
4.9
  1
零調整
  7
KANJI7
100
AcDbText
  0
LINE
  5
320
330
20
100
AcDbEntity
  8
3
  6
Continuous
 62
     4
100
AcDbLine
 10
442.556707
 20
136.275099639
 30
2.25
 11
441.238523648
 21
134.150860327
 31
2.25
  0
LINE
  5
321
330
20
100
AcDbEntity
  8
3
  6
Continuous
 62
     4
100
AcDbLine
 10
442.556707
 20
136.275099639
 30
0.0
 11
442.477246386
 21
133.776362755
 31
0.0
  0
LINE
  5
322
330
20
100
AcDbEntity
  8
3
  6
Continuous
 62
     4
100
AcDbLine
 10
442.556707
 20
136.275099639
 30
0.0
 11
434.756707
 21
110.475099639
 31
0.0
  0
TEXT
  5
323
330
20
100
AcDbEntity
  8
3
  6
Continuous
 62
     4
100
AcDbText
 10
424.156707
 20
111.475099639
 30
0.3
 40
5.0
  1
Ｍ３
  7
KANJI4
100
AcDbText
  0
LINE
  5
324
330
20
100
AcDbEntity
  8
3
  6
Continuous
 62
     4
100
AcDbLine
 10
434.756707
 20
110.475099639
 30
0.3
 11
423.871521566
 21
110.475099639
 31
0.3
  0
LINE
  5
325
330
20
100
AcDbEntity
  8
3
  6
Continuous
 62
     4
100
AcDbLine
 10
394.756707
 20
311.110765
 30
0.0
 11
394.756707
 21
300.110765
 31
0.0
  0
LINE
  5
326
330
20
100
AcDbEntity
  8
3
  6
Continuous
 62
     4
100
AcDbLine
 10
394.756707
 20
301.110765
 30
0.0
 11
397.171521566
 21
300.463717387
 31
0.0
  0
LINE
  5
327
330
20
100
AcDbEntity
  8
3
  6
Continuous
 62
     4
100
AcDbLine
 10
394.756707
 20
301.110765
 30
0.0
 11
397.171521566
 21
301.757812613
 31
0.0
  0
LINE
  5
328
330
20
100
AcDbEntity
  8
3
  6
Continuous
 62
     4
100
AcDbLine
 10
394.756707
 20
301.110765
 30
0.0
 11
434.756707
 21
301.110765
 31
0.0
  0
LINE
  5
329
330
20
100
AcDbEntity
  8
3
  6
Continuous
 62
     4
100
AcDbLine
 10
434.756707
 20
301.110765
 30
0.0
 11
432.341892434
 21
301.757812613
 31
0.0
  0
LINE
  5
32A
330
20
100
AcDbEntity
  8
3
  6
Continuous
 62
     4
100
AcDbLine
 10
434.756707
 20
301.110765
 30
0.0
 11
432.341892434
 21
300.463717387
 31
0.0
  0
LINE
  5
32B
330
20
100
AcDbEntity
  8
3
  6
Continuous
 62
     4
100
AcDbLine
 10
434.756707
 20
311.110765
 30
0.0
 11
434.756707
 21
300.110765
 31
0.0
  0
LINE
  5
32C
330
20
100
AcDbEntity
  8
3
  6
Continuous
 62
     4
100
AcDbLine
 10
435.7567069999999
 20
342.110765
 30
0.0
 11
453.5567069999999
 21
342.110765
 31
0.0
  0
LINE
  5
32D
330
20
100
AcDbEntity
  8
3
  6
Continuous
 62
     4
100
AcDbLine
 10
452.556707
 20
342.110765
 30
0.0
 11
451.9096593869999
 21
339.695950434
 31
0.0
  0
LINE
  5
32E
330
20
100
AcDbEntity
  8
3
  6
Continuous
 62
     4
100
AcDbLine
 10
452.556707
 20
342.110765
 30
0.0
 11
453.203754613
 21
339.695950434
 31
0.0
  0
LINE
  5
32F
330
20
100
AcDbEntity
  8
3
  6
Continuous
 62
     4
100
AcDbLine
 10
452.556707
 20
342.110765
 30
0.0
 11
452.556707
 21
312.110765
 31
0.0
  0
LINE
  5
330
330
20
100
AcDbEntity
  8
3
  6
Continuous
 62
     4
100
AcDbLine
 10
452.556707
 20
312.110765
 30
0.0
 11
453.203754613
 21
314.525579566
 31
0.0
  0
LINE
  5
331
330
20
100
AcDbEntity
  8
3
  6
Continuous
 62
     4
100
AcDbLine
 10
452.556707
 20
312.110765
 30
0.0
 11
451.9096593869999
 21
314.525579566
 31
0.0
  0
LINE
  5
332
330
20
100
AcDbEntity
  8
3
  6
Continuous
 62
     4
100
AcDbLine
 10
435.7567069999999
 20
312.110765
 30
0.0
 11
453.5567069999999
 21
312.110765
 31
0.0
  0
LINE
  5
333
330
20
100
AcDbEntity
  8
3
  6
Continuous
 62
     4
100
AcDbLine
 10
330.056707
 20
368.410765
 30
0.0
 11
310.756707
 21
368.410765
 31
0.0
  0
LINE
  5
334
330
20
100
AcDbEntity
  8
3
  6
Continuous
 62
     4
100
AcDbLine
 10
311.756707
 20
368.410765
 30
0.0
 11
311.109659387
 21
365.995950434
 31
0.0
  0
LINE
  5
335
330
20
100
AcDbEntity
  8
3
  6
Continuous
 62
     4
100
AcDbLine
 10
311.756707
 20
368.410765
 30
0.0
 11
312.403754613
 21
365.995950434
 31
0.0
  0
LINE
  5
336
330
20
100
AcDbEntity
  8
3
  6
Continuous
 62
     4
100
AcDbLine
 10
311.756707
 20
368.410765
 30
0.0
 11
311.756707
 21
353.410765
 31
0.0
  0
LINE
  5
337
330
20
100
AcDbEntity
  8
3
  6
Continuous
 62
     4
100
AcDbLine
 10
311.756707
 20
353.410765
 30
0.0
 11
312.403754613
 21
355.825579566
 31
0.0
  0
LINE
  5
338
330
20
100
AcDbEntity
  8
3
  6
Continuous
 62
     4
100
AcDbLine
 10
311.756707
 20
353.410765
 30
0.0
 11
311.109659387
 21
355.825579566
 31
0.0
  0
LINE
  5
339
330
20
100
AcDbEntity
  8
3
  6
Continuous
 62
     4
100
AcDbLine
 10
330.056707
 20
353.410765
 30
0.0
 11
310.756707
 21
353.410765
 31
0.0
  0
TEXT
  5
33A
330
20
100
AcDbEntity
  8
3
  6
Continuous
 62
     4
100
AcDbText
 10
310.756707
 20
356.760765
 30
0.3
 40
4.0
  1
１５
 50
90.0
  7
KANJI3
100
AcDbText
  0
LINE
  5
33B
330
20
100
AcDbEntity
  8
3
  6
Continuous
 62
     4
100
AcDbLine
 10
435.7567069999999
 20
368.410765
 30
0.3
 11
453.5567069999999
 21
368.410765
 31
0.3
  0
LINE
  5
33C
330
20
100
AcDbEntity
  8
3
  6
Continuous
 62
     4
100
AcDbLine
 10
452.556707
 20
368.410765
 30
0.0
 11
453.203754613
 21
370.825579566
 31
0.0
  0
LINE
  5
33D
330
20
100
AcDbEntity
  8
3
  6
Continuous
 62
     4
100
AcDbLine
 10
452.556707
 20
368.410765
 30
0.0
 11
451.9096593869999
 21
370.825579566
 31
0.0
  0
LINE
  5
33E
330
20
100
AcDbEntity
  8
3
  6
Continuous
 62
     4
100
AcDbLine
 10
452.556707
 20
372.160765
 30
0.0
 11
452.556707
 21
368.410765
 31
0.0
  0
LWPOLYLINE
  5
33F
330
20
100
AcDbEntity
  8
3
  6
Continuous
 62
     4
100
AcDbPolyline
 90
        3
 70
     0
 43
0.0
 10
452.556707
 20
368.410765
 10
452.556707
 20
367.210765
 10
452.556707
 20
350.860765
  0
LINE
  5
344
330
20
100
AcDbEntity
  8
3
  6
Continuous
 62
     4
100
AcDbLine
 10
452.556707
 20
367.210765
 30
0.0
 11
451.9096593869999
 21
364.795950434
 31
0.0
  0
LINE
  5
345
330
20
100
AcDbEntity
  8
3
  6
Continuous
 62
     4
100
AcDbLine
 10
452.556707
 20
367.210765
 30
0.0
 11
453.203754613
 21
364.795950434
 31
0.0
  0
LINE
  5
346
330
20
100
AcDbEntity
  8
3
  6
Continuous
 62
     4
100
AcDbLine
 10
435.7567069999999
 20
367.210765
 30
0.0
 11
453.5567069999999
 21
367.210765
 31
0.0
  0
TEXT
  5
347
330
20
100
AcDbEntity
  8
3
  6
Continuous
 62
     4
100
AcDbText
 10
410.6067069999999
 20
302.110765
 30
0.3
 40
5.0
  1
４０
  7
KANJI4
100
AcDbText
  0
TEXT
  5
348
330
20
100
AcDbEntity
  8
3
  6
Continuous
 62
     4
100
AcDbText
 10
451.556707
 20
322.960765
 30
0.3
 40
5.0
  1
３０
 50
90.0
  7
KANJI4
100
AcDbText
  0
TEXT
  5
349
330
20
100
AcDbEntity
  8
3
  6
Continuous
 62
     4
100
AcDbText
 10
451.556707
 20
350.860765
 30
0.3
 40
5.0
  1
１．２
 50
90.0
  7
KANJI4
100
AcDbText
  0
LINE
  5
34A
330
20
100
AcDbEntity
  8
3
  6
Continuous
 62
     4
100
AcDbLine
 10
290.056707
 20
83.61076500000001
 30
0.3
 11
290.656707
 21
83.61076500000001
 31
0.3
  0
LINE
  5
34B
330
20
100
AcDbEntity
  8
3
  6
Continuous
 62
     4
100
AcDbLine
 10
289.656707
 20
83.61076500000001
 30
0.0
 11
289.009659387
 21
81.195950434
 31
0.0
  0
LINE
  5
34C
330
20
100
AcDbEntity
  8
3
  6
Continuous
 62
     4
100
AcDbLine
 10
289.656707
 20
83.61076500000001
 30
0.0
 11
290.303754613
 21
81.195950434
 31
0.0
  0
LINE
  5
34D
330
20
100
AcDbEntity
  8
3
  6
Continuous
 62
     4
100
AcDbLine
 10
289.656707
 20
94.41076499999999
 30
0.0
 11
289.656707
 21
73.610765
 31
0.0
  0
LINE
  5
34E
330
20
100
AcDbEntity
  8
3
  6
Continuous
 62
     4
100
AcDbLine
 10
289.656707
 20
73.610765
 30
0.0
 11
290.303754613
 21
76.025579566
 31
0.0
  0
LINE
  5
34F
330
20
100
AcDbEntity
  8
3
  6
Continuous
 62
     4
100
AcDbLine
 10
289.656707
 20
73.610765
 30
0.0
 11
289.009659387
 21
76.025579566
 31
0.0
  0
LINE
  5
350
330
20
100
AcDbEntity
  8
3
  6
Continuous
 62
     4
100
AcDbLine
 10
272.156707
 20
73.610765
 30
0.0
 11
290.656707
 21
73.610765
 31
0.0
  0
LINE
  5
351
330
20
100
AcDbEntity
  8
3
  6
Continuous
 62
     4
100
AcDbLine
 10
289.656707
 20
73.610765
 30
0.0
 11
289.009659387
 21
71.195950434
 31
0.0
  0
LINE
  5
352
330
20
100
AcDbEntity
  8
3
  6
Continuous
 62
     4
100
AcDbLine
 10
289.656707
 20
73.610765
 30
0.0
 11
290.303754613
 21
71.195950434
 31
0.0
  0
LWPOLYLINE
  5
353
330
20
100
AcDbEntity
  8
3
  6
Continuous
 62
     4
100
AcDbPolyline
 90
        3
 70
     0
 43
0.0
 10
289.656707
 20
73.610765
 10
289.656707
 20
63.610765
 10
290.303754613
 20
66.025579566
  0
LINE
  5
358
330
20
100
AcDbEntity
  8
3
  6
Continuous
 62
     4
100
AcDbLine
 10
289.656707
 20
63.610765
 30
0.0
 11
289.009659387
 21
66.025579566
 31
0.0
  0
LINE
  5
359
330
20
100
AcDbEntity
  8
3
  6
Continuous
 62
     4
100
AcDbLine
 10
272.156707
 20
63.610765
 30
0.0
 11
290.656707
 21
63.610765
 31
0.0
  0
LINE
  5
35A
330
20
100
AcDbEntity
  8
3
  6
Continuous
 62
     4
100
AcDbLine
 10
289.656707
 20
63.610765
 30
0.0
 11
289.009659387
 21
61.195950434
 31
0.0
  0
LINE
  5
35B
330
20
100
AcDbEntity
  8
3
  6
Continuous
 62
     4
100
AcDbLine
 10
289.656707
 20
63.610765
 30
0.0
 11
290.303754613
 21
61.195950434
 31
0.0
  0
LWPOLYLINE
  5
35C
330
20
100
AcDbEntity
  8
3
  6
Continuous
 62
     4
100
AcDbPolyline
 90
        3
 70
     0
 43
0.0
 10
289.656707
 20
63.610765
 10
289.656707
 20
53.610765
 10
290.303754613
 20
56.025579566
  0
LINE
  5
361
330
20
100
AcDbEntity
  8
3
  6
Continuous
 62
     4
100
AcDbLine
 10
289.656707
 20
53.610765
 30
0.0
 11
289.009659387
 21
56.025579566
 31
0.0
  0
LINE
  5
362
330
20
100
AcDbEntity
  8
3
  6
Continuous
 62
     4
100
AcDbLine
 10
289.956707
 20
53.610765
 30
0.0
 11
290.656707
 21
53.610765
 31
0.0
  0
LINE
  5
363
330
20
100
AcDbEntity
  8
3
  6
Continuous
 62
     4
100
AcDbLine
 10
270.756707
 20
74.910765
 30
0.0
 11
272.283354729
 21
76.890499
 31
0.0
  0
LINE
  5
364
330
20
100
AcDbEntity
  8
3
  6
Continuous
 62
     4
100
AcDbLine
 10
270.756707
 20
74.910765
 30
0.0
 11
271.088955716
 21
77.388588801
 31
0.0
  0
LINE
  5
365
330
20
100
AcDbEntity
  8
3
  6
Continuous
 62
     4
100
AcDbLine
 10
270.756707
 20
74.910765
 30
0.0
 11
280.556707
 21
98.41076499999999
 31
0.0
  0
TEXT
  5
366
330
20
100
AcDbEntity
  8
3
  6
Continuous
 62
     4
100
AcDbText
 10
288.656707
 20
86.11076500000001
 30
0.3
 40
5.0
  1
１０
 50
90.0
  7
KANJI4
100
AcDbText
  0
TEXT
  5
367
330
20
100
AcDbEntity
  8
3
  6
Continuous
 62
     4
100
AcDbText
 10
288.656707
 20
63.260765
 30
0.3
 40
5.0
  1
１０
 50
90.0
  7
KANJI4
100
AcDbText
  0
TEXT
  5
368
330
20
100
AcDbEntity
  8
3
  6
Continuous
 62
     4
100
AcDbText
 10
288.756707
 20
53.260765
 30
0.3
 40
5.0
  1
１０
 50
90.0
  7
KANJI4
100
AcDbText
  0
TEXT
  5
369
330
20
100
AcDbEntity
  8
3
  6
Continuous
 62
     4
100
AcDbText
 10
280.556707
 20
99.41076500000001
 30
0.3
 40
5.0
  1
４－Ｍ３タップ
  7
KANJI4
100
AcDbText
  0
LINE
  5
36A
330
20
100
AcDbEntity
  8
3
  6
Continuous
 62
     4
100
AcDbLine
 10
280.556707
 20
98.41076499999999
 30
0.3
 11
318.256707
 21
98.41076499999999
 31
0.3
  0
TEXT
  5
36B
330
20
100
AcDbEntity
  8
3
  6
Continuous
 62
     4
100
AcDbText
 10
318.676707
 20
322.670765
 30
0.0
 40
6.08
  1
パネル取付金具
 41
0.954887218
  7
KANJI8
100
AcDbText
  0
ENDSEC
  0
SECTION
  2
OBJECTS
  0
DICTIONARY
  5
C
330
0
100
AcDbDictionary
281
     1
  3
ACAD_COLOR
350
1B
  3
ACAD_GROUP
350
D
  3
ACAD_LAYOUT
350
19
  3
ACAD_MATERIAL
350
1A
  3
ACAD_MLINESTYLE
350
16
  3
ACAD_PLOTSETTINGS
350
18
  3
ACAD_PLOTSTYLENAME
350
E
  3
ACDBHEADERROUNDTRIPXREC
350
372
  3
AcDbVariableDictionary
350
36E
  0
DICTIONARY
  5
1B
102
{ACAD_REACTORS
330
C
102
}
330
C
100
AcDbDictionary
281
     1
  0
DICTIONARY
  5
D
102
{ACAD_REACTORS
330
C
102
}
330
C
100
AcDbDictionary
281
     1
  0
DICTIONARY
  5
19
102
{ACAD_REACTORS
330
C
102
}
330
C
100
AcDbDictionary
281
     1
  3
Model
350
23
  3
レイアウト1
350
1F
  0
DICTIONARY
  5
1A
102
{ACAD_REACTORS
330
C
102
}
330
C
100
AcDbDictionary
281
     1
  0
DICTIONARY
  5
16
102
{ACAD_REACTORS
330
C
102
}
330
C
100
AcDbDictionary
281
     1
  3
Standard
350
17
  0
DICTIONARY
  5
18
102
{ACAD_REACTORS
330
C
102
}
330
C
100
AcDbDictionary
281
     1
  0
ACDBDICTIONARYWDFLT
  5
E
102
{ACAD_REACTORS
330
C
102
}
330
C
100
AcDbDictionary
281
     1
  3
Normal
350
F
100
AcDbDictionaryWithDefault
340
F
  0
DICTIONARY
  5
372
102
{ACAD_REACTORS
330
C
102
}
330
C
100
AcDbDictionary
281
     1
  3
COLORDICT
350
374
  3
MATERIALDICT
350
373
  0
DICTIONARY
  5
36E
102
{ACAD_REACTORS
330
C
102
}
330
C
100
AcDbDictionary
281
     1
  3
DIMASSOC
350
36F
  3
PROJECTNAME
350
370
  0
LAYOUT
  5
23
102
{ACAD_XDICTIONARY
360
377
102
}
102
{ACAD_REACTORS
330
19
102
}
330
19
100
AcDbPlotSettings
  1

  2
hp psc 2500 series
  4

  6

 40
0.0
 41
0.0
 42
0.0
 43
0.0
 44
0.0
 45
0.0
 46
0.0
 47
0.0
 48
0.0
 49
0.0
140
0.0
141
0.0
142
1.0
143
1.0
 70
  1712
 72
     0
 73
     0
 74
     0
  7

 75
     0
147
1.0
148
0.0
149
0.0
100
AcDbLayout
  1
Model
 70
     1
 71
     0
 10
0.0
 20
0.0
 11
12.0
 21
9.0
 12
0.0
 22
0.0
 32
0.0
 14
0.0
 24
0.0
 34
0.0
 15
0.0
 25
0.0
 35
0.0
146
0.0
 13
0.0
 23
0.0
 33
0.0
 16
1.0
 26
0.0
 36
0.0
 17
0.0
 27
1.0
 37
0.0
 76
     0
330
20
  0
LAYOUT
  5
1F
102
{ACAD_XDICTIONARY
360
375
102
}
102
{ACAD_REACTORS
330
19
102
}
330
19
100
AcDbPlotSettings
  1

  2
hp psc 2500 series
  4

  6

 40
0.0
 41
0.0
 42
0.0
 43
0.0
 44
0.0
 45
0.0
 46
0.0
 47
0.0
 48
0.0
 49
0.0
140
0.0
141
0.0
142
1.0
143
1.0
 70
   688
 72
     0
 73
     0
 74
     5
  7

 75
    16
147
1.0
148
0.0
149
0.0
100
AcDbLayout
  1
レイアウト1
 70
     1
 71
     1
 10
0.0
 20
0.0
 11
12.0
 21
9.0
 12
0.0
 22
0.0
 32
0.0
 14
1.000000000000000E+20
 24
1.000000000000000E+20
 34
1.000000000000000E+20
 15
-1.000000000000000E+20
 25
-1.000000000000000E+20
 35
-1.000000000000000E+20
146
0.0
 13
0.0
 23
0.0
 33
0.0
 16
1.0
 26
0.0
 36
0.0
 17
0.0
 27
1.0
 37
0.0
 76
     0
330
1C
  0
MLINESTYLE
  5
17
102
{ACAD_REACTORS
330
16
102
}
330
16
100
AcDbMlineStyle
  2
STANDARD
 70
     0
  3

 62
   256
 51
90.0
 52
90.0
 71
     2
 49
0.5
 62
   256
  6
BYLAYER
 49
-0.5
 62
   256
  6
BYLAYER
  0
ACDBPLACEHOLDER
  5
F
102
{ACAD_REACTORS
330
E
102
}
330
E
  0
XRECORD
  5
374
102
{ACAD_REACTORS
330
372
102
}
330
372
100
AcDbXrecord
280
     1
340
1B
  0
XRECORD
  5
373
102
{ACAD_REACTORS
330
372
102
}
330
372
100
AcDbXrecord
280
     1
340
1A
  0
DICTIONARYVAR
  5
36F
102
{ACAD_REACTORS
330
36E
102
}
330
36E
100
DictionaryVariables
280
     0
  1
1
  0
DICTIONARYVAR
  5
370
102
{ACAD_REACTORS
330
36E
102
}
330
36E
100
DictionaryVariables
280
     0
  1

  0
DICTIONARY
  5
377
330
23
100
AcDbDictionary
280
     1
281
     1
  3
ACAD_XREC_ROUNDTRIP
360
378
  0
DICTIONARY
  5
375
330
1F
100
AcDbDictionary
280
     1
281
     1
  3
ACAD_XREC_ROUNDTRIP
360
376
  0
XRECORD
  5
378
102
{ACAD_REACTORS
330
377
102
}
330
377
100
AcDbXrecord
280
     1
102
SHADEPLOT
 70
     0
102
SHADEPLOTRESLEVEL
 70
     2
102
SHADEPLOTCUSTOMDPI
 70
   300
  0
XRECORD
  5
376
102
{ACAD_REACTORS
330
375
102
}
330
375
100
AcDbXrecord
280
     1
102
SHADEPLOT
 70
     0
102
SHADEPLOTRESLEVEL
 70
     2
102
SHADEPLOTCUSTOMDPI
 70
   300
  0
ENDSEC
  0
EOF
