  0
SECTION
  2
HEADER
  9
$ACADVER
  1
AC1015
  9
$ACADMAINTVER
 70
    20
  9
$DWGCODEPAGE
  3
ANSI_932
  9
$INSBASE
 10
0.0
 20
0.0
 30
0.0
  9
$EXTMIN
 10
41.72030782806723
 20
48.50097759685127
 30
-0.0015258207003583
  9
$EXTMAX
 10
468.7575085614311
 20
377.3629770024716
 30
2.250671424263479
  9
$LIMMIN
 10
0.0
 20
0.0
  9
$LIMMAX
 10
594.0
 20
420.0
  9
$ORTHOMODE
 70
     0
  9
$REGENMODE
 70
     1
  9
$FILLMODE
 70
     1
  9
$QTEXTMODE
 70
     0
  9
$MIRRTEXT
 70
     0
  9
$LTSCALE
 40
1.0
  9
$ATTMODE
 70
     1
  9
$TEXTSIZE
 40
0.2
  9
$TRACEWID
 40
0.05
  9
$TEXTSTYLE
  7
STANDARD
  9
$CLAYER
  8
0
  9
$CELTYPE
  6
CONTINUOUS
  9
$CECOLOR
 62
   256
  9
$CELTSCALE
 40
1.0
  9
$DISPSILH
 70
     0
  9
$DIMSCALE
 40
1.0
  9
$DIMASZ
 40
0.18
  9
$DIMEXO
 40
0.0625
  9
$DIMDLI
 40
0.38
  9
$DIMRND
 40
0.0
  9
$DIMDLE
 40
0.0
  9
$DIMEXE
 40
0.18
  9
$DIMTP
 40
0.0
  9
$DIMTM
 40
0.0
  9
$DIMTXT
 40
0.18
  9
$DIMCEN
 40
0.09
  9
$DIMTSZ
 40
0.0
  9
$DIMTOL
 70
     0
  9
$DIMLIM
 70
     0
  9
$DIMTIH
 70
     1
  9
$DIMTOH
 70
     1
  9
$DIMSE1
 70
     0
  9
$DIMSE2
 70
     0
  9
$DIMTAD
 70
     0
  9
$DIMZIN
 70
     0
  9
$DIMBLK
  1

  9
$DIMASO
 70
     1
  9
$DIMSHO
 70
     1
  9
$DIMPOST
  1

  9
$DIMAPOST
  1

  9
$DIMALT
 70
     0
  9
$DIMALTD
 70
     2
  9
$DIMALTF
 40
25.4
  9
$DIMLFAC
 40
1.0
  9
$DIMTOFL
 70
     0
  9
$DIMTVP
 40
0.0
  9
$DIMTIX
 70
     0
  9
$DIMSOXD
 70
     0
  9
$DIMSAH
 70
     0
  9
$DIMBLK1
  1

  9
$DIMBLK2
  1

  9
$DIMSTYLE
  2
Standard
  9
$DIMCLRD
 70
     0
  9
$DIMCLRE
 70
     0
  9
$DIMCLRT
 70
     0
  9
$DIMTFAC
 40
1.0
  9
$DIMGAP
 40
0.09
  9
$DIMJUST
 70
     0
  9
$DIMSD1
 70
     0
  9
$DIMSD2
 70
     0
  9
$DIMTOLJ
 70
     1
  9
$DIMTZIN
 70
     0
  9
$DIMALTZ
 70
     0
  9
$DIMALTTZ
 70
     0
  9
$DIMUPT
 70
     0
  9
$DIMDEC
 70
     4
  9
$DIMTDEC
 70
     4
  9
$DIMALTU
 70
     2
  9
$DIMALTTD
 70
     2
  9
$DIMTXSTY
  7
STANDARD
  9
$DIMAUNIT
 70
     0
  9
$DIMADEC
 70
     0
  9
$DIMALTRND
 40
0.0
  9
$DIMAZIN
 70
     0
  9
$DIMDSEP
 70
    46
  9
$DIMATFIT
 70
     3
  9
$DIMFRAC
 70
     0
  9
$DIMLDRBLK
  1

  9
$DIMLUNIT
 70
     2
  9
$DIMLWD
 70
    -2
  9
$DIMLWE
 70
    -2
  9
$DIMTMOVE
 70
     0
  9
$LUNITS
 70
     2
  9
$LUPREC
 70
     4
  9
$SKETCHINC
 40
0.1
  9
$FILLETRAD
 40
0.0
  9
$AUNITS
 70
     0
  9
$AUPREC
 70
     0
  9
$MENU
  1
.
  9
$ELEVATION
 40
0.0
  9
$PELEVATION
 40
0.0
  9
$THICKNESS
 40
0.0
  9
$LIMCHECK
 70
     0
  9
$CHAMFERA
 40
0.0
  9
$CHAMFERB
 40
0.0
  9
$CHAMFERC
 40
0.0
  9
$CHAMFERD
 40
0.0
  9
$SKPOLY
 70
     0
  9
$TDCREATE
 40
2453592.391847685
  9
$TDUCREATE
 40
2453592.016847685
  9
$TDUPDATE
 40
2453592.392202141
  9
$TDUUPDATE
 40
2453592.017202141
  9
$TDINDWG
 40
0.0003546412
  9
$TDUSRTIMER
 40
0.0003546412
  9
$USRTIMER
 70
     1
  9
$ANGBASE
 50
0.0
  9
$ANGDIR
 70
     0
  9
$PDMODE
 70
     0
  9
$PDSIZE
 40
0.0
  9
$PLINEWID
 40
0.0
  9
$SPLFRAME
 70
     0
  9
$SPLINETYPE
 70
     6
  9
$SPLINESEGS
 70
     8
  9
$HANDSEED
  5
3FD
  9
$SURFTAB1
 70
     6
  9
$SURFTAB2
 70
     6
  9
$SURFTYPE
 70
     6
  9
$SURFU
 70
     6
  9
$SURFV
 70
     6
  9
$UCSBASE
  2

  9
$UCSNAME
  2

  9
$UCSORG
 10
0.0
 20
0.0
 30
0.0
  9
$UCSXDIR
 10
1.0
 20
0.0
 30
0.0
  9
$UCSYDIR
 10
0.0
 20
1.0
 30
0.0
  9
$UCSORTHOREF
  2

  9
$UCSORTHOVIEW
 70
     0
  9
$UCSORGTOP
 10
0.0
 20
0.0
 30
0.0
  9
$UCSORGBOTTOM
 10
0.0
 20
0.0
 30
0.0
  9
$UCSORGLEFT
 10
0.0
 20
0.0
 30
0.0
  9
$UCSORGRIGHT
 10
0.0
 20
0.0
 30
0.0
  9
$UCSORGFRONT
 10
0.0
 20
0.0
 30
0.0
  9
$UCSORGBACK
 10
0.0
 20
0.0
 30
0.0
  9
$PUCSBASE
  2

  9
$PUCSNAME
  2

  9
$PUCSORG
 10
0.0
 20
0.0
 30
0.0
  9
$PUCSXDIR
 10
1.0
 20
0.0
 30
0.0
  9
$PUCSYDIR
 10
0.0
 20
1.0
 30
0.0
  9
$PUCSORTHOREF
  2

  9
$PUCSORTHOVIEW
 70
     0
  9
$PUCSORGTOP
 10
0.0
 20
0.0
 30
0.0
  9
$PUCSORGBOTTOM
 10
0.0
 20
0.0
 30
0.0
  9
$PUCSORGLEFT
 10
0.0
 20
0.0
 30
0.0
  9
$PUCSORGRIGHT
 10
0.0
 20
0.0
 30
0.0
  9
$PUCSORGFRONT
 10
0.0
 20
0.0
 30
0.0
  9
$PUCSORGBACK
 10
0.0
 20
0.0
 30
0.0
  9
$USERI1
 70
     0
  9
$USERI2
 70
     0
  9
$USERI3
 70
     0
  9
$USERI4
 70
     0
  9
$USERI5
 70
     0
  9
$USERR1
 40
0.0
  9
$USERR2
 40
0.0
  9
$USERR3
 40
0.0
  9
$USERR4
 40
0.0
  9
$USERR5
 40
0.0
  9
$WORLDVIEW
 70
     1
  9
$SHADEDGE
 70
     3
  9
$SHADEDIF
 70
    70
  9
$TILEMODE
 70
     1
  9
$MAXACTVP
 70
    64
  9
$PINSBASE
 10
0.0
 20
0.0
 30
0.0
  9
$PLIMCHECK
 70
     0
  9
$PEXTMIN
 10
1.000000000000000E+20
 20
1.000000000000000E+20
 30
1.000000000000000E+20
  9
$PEXTMAX
 10
-1.000000000000000E+20
 20
-1.000000000000000E+20
 30
-1.000000000000000E+20
  9
$PLIMMIN
 10
0.0
 20
0.0
  9
$PLIMMAX
 10
12.0
 20
9.0
  9
$UNITMODE
 70
     0
  9
$VISRETAIN
 70
     1
  9
$PLINEGEN
 70
     0
  9
$PSLTSCALE
 70
     1
  9
$TREEDEPTH
 70
  3020
  9
$CMLSTYLE
  2
Standard
  9
$CMLJUST
 70
     0
  9
$CMLSCALE
 40
1.0
  9
$PROXYGRAPHICS
 70
     1
  9
$MEASUREMENT
 70
     0
  9
$CELWEIGHT
370
    -1
  9
$ENDCAPS
280
     0
  9
$JOINSTYLE
280
     0
  9
$LWDISPLAY
290
     0
  9
$INSUNITS
 70
     0
  9
$HYPERLINKBASE
  1

  9
$STYLESHEET
  1

  9
$XEDIT
290
     1
  9
$CEPSNTYPE
380
     0
  9
$PSTYLEMODE
290
     1
  9
$FINGERPRINTGUID
  2
{B299A040-7E24-4C20-9833-84D8696C3514}
  9
$VERSIONGUID
  2
{D101999B-32C6-4013-85D2-35463B12225F}
  9
$EXTNAMES
290
     1
  9
$PSVPSCALE
 40
0.0
  9
$OLESTARTUP
290
     0
  0
ENDSEC
  0
SECTION
  2
CLASSES
  0
CLASS
  1
ACDBDICTIONARYWDFLT
  2
AcDbDictionaryWithDefault
  3
ObjectDBX Classes
 90
        0
280
     0
281
     0
  0
CLASS
  1
DICTIONARYVAR
  2
AcDbDictionaryVar
  3
ObjectDBX Classes
 90
        0
280
     0
281
     0
  0
CLASS
  1
ACDBPLACEHOLDER
  2
AcDbPlaceHolder
  3
ObjectDBX Classes
 90
        0
280
     0
281
     0
  0
CLASS
  1
LAYOUT
  2
AcDbLayout
  3
ObjectDBX Classes
 90
        0
280
     0
281
     0
  0
ENDSEC
  0
SECTION
  2
TABLES
  0
TABLE
  2
VPORT
  5
8
330
0
100
AcDbSymbolTable
 70
     2
  0
VPORT
  5
3F5
330
8
100
AcDbSymbolTableRecord
100
AcDbViewportTableRecord
  2
*Active
 70
     0
 10
0.0
 20
0.0
 11
1.0
 21
1.0
 12
296.9999999999999
 22
210.0
 13
0.0
 23
0.0
 14
1.0
 24
1.0
 15
0.0
 25
0.0
 16
0.0
 26
0.0
 36
1.0
 17
0.0
 27
0.0
 37
0.0
 40
424.7279549718574
 41
1.785714285714285
 42
50.0
 43
0.0
 44
0.0
 50
0.0
 51
0.0
 71
     0
 72
   100
 73
     1
 74
     1
 75
     0
 76
     0
 77
     0
 78
     0
281
     0
 65
     1
110
0.0
120
0.0
130
0.0
111
1.0
121
0.0
131
0.0
112
0.0
122
1.0
132
0.0
 79
     0
146
0.0
  0
ENDTAB
  0
TABLE
  2
LTYPE
  5
5
330
0
100
AcDbSymbolTable
 70
     2
  0
LTYPE
  5
13
330
5
100
AcDbSymbolTableRecord
100
AcDbLinetypeTableRecord
  2
ByBlock
 70
     0
  3

 72
    65
 73
     0
 40
0.0
  0
LTYPE
  5
14
330
5
100
AcDbSymbolTableRecord
100
AcDbLinetypeTableRecord
  2
ByLayer
 70
     0
  3

 72
    65
 73
     0
 40
0.0
  0
LTYPE
  5
15
330
5
100
AcDbSymbolTableRecord
100
AcDbLinetypeTableRecord
  2
CONTINUOUS
 70
     0
  3
Solid line
 72
    65
 73
     0
 40
0.0
  0
LTYPE
  5
24
330
5
100
AcDbSymbolTableRecord
100
AcDbLinetypeTableRecord
  2
LTYPE1
 70
     0
  3
CENTER
 72
    65
 73
     4
 40
15.0
 49
10.5
 74
     0
 49
-1.5
 74
     0
 49
1.5
 74
     0
 49
-1.5
 74
     0
  0
ENDTAB
  0
TABLE
  2
LAYER
  5
2
330
0
100
AcDbSymbolTable
 70
   128
  0
LAYER
  5
10
330
2
100
AcDbSymbolTableRecord
100
AcDbLayerTableRecord
  2
0
 70
     0
 62
     7
  6
CONTINUOUS
370
    -3
390
F
  0
LAYER
  5
25
330
2
100
AcDbSymbolTableRecord
100
AcDbLayerTableRecord
  2
2
 70
     0
 62
     7
  6
CONTINUOUS
370
    -3
390
F
  0
LAYER
  5
26
330
2
100
AcDbSymbolTableRecord
100
AcDbLayerTableRecord
  2
3
 70
     0
 62
     7
  6
CONTINUOUS
370
    -3
390
F
  0
ENDTAB
  0
TABLE
  2
STYLE
  5
3
330
0
100
AcDbSymbolTable
 70
    16
  0
STYLE
  5
11
330
3
100
AcDbSymbolTableRecord
100
AcDbTextStyleTableRecord
  2
STANDARD
 70
     0
 40
0.0
 41
1.0
 50
0.0
 71
     0
 42
0.2
  3
txt
  4

  0
STYLE
  5
A4
330
3
100
AcDbSymbolTableRecord
100
AcDbTextStyleTableRecord
  2
KANJI0
 70
     0
 40
2.7
 41
0.87037037
 50
0.0
 71
     0
 42
2.7
  3

  4
bigfont
  0
STYLE
  5
A5
330
3
100
AcDbSymbolTableRecord
100
AcDbTextStyleTableRecord
  2
KANJI1
 70
     0
 40
2.64
 41
1.0
 50
0.0
 71
     0
 42
2.64
  3

  4
bigfont
  0
STYLE
  5
A6
330
3
100
AcDbSymbolTableRecord
100
AcDbTextStyleTableRecord
  2
KANJI2
 70
     0
 40
5.7
 41
1.0
 50
0.0
 71
     0
 42
5.7
  3

  4
bigfont
  0
STYLE
  5
A7
330
3
100
AcDbSymbolTableRecord
100
AcDbTextStyleTableRecord
  2
KANJI3
 70
     0
 40
6.5
 41
1.0
 50
0.0
 71
     0
 42
6.5
  3

  4
bigfont
  0
STYLE
  5
A8
330
3
100
AcDbSymbolTableRecord
100
AcDbTextStyleTableRecord
  2
KANJI4
 70
     0
 40
6.299999999999999
 41
1.0
 50
0.0
 71
     0
 42
6.299999999999999
  3

  4
bigfont
  0
STYLE
  5
A9
330
3
100
AcDbSymbolTableRecord
100
AcDbTextStyleTableRecord
  2
KANJI5
 70
     0
 40
4.4
 41
1.0
 50
0.0
 71
     0
 42
4.4
  3

  4
bigfont
  0
STYLE
  5
AA
330
3
100
AcDbSymbolTableRecord
100
AcDbTextStyleTableRecord
  2
KANJI6
 70
     0
 40
4.299999999999999
 41
1.0
 50
0.0
 71
     0
 42
4.299999999999999
  3

  4
bigfont
  0
STYLE
  5
AB
330
3
100
AcDbSymbolTableRecord
100
AcDbTextStyleTableRecord
  2
KANJI7
 70
     0
 40
3.9
 41
1.0
 50
0.0
 71
     0
 42
3.9
  3

  4
bigfont
  0
STYLE
  5
AC
330
3
100
AcDbSymbolTableRecord
100
AcDbTextStyleTableRecord
  2
KANJI8
 70
     0
 40
4.0
 41
1.0
 50
0.0
 71
     0
 42
4.0
  3

  4
bigfont
  0
STYLE
  5
AD
330
3
100
AcDbSymbolTableRecord
100
AcDbTextStyleTableRecord
  2
KANJI9
 70
     0
 40
5.0
 41
1.0
 50
0.0
 71
     0
 42
5.0
  3

  4
bigfont
  0
STYLE
  5
AE
330
3
100
AcDbSymbolTableRecord
100
AcDbTextStyleTableRecord
  2
KANJI10
 70
     4
 40
5.099999999999999
 41
1.0
 50
0.0
 71
     0
 42
5.099999999999999
  3

  4
bigfont
  0
STYLE
  5
AF
330
3
100
AcDbSymbolTableRecord
100
AcDbTextStyleTableRecord
  2
KANJI11
 70
     0
 40
4.599999999999999
 41
1.0
 50
0.0
 71
     0
 42
4.599999999999999
  3

  4
bigfont
  0
STYLE
  5
B0
330
3
100
AcDbSymbolTableRecord
100
AcDbTextStyleTableRecord
  2
KANJI12
 70
     0
 40
4.9
 41
1.0
 50
0.0
 71
     0
 42
4.9
  3

  4
bigfont
  0
STYLE
  5
B1
330
3
100
AcDbSymbolTableRecord
100
AcDbTextStyleTableRecord
  2
KANJI13
 70
     0
 40
6.08
 41
0.954887218
 50
0.0
 71
     0
 42
6.08
  3

  4
bigfont
  0
STYLE
  5
B2
330
3
100
AcDbSymbolTableRecord
100
AcDbTextStyleTableRecord
  2
KANJI14
 70
     0
 40
8.039999999999999
 41
0.7174129350000001
 50
0.0
 71
     0
 42
8.039999999999999
  3

  4
bigfont
  0
ENDTAB
  0
TABLE
  2
VIEW
  5
6
330
0
100
AcDbSymbolTable
 70
     0
  0
ENDTAB
  0
TABLE
  2
UCS
  5
7
330
0
100
AcDbSymbolTable
 70
     0
  0
ENDTAB
  0
TABLE
  2
APPID
  5
9
330
0
100
AcDbSymbolTable
 70
     1
  0
APPID
  5
12
330
9
100
AcDbSymbolTableRecord
100
AcDbRegAppTableRecord
  2
ACAD
 70
     0
  0
ENDTAB
  0
TABLE
  2
DIMSTYLE
  5
A
330
0
100
AcDbSymbolTable
 70
     1
100
AcDbDimStyleTable
 71
     0
  0
DIMSTYLE
105
3F0
330
A
100
AcDbSymbolTableRecord
100
AcDbDimStyleTableRecord
  2
Standard
 70
     0
340
11
  0
ENDTAB
  0
TABLE
  2
BLOCK_RECORD
  5
1
330
0
100
AcDbSymbolTable
 70
     0
  0
BLOCK_RECORD
  5
20
330
1
100
AcDbSymbolTableRecord
100
AcDbBlockTableRecord
  2
*Model_Space
340
23
  0
BLOCK_RECORD
  5
1C
330
1
100
AcDbSymbolTableRecord
100
AcDbBlockTableRecord
  2
*Paper_Space
340
1F
  0
ENDTAB
  0
ENDSEC
  0
SECTION
  2
BLOCKS
  0
BLOCK
  5
21
330
20
100
AcDbEntity
  8
0
100
AcDbBlockBegin
  2
*Model_Space
 70
     0
 10
0.0
 20
0.0
 30
0.0
  3
*Model_Space
  1

  0
ENDBLK
  5
22
330
20
100
AcDbEntity
  8
0
100
AcDbBlockEnd
  0
BLOCK
  5
1D
330
1C
100
AcDbEntity
 67
     1
  8
0
100
AcDbBlockBegin
  2
*Paper_Space
 70
     0
 10
0.0
 20
0.0
 30
0.0
  3
*Paper_Space
  1

  0
ENDBLK
  5
1E
330
1C
100
AcDbEntity
 67
     1
  8
0
100
AcDbBlockEnd
  0
ENDSEC
  0
SECTION
  2
ENTITIES
  0
LINE
  5
B6
330
20
100
AcDbEntity
  8
0
  6
Continuous
 62
     3
100
AcDbLine
 10
357.756707
 20
134.810765
 30
0.0
 11
357.756707
 21
234.810765
 31
0.0
  0
ARC
  5
B7
330
20
100
AcDbEntity
  8
0
  6
Continuous
 62
     3
100
AcDbCircle
 10
314.756707
 20
184.810765
 30
0.0
 40
100.0
100
AcDbArc
 50
150.0
 51
210.0
  0
LINE
  5
B8
330
20
100
AcDbEntity
  8
0
  6
Continuous
 62
     3
100
AcDbLine
 10
357.756707
 20
234.810765
 30
0.0
 11
228.154166622
 21
234.810765
 31
0.0
  0
LINE
  5
B9
330
20
100
AcDbEntity
  8
0
  6
Continuous
 62
     3
100
AcDbLine
 10
228.154166622
 20
134.810765
 30
0.0
 11
357.756707
 21
134.810765
 31
0.0
  0
ARC
  5
BA
330
20
100
AcDbEntity
  8
0
  6
Continuous
 62
     3
100
AcDbCircle
 10
314.756707
 20
184.810765
 30
0.0
 40
99.0
100
AcDbArc
 50
150.333579967
 51
209.666420033
  0
LINE
  5
BB
330
20
100
AcDbEntity
  8
0
  6
Continuous
 62
     3
100
AcDbLine
 10
354.756707
 20
233.810765
 30
0.0
 11
228.73345433
 21
233.810765
 31
0.0
  0
LWPOLYLINE
  5
BC
330
20
100
AcDbEntity
  8
0
  6
Continuous
 62
     3
100
AcDbPolyline
 90
        3
 70
     0
 43
0.0
 10
228.73345433
 20
135.810765
 10
354.756707
 20
135.810765
 10
354.756707
 20
233.810765
  0
LINE
  5
C1
330
20
100
AcDbEntity
  8
0
  6
Continuous
 62
     3
100
AcDbLine
 10
357.756707
 20
227.310765
 30
0.0
 11
372.756707
 21
227.310765
 31
0.0
  0
LINE
  5
C2
330
20
100
AcDbEntity
  8
0
  6
Continuous
 62
     3
100
AcDbLine
 10
372.756707
 20
227.310765
 30
0.0
 11
372.756707
 21
225.310765
 31
0.0
  0
LINE
  5
C3
330
20
100
AcDbEntity
  8
0
  6
Continuous
 62
     3
100
AcDbLine
 10
372.756707
 20
225.310765
 30
0.0
 11
368.756707
 21
225.310765
 31
0.0
  0
LINE
  5
C4
330
20
100
AcDbEntity
  8
0
  6
Continuous
 62
     3
100
AcDbLine
 10
368.756707
 20
225.310765
 30
0.0
 11
368.756707
 21
216.160765
 31
0.0
  0
LINE
  5
C5
330
20
100
AcDbEntity
  8
0
  6
Continuous
 62
     3
100
AcDbLine
 10
368.756707
 20
216.160765
 30
0.0
 11
372.756707
 21
216.160765
 31
0.0
  0
LINE
  5
C6
330
20
100
AcDbEntity
  8
0
  6
Continuous
 62
     3
100
AcDbLine
 10
372.756707
 20
216.160765
 30
0.0
 11
372.756707
 21
214.160765
 31
0.0
  0
LINE
  5
C7
330
20
100
AcDbEntity
  8
0
  6
Continuous
 62
     3
100
AcDbLine
 10
372.756707
 20
214.160765
 30
0.0
 11
368.756707
 21
214.160765
 31
0.0
  0
LINE
  5
C8
330
20
100
AcDbEntity
  8
0
  6
Continuous
 62
     3
100
AcDbLine
 10
368.756707
 20
214.160765
 30
0.0
 11
368.756707
 21
206.010765
 31
0.0
  0
LINE
  5
C9
330
20
100
AcDbEntity
  8
0
  6
Continuous
 62
     3
100
AcDbLine
 10
368.756707
 20
206.010765
 30
0.0
 11
372.756707
 21
206.010765
 31
0.0
  0
LINE
  5
CA
330
20
100
AcDbEntity
  8
0
  6
Continuous
 62
     3
100
AcDbLine
 10
372.756707
 20
206.010765
 30
0.0
 11
372.756707
 21
204.010765
 31
0.0
  0
LINE
  5
CB
330
20
100
AcDbEntity
  8
0
  6
Continuous
 62
     3
100
AcDbLine
 10
372.756707
 20
204.010765
 30
0.0
 11
368.756707
 21
204.010765
 31
0.0
  0
LINE
  5
CC
330
20
100
AcDbEntity
  8
0
  6
Continuous
 62
     3
100
AcDbLine
 10
368.756707
 20
204.010765
 30
0.0
 11
368.756707
 21
195.860765
 31
0.0
  0
LINE
  5
CD
330
20
100
AcDbEntity
  8
0
  6
Continuous
 62
     3
100
AcDbLine
 10
368.756707
 20
195.860765
 30
0.0
 11
372.756707
 21
195.860765
 31
0.0
  0
LINE
  5
CE
330
20
100
AcDbEntity
  8
0
  6
Continuous
 62
     3
100
AcDbLine
 10
372.756707
 20
195.860765
 30
0.0
 11
372.756707
 21
193.860765
 31
0.0
  0
LINE
  5
CF
330
20
100
AcDbEntity
  8
0
  6
Continuous
 62
     3
100
AcDbLine
 10
372.756707
 20
193.860765
 30
0.0
 11
368.756707
 21
193.860765
 31
0.0
  0
LINE
  5
D0
330
20
100
AcDbEntity
  8
0
  6
Continuous
 62
     3
100
AcDbLine
 10
368.756707
 20
193.860765
 30
0.0
 11
368.756707
 21
185.710765
 31
0.0
  0
LINE
  5
D1
330
20
100
AcDbEntity
  8
0
  6
Continuous
 62
     3
100
AcDbLine
 10
368.756707
 20
185.710765
 30
0.0
 11
372.756707
 21
185.710765
 31
0.0
  0
LINE
  5
D2
330
20
100
AcDbEntity
  8
0
  6
Continuous
 62
     3
100
AcDbLine
 10
372.756707
 20
185.710765
 30
0.0
 11
372.756707
 21
183.710765
 31
0.0
  0
LINE
  5
D3
330
20
100
AcDbEntity
  8
0
  6
Continuous
 62
     3
100
AcDbLine
 10
372.756707
 20
183.710765
 30
0.0
 11
368.756707
 21
183.710765
 31
0.0
  0
LINE
  5
D4
330
20
100
AcDbEntity
  8
0
  6
Continuous
 62
     3
100
AcDbLine
 10
368.756707
 20
183.710765
 30
0.0
 11
368.756707
 21
175.560765
 31
0.0
  0
LINE
  5
D5
330
20
100
AcDbEntity
  8
0
  6
Continuous
 62
     3
100
AcDbLine
 10
368.756707
 20
175.560765
 30
0.0
 11
372.756707
 21
175.560765
 31
0.0
  0
LINE
  5
D6
330
20
100
AcDbEntity
  8
0
  6
Continuous
 62
     3
100
AcDbLine
 10
372.756707
 20
175.560765
 30
0.0
 11
372.756707
 21
173.560765
 31
0.0
  0
LINE
  5
D7
330
20
100
AcDbEntity
  8
0
  6
Continuous
 62
     3
100
AcDbLine
 10
372.756707
 20
173.560765
 30
0.0
 11
368.756707
 21
173.560765
 31
0.0
  0
LINE
  5
D8
330
20
100
AcDbEntity
  8
0
  6
Continuous
 62
     3
100
AcDbLine
 10
368.756707
 20
173.560765
 30
0.0
 11
368.756707
 21
165.410765
 31
0.0
  0
LINE
  5
D9
330
20
100
AcDbEntity
  8
0
  6
Continuous
 62
     3
100
AcDbLine
 10
368.756707
 20
165.410765
 30
0.0
 11
372.756707
 21
165.410765
 31
0.0
  0
LINE
  5
DA
330
20
100
AcDbEntity
  8
0
  6
Continuous
 62
     3
100
AcDbLine
 10
372.756707
 20
165.410765
 30
0.0
 11
372.756707
 21
163.410765
 31
0.0
  0
LINE
  5
DB
330
20
100
AcDbEntity
  8
0
  6
Continuous
 62
     3
100
AcDbLine
 10
372.756707
 20
163.410765
 30
0.0
 11
368.756707
 21
163.410765
 31
0.0
  0
LINE
  5
DC
330
20
100
AcDbEntity
  8
0
  6
Continuous
 62
     3
100
AcDbLine
 10
368.756707
 20
163.410765
 30
0.0
 11
368.756707
 21
155.260765
 31
0.0
  0
LINE
  5
DD
330
20
100
AcDbEntity
  8
0
  6
Continuous
 62
     3
100
AcDbLine
 10
368.756707
 20
155.260765
 30
0.0
 11
372.756707
 21
155.260765
 31
0.0
  0
LINE
  5
DE
330
20
100
AcDbEntity
  8
0
  6
Continuous
 62
     3
100
AcDbLine
 10
372.756707
 20
155.260765
 30
0.0
 11
372.756707
 21
153.260765
 31
0.0
  0
LINE
  5
DF
330
20
100
AcDbEntity
  8
0
  6
Continuous
 62
     3
100
AcDbLine
 10
372.756707
 20
153.260765
 30
0.0
 11
368.756707
 21
153.260765
 31
0.0
  0
LINE
  5
E0
330
20
100
AcDbEntity
  8
0
  6
Continuous
 62
     3
100
AcDbLine
 10
368.756707
 20
153.260765
 30
0.0
 11
368.756707
 21
144.110765
 31
0.0
  0
LINE
  5
E1
330
20
100
AcDbEntity
  8
0
  6
Continuous
 62
     3
100
AcDbLine
 10
368.756707
 20
144.110765
 30
0.0
 11
372.756707
 21
144.110765
 31
0.0
  0
LINE
  5
E2
330
20
100
AcDbEntity
  8
0
  6
Continuous
 62
     3
100
AcDbLine
 10
372.756707
 20
144.110765
 30
0.0
 11
372.756707
 21
142.110765
 31
0.0
  0
LINE
  5
E3
330
20
100
AcDbEntity
  8
0
  6
Continuous
 62
     3
100
AcDbLine
 10
372.756707
 20
142.110765
 30
0.0
 11
357.756707
 21
142.110765
 31
0.0
  0
CIRCLE
  5
E4
330
20
100
AcDbEntity
  8
0
  6
Continuous
 62
     3
100
AcDbCircle
 10
259.756707
 20
227.810765
 30
0.0
 40
1.199999999999999
  0
CIRCLE
  5
E5
330
20
100
AcDbEntity
  8
0
  6
Continuous
 62
     3
100
AcDbCircle
 10
271.756707
 20
227.810765
 30
0.0
 40
2.0
  0
CIRCLE
  5
E6
330
20
100
AcDbEntity
  8
0
  6
Continuous
 62
     3
100
AcDbCircle
 10
259.756707
 20
141.810765
 30
0.0
 40
1.199999999999999
  0
CIRCLE
  5
E7
330
20
100
AcDbEntity
  8
0
  6
Continuous
 62
     3
100
AcDbCircle
 10
271.756707
 20
141.810765
 30
0.0
 40
2.0
  0
CIRCLE
  5
E8
330
20
100
AcDbEntity
  8
0
  6
Continuous
 62
     3
100
AcDbCircle
 10
348.056707
 20
228.110765
 30
0.0
 40
2.799999999999999
  0
LINE
  5
E9
330
20
100
AcDbEntity
  8
0
  6
Continuous
 62
     3
100
AcDbLine
 10
346.256707
 20
227.810765
 30
0.0
 11
346.256707
 21
228.410765
 31
0.0
  0
LINE
  5
EA
330
20
100
AcDbEntity
  8
0
  6
Continuous
 62
     3
100
AcDbLine
 10
347.756707
 20
229.910765
 30
0.0
 11
348.356707
 21
229.910765
 31
0.0
  0
LINE
  5
EB
330
20
100
AcDbEntity
  8
0
  6
Continuous
 62
     3
100
AcDbLine
 10
349.856707
 20
227.810765
 30
0.0
 11
349.856707
 21
228.410765
 31
0.0
  0
LINE
  5
EC
330
20
100
AcDbEntity
  8
0
  6
Continuous
 62
     3
100
AcDbLine
 10
347.756707
 20
226.310765
 30
0.0
 11
348.356707
 21
226.310765
 31
0.0
  0
LINE
  5
ED
330
20
100
AcDbEntity
  8
0
  6
Continuous
 62
     3
100
AcDbLine
 10
349.856707
 20
227.810765
 30
0.0
 11
349.256707
 21
227.810765
 31
0.0
  0
LINE
  5
EE
330
20
100
AcDbEntity
  8
0
  6
Continuous
 62
     3
100
AcDbLine
 10
348.356707
 20
226.310765
 30
0.0
 11
348.356707
 21
226.910765
 31
0.0
  0
LINE
  5
EF
330
20
100
AcDbEntity
  8
0
  6
Continuous
 62
     3
100
AcDbLine
 10
347.756707
 20
226.310765
 30
0.0
 11
347.756707
 21
226.910765
 31
0.0
  0
LINE
  5
F0
330
20
100
AcDbEntity
  8
0
  6
Continuous
 62
     3
100
AcDbLine
 10
346.256707
 20
228.410765
 30
0.0
 11
346.856707
 21
228.410765
 31
0.0
  0
LINE
  5
F1
330
20
100
AcDbEntity
  8
0
  6
Continuous
 62
     3
100
AcDbLine
 10
348.356707
 20
229.910765
 30
0.0
 11
348.356707
 21
229.310765
 31
0.0
  0
LINE
  5
F2
330
20
100
AcDbEntity
  8
0
  6
Continuous
 62
     3
100
AcDbLine
 10
349.856707
 20
227.810765
 30
0.0
 11
349.256707
 21
227.810765
 31
0.0
  0
LINE
  5
F3
330
20
100
AcDbEntity
  8
0
  6
Continuous
 62
     3
100
AcDbLine
 10
349.856707
 20
228.410765
 30
0.0
 11
349.256707
 21
228.410765
 31
0.0
  0
LINE
  5
F4
330
20
100
AcDbEntity
  8
0
  6
Continuous
 62
     3
100
AcDbLine
 10
347.756707
 20
229.910765
 30
0.0
 11
347.756707
 21
229.310765
 31
0.0
  0
LINE
  5
F5
330
20
100
AcDbEntity
  8
0
  6
Continuous
 62
     3
100
AcDbLine
 10
346.256707
 20
227.810765
 30
0.0
 11
346.856707
 21
227.810765
 31
0.0
  0
ARC
  5
F6
330
20
100
AcDbEntity
  8
0
  6
Continuous
 62
     3
100
AcDbCircle
 10
349.156707
 20
229.210765
 30
0.0
 40
0.8
100
AcDbArc
 50
172.3
 51
277.7
  0
ARC
  5
F7
330
20
100
AcDbEntity
  8
0
  6
Continuous
 62
     3
100
AcDbCircle
 10
346.956707
 20
229.210765
 30
0.0
 40
0.8
100
AcDbArc
 50
262.3
 51
7.699999999999999
  0
ARC
  5
F8
330
20
100
AcDbEntity
  8
0
  6
Continuous
 62
     3
100
AcDbCircle
 10
346.956707
 20
227.010765
 30
0.0
 40
0.8
100
AcDbArc
 50
352.3
 51
97.70000000000001
  0
ARC
  5
F9
330
20
100
AcDbEntity
  8
0
  6
Continuous
 62
     3
100
AcDbCircle
 10
349.156707
 20
227.010765
 30
0.0
 40
0.8
100
AcDbArc
 50
82.3
 51
187.7
  0
CIRCLE
  5
FA
330
20
100
AcDbEntity
  8
0
  6
Continuous
 62
     3
100
AcDbCircle
 10
348.056707
 20
141.510765
 30
0.0
 40
2.799999999999999
  0
LINE
  5
FB
330
20
100
AcDbEntity
  8
0
  6
Continuous
 62
     3
100
AcDbLine
 10
346.256707
 20
141.810765
 30
0.0
 11
346.256707
 21
141.210765
 31
0.0
  0
LINE
  5
FC
330
20
100
AcDbEntity
  8
0
  6
Continuous
 62
     3
100
AcDbLine
 10
347.756707
 20
139.710765
 30
0.0
 11
348.356707
 21
139.710765
 31
0.0
  0
LINE
  5
FD
330
20
100
AcDbEntity
  8
0
  6
Continuous
 62
     3
100
AcDbLine
 10
349.856707
 20
141.810765
 30
0.0
 11
349.856707
 21
141.210765
 31
0.0
  0
LINE
  5
FE
330
20
100
AcDbEntity
  8
0
  6
Continuous
 62
     3
100
AcDbLine
 10
347.756707
 20
143.310765
 30
0.0
 11
348.356707
 21
143.310765
 31
0.0
  0
LINE
  5
FF
330
20
100
AcDbEntity
  8
0
  6
Continuous
 62
     3
100
AcDbLine
 10
349.856707
 20
141.810765
 30
0.0
 11
349.256707
 21
141.810765
 31
0.0
  0
LINE
  5
100
330
20
100
AcDbEntity
  8
0
  6
Continuous
 62
     3
100
AcDbLine
 10
348.356707
 20
143.310765
 30
0.0
 11
348.356707
 21
142.7107649999999
 31
0.0
  0
LINE
  5
101
330
20
100
AcDbEntity
  8
0
  6
Continuous
 62
     3
100
AcDbLine
 10
347.756707
 20
143.310765
 30
0.0
 11
347.756707
 21
142.7107649999999
 31
0.0
  0
LINE
  5
102
330
20
100
AcDbEntity
  8
0
  6
Continuous
 62
     3
100
AcDbLine
 10
346.256707
 20
141.210765
 30
0.0
 11
346.856707
 21
141.210765
 31
0.0
  0
LINE
  5
103
330
20
100
AcDbEntity
  8
0
  6
Continuous
 62
     3
100
AcDbLine
 10
348.356707
 20
139.710765
 30
0.0
 11
348.356707
 21
140.310765
 31
0.0
  0
LINE
  5
104
330
20
100
AcDbEntity
  8
0
  6
Continuous
 62
     3
100
AcDbLine
 10
349.856707
 20
141.810765
 30
0.0
 11
349.256707
 21
141.810765
 31
0.0
  0
LINE
  5
105
330
20
100
AcDbEntity
  8
0
  6
Continuous
 62
     3
100
AcDbLine
 10
349.856707
 20
141.210765
 30
0.0
 11
349.256707
 21
141.210765
 31
0.0
  0
LINE
  5
106
330
20
100
AcDbEntity
  8
0
  6
Continuous
 62
     3
100
AcDbLine
 10
347.756707
 20
139.710765
 30
0.0
 11
347.756707
 21
140.310765
 31
0.0
  0
LINE
  5
107
330
20
100
AcDbEntity
  8
0
  6
Continuous
 62
     3
100
AcDbLine
 10
346.256707
 20
141.810765
 30
0.0
 11
346.856707
 21
141.810765
 31
0.0
  0
ARC
  5
108
330
20
100
AcDbEntity
  8
0
  6
Continuous
 62
     3
100
AcDbCircle
 10
349.156707
 20
140.410765
 30
0.0
 40
0.8
100
AcDbArc
 50
82.3
 51
187.7
  0
ARC
  5
109
330
20
100
AcDbEntity
  8
0
  6
Continuous
 62
     3
100
AcDbCircle
 10
346.956707
 20
140.410765
 30
0.0
 40
0.8
100
AcDbArc
 50
352.3
 51
97.70000000000001
  0
ARC
  5
10A
330
20
100
AcDbEntity
  8
0
  6
Continuous
 62
     3
100
AcDbCircle
 10
346.956707
 20
142.610765
 30
0.0
 40
0.8
100
AcDbArc
 50
262.3
 51
7.699999999999999
  0
ARC
  5
10B
330
20
100
AcDbEntity
  8
0
  6
Continuous
 62
     3
100
AcDbCircle
 10
349.156707
 20
142.610765
 30
0.0
 40
0.8
100
AcDbArc
 50
172.3
 51
277.7
  0
CIRCLE
  5
10C
330
20
100
AcDbEntity
  8
0
  6
Continuous
 62
     3
100
AcDbCircle
 10
240.856707
 20
228.110765
 30
0.0
 40
2.799999999999999
  0
LINE
  5
10D
330
20
100
AcDbEntity
  8
0
  6
Continuous
 62
     3
100
AcDbLine
 10
239.056707
 20
227.810765
 30
0.0
 11
239.056707
 21
228.410765
 31
0.0
  0
LINE
  5
10E
330
20
100
AcDbEntity
  8
0
  6
Continuous
 62
     3
100
AcDbLine
 10
240.556707
 20
229.910765
 30
0.0
 11
241.156707
 21
229.910765
 31
0.0
  0
LINE
  5
10F
330
20
100
AcDbEntity
  8
0
  6
Continuous
 62
     3
100
AcDbLine
 10
242.656707
 20
227.810765
 30
0.0
 11
242.656707
 21
228.410765
 31
0.0
  0
LINE
  5
110
330
20
100
AcDbEntity
  8
0
  6
Continuous
 62
     3
100
AcDbLine
 10
240.556707
 20
226.310765
 30
0.0
 11
241.156707
 21
226.310765
 31
0.0
  0
LINE
  5
111
330
20
100
AcDbEntity
  8
0
  6
Continuous
 62
     3
100
AcDbLine
 10
242.656707
 20
227.810765
 30
0.0
 11
242.056707
 21
227.810765
 31
0.0
  0
LINE
  5
112
330
20
100
AcDbEntity
  8
0
  6
Continuous
 62
     3
100
AcDbLine
 10
241.156707
 20
226.310765
 30
0.0
 11
241.156707
 21
226.910765
 31
0.0
  0
LINE
  5
113
330
20
100
AcDbEntity
  8
0
  6
Continuous
 62
     3
100
AcDbLine
 10
240.556707
 20
226.310765
 30
0.0
 11
240.556707
 21
226.910765
 31
0.0
  0
LINE
  5
114
330
20
100
AcDbEntity
  8
0
  6
Continuous
 62
     3
100
AcDbLine
 10
239.056707
 20
228.410765
 30
0.0
 11
239.656707
 21
228.410765
 31
0.0
  0
LINE
  5
115
330
20
100
AcDbEntity
  8
0
  6
Continuous
 62
     3
100
AcDbLine
 10
241.156707
 20
229.910765
 30
0.0
 11
241.156707
 21
229.310765
 31
0.0
  0
LINE
  5
116
330
20
100
AcDbEntity
  8
0
  6
Continuous
 62
     3
100
AcDbLine
 10
242.656707
 20
227.810765
 30
0.0
 11
242.056707
 21
227.810765
 31
0.0
  0
LINE
  5
117
330
20
100
AcDbEntity
  8
0
  6
Continuous
 62
     3
100
AcDbLine
 10
242.656707
 20
228.410765
 30
0.0
 11
242.056707
 21
228.410765
 31
0.0
  0
LINE
  5
118
330
20
100
AcDbEntity
  8
0
  6
Continuous
 62
     3
100
AcDbLine
 10
240.556707
 20
229.910765
 30
0.0
 11
240.556707
 21
229.310765
 31
0.0
  0
LINE
  5
119
330
20
100
AcDbEntity
  8
0
  6
Continuous
 62
     3
100
AcDbLine
 10
239.056707
 20
227.810765
 30
0.0
 11
239.656707
 21
227.810765
 31
0.0
  0
ARC
  5
11A
330
20
100
AcDbEntity
  8
0
  6
Continuous
 62
     3
100
AcDbCircle
 10
241.956707
 20
229.210765
 30
0.0
 40
0.8
100
AcDbArc
 50
172.3
 51
277.7
  0
ARC
  5
11B
330
20
100
AcDbEntity
  8
0
  6
Continuous
 62
     3
100
AcDbCircle
 10
239.756707
 20
229.210765
 30
0.0
 40
0.8
100
AcDbArc
 50
262.3
 51
7.699999999999999
  0
ARC
  5
11C
330
20
100
AcDbEntity
  8
0
  6
Continuous
 62
     3
100
AcDbCircle
 10
239.756707
 20
227.010765
 30
0.0
 40
0.8
100
AcDbArc
 50
352.3
 51
97.70000000000001
  0
ARC
  5
11D
330
20
100
AcDbEntity
  8
0
  6
Continuous
 62
     3
100
AcDbCircle
 10
241.956707
 20
227.010765
 30
0.0
 40
0.8
100
AcDbArc
 50
82.3
 51
187.7
  0
CIRCLE
  5
11E
330
20
100
AcDbEntity
  8
0
  6
Continuous
 62
     3
100
AcDbCircle
 10
240.856707
 20
141.510765
 30
0.0
 40
2.799999999999999
  0
LINE
  5
11F
330
20
100
AcDbEntity
  8
0
  6
Continuous
 62
     3
100
AcDbLine
 10
239.056707
 20
141.810765
 30
0.0
 11
239.056707
 21
141.210765
 31
0.0
  0
LINE
  5
120
330
20
100
AcDbEntity
  8
0
  6
Continuous
 62
     3
100
AcDbLine
 10
240.556707
 20
139.710765
 30
0.0
 11
241.156707
 21
139.710765
 31
0.0
  0
LINE
  5
121
330
20
100
AcDbEntity
  8
0
  6
Continuous
 62
     3
100
AcDbLine
 10
242.656707
 20
141.810765
 30
0.0
 11
242.656707
 21
141.210765
 31
0.0
  0
LINE
  5
122
330
20
100
AcDbEntity
  8
0
  6
Continuous
 62
     3
100
AcDbLine
 10
240.556707
 20
143.310765
 30
0.0
 11
241.156707
 21
143.310765
 31
0.0
  0
LINE
  5
123
330
20
100
AcDbEntity
  8
0
  6
Continuous
 62
     3
100
AcDbLine
 10
242.656707
 20
141.810765
 30
0.0
 11
242.056707
 21
141.810765
 31
0.0
  0
LINE
  5
124
330
20
100
AcDbEntity
  8
0
  6
Continuous
 62
     3
100
AcDbLine
 10
241.156707
 20
143.310765
 30
0.0
 11
241.156707
 21
142.7107649999999
 31
0.0
  0
LINE
  5
125
330
20
100
AcDbEntity
  8
0
  6
Continuous
 62
     3
100
AcDbLine
 10
240.556707
 20
143.310765
 30
0.0
 11
240.556707
 21
142.7107649999999
 31
0.0
  0
LINE
  5
126
330
20
100
AcDbEntity
  8
0
  6
Continuous
 62
     3
100
AcDbLine
 10
239.056707
 20
141.210765
 30
0.0
 11
239.656707
 21
141.210765
 31
0.0
  0
LINE
  5
127
330
20
100
AcDbEntity
  8
0
  6
Continuous
 62
     3
100
AcDbLine
 10
241.156707
 20
139.710765
 30
0.0
 11
241.156707
 21
140.310765
 31
0.0
  0
LINE
  5
128
330
20
100
AcDbEntity
  8
0
  6
Continuous
 62
     3
100
AcDbLine
 10
242.656707
 20
141.810765
 30
0.0
 11
242.056707
 21
141.810765
 31
0.0
  0
LINE
  5
129
330
20
100
AcDbEntity
  8
0
  6
Continuous
 62
     3
100
AcDbLine
 10
242.656707
 20
141.210765
 30
0.0
 11
242.056707
 21
141.210765
 31
0.0
  0
LINE
  5
12A
330
20
100
AcDbEntity
  8
0
  6
Continuous
 62
     3
100
AcDbLine
 10
240.556707
 20
139.710765
 30
0.0
 11
240.556707
 21
140.310765
 31
0.0
  0
LINE
  5
12B
330
20
100
AcDbEntity
  8
0
  6
Continuous
 62
     3
100
AcDbLine
 10
239.056707
 20
141.810765
 30
0.0
 11
239.656707
 21
141.810765
 31
0.0
  0
ARC
  5
12C
330
20
100
AcDbEntity
  8
0
  6
Continuous
 62
     3
100
AcDbCircle
 10
241.956707
 20
140.410765
 30
0.0
 40
0.8
100
AcDbArc
 50
82.3
 51
187.7
  0
ARC
  5
12D
330
20
100
AcDbEntity
  8
0
  6
Continuous
 62
     3
100
AcDbCircle
 10
239.756707
 20
140.410765
 30
0.0
 40
0.8
100
AcDbArc
 50
352.3
 51
97.70000000000001
  0
ARC
  5
12E
330
20
100
AcDbEntity
  8
0
  6
Continuous
 62
     3
100
AcDbCircle
 10
239.756707
 20
142.610765
 30
0.0
 40
0.8
100
AcDbArc
 50
262.3
 51
7.699999999999999
  0
ARC
  5
12F
330
20
100
AcDbEntity
  8
0
  6
Continuous
 62
     3
100
AcDbCircle
 10
241.956707
 20
142.610765
 30
0.0
 40
0.8
100
AcDbArc
 50
172.3
 51
277.7
  0
LINE
  5
130
330
20
100
AcDbEntity
  8
2
  6
Continuous
 62
     3
100
AcDbLine
 10
232.756707
 20
249.810765
 30
0.0
 11
233.956707
 21
249.810765
 31
0.0
  0
LINE
  5
131
330
20
100
AcDbEntity
  8
2
  6
Continuous
 62
     3
100
AcDbLine
 10
232.756707
 20
234.810765
 30
0.0
 11
272.756707
 21
234.810765
 31
0.0
  0
LINE
  5
132
330
20
100
AcDbEntity
  8
2
  6
Continuous
 62
     3
100
AcDbLine
 10
272.756707
 20
234.810765
 30
0.0
 11
272.756707
 21
236.010765
 31
0.0
  0
LINE
  5
133
330
20
100
AcDbEntity
  8
2
  6
Continuous
 62
     3
100
AcDbLine
 10
272.756707
 20
236.010765
 30
0.0
 11
233.956707
 21
236.010765
 31
0.0
  0
LINE
  5
134
330
20
100
AcDbEntity
  8
2
  6
Continuous
 62
     3
100
AcDbLine
 10
233.956707
 20
236.010765
 30
0.0
 11
233.956707
 21
249.810765
 31
0.0
  0
LINE
  5
135
330
20
100
AcDbEntity
  8
2
  6
Continuous
 62
     3
100
AcDbLine
 10
232.756707
 20
234.810765
 30
0.0
 11
232.756707
 21
249.810765
 31
0.0
  0
LINE
  5
136
330
20
100
AcDbEntity
  8
2
  6
Continuous
 62
     3
100
AcDbLine
 10
232.756707
 20
119.810765
 30
0.0
 11
233.956707
 21
119.810765
 31
0.0
  0
LINE
  5
137
330
20
100
AcDbEntity
  8
2
  6
Continuous
 62
     3
100
AcDbLine
 10
232.756707
 20
134.810765
 30
0.0
 11
272.756707
 21
134.810765
 31
0.0
  0
LINE
  5
138
330
20
100
AcDbEntity
  8
2
  6
Continuous
 62
     3
100
AcDbLine
 10
272.756707
 20
134.810765
 30
0.0
 11
272.756707
 21
133.610765
 31
0.0
  0
LINE
  5
139
330
20
100
AcDbEntity
  8
2
  6
Continuous
 62
     3
100
AcDbLine
 10
272.756707
 20
133.610765
 30
0.0
 11
233.956707
 21
133.610765
 31
0.0
  0
LINE
  5
13A
330
20
100
AcDbEntity
  8
2
  6
Continuous
 62
     3
100
AcDbLine
 10
233.956707
 20
133.610765
 30
0.0
 11
233.956707
 21
119.810765
 31
0.0
  0
LINE
  5
13B
330
20
100
AcDbEntity
  8
2
  6
Continuous
 62
     3
100
AcDbLine
 10
232.756707
 20
134.810765
 30
0.0
 11
232.756707
 21
119.810765
 31
0.0
  0
LWPOLYLINE
  5
13C
330
20
100
AcDbEntity
  8
0
  6
Continuous
 62
     3
100
AcDbPolyline
 90
        4
 70
     1
 43
0.0
 10
141.856707
 20
134.810765
 10
171.856707
 20
134.810765
 10
171.856707
 20
234.810765
 10
141.856707
 20
234.810765
  0
LINE
  5
142
330
20
100
AcDbEntity
  8
0
  6
Continuous
 62
     3
100
AcDbLine
 10
144.856707
 20
231.610765
 30
0.0
 11
169.856707
 21
231.610765
 31
0.0
  0
LINE
  5
143
330
20
100
AcDbEntity
  8
0
  6
Continuous
 62
     3
100
AcDbLine
 10
148.656707
 20
229.510765
 30
0.0
 11
167.856707
 21
229.510765
 31
0.0
  0
LINE
  5
144
330
20
100
AcDbEntity
  8
0
  6
Continuous
 62
     3
100
AcDbLine
 10
144.856707
 20
138.010765
 30
0.0
 11
169.856707
 21
138.010765
 31
0.0
  0
LINE
  5
145
330
20
100
AcDbEntity
  8
0
  6
Continuous
 62
     3
100
AcDbLine
 10
148.656707
 20
140.110765
 30
0.0
 11
167.856707
 21
140.110765
 31
0.0
  0
LINE
  5
146
330
20
100
AcDbEntity
  8
0
  6
Continuous
 62
     3
100
AcDbLine
 10
144.856707
 20
138.010765
 30
0.0
 11
144.856707
 21
231.610765
 31
0.0
  0
LINE
  5
147
330
20
100
AcDbEntity
  8
0
  6
Continuous
 62
     3
100
AcDbLine
 10
169.856707
 20
231.610765
 30
0.0
 11
169.856707
 21
138.010765
 31
0.0
  0
LINE
  5
148
330
20
100
AcDbEntity
  8
0
  6
Continuous
 62
     3
100
AcDbLine
 10
162.056707
 20
150.710765
 30
0.0
 11
162.056707
 21
221.610765
 31
0.0
  0
LINE
  5
149
330
20
100
AcDbEntity
  8
0
  6
Continuous
 62
     3
100
AcDbLine
 10
162.056707
 20
150.710765
 30
0.0
 11
156.556707
 21
150.710765
 31
0.0
  0
LINE
  5
14A
330
20
100
AcDbEntity
  8
0
  6
Continuous
 62
     3
100
AcDbLine
 10
162.056707
 20
164.890765
 30
0.0
 11
156.556707
 21
164.890765
 31
0.0
  0
LINE
  5
14B
330
20
100
AcDbEntity
  8
0
  6
Continuous
 62
     3
100
AcDbLine
 10
162.056707
 20
179.070765
 30
0.0
 11
156.556707
 21
179.070765
 31
0.0
  0
LINE
  5
14C
330
20
100
AcDbEntity
  8
0
  6
Continuous
 62
     3
100
AcDbLine
 10
162.056707
 20
193.250765
 30
0.0
 11
156.556707
 21
193.250765
 31
0.0
  0
LINE
  5
14D
330
20
100
AcDbEntity
  8
0
  6
Continuous
 62
     3
100
AcDbLine
 10
162.056707
 20
207.430765
 30
0.0
 11
156.556707
 21
207.430765
 31
0.0
  0
LINE
  5
14E
330
20
100
AcDbEntity
  8
0
  6
Continuous
 62
     3
100
AcDbLine
 10
162.056707
 20
221.610765
 30
0.0
 11
156.556707
 21
221.610765
 31
0.0
  0
LINE
  5
14F
330
20
100
AcDbEntity
  8
0
  6
Continuous
 62
     3
100
AcDbLine
 10
162.056707
 20
157.800765
 30
0.0
 11
158.256707
 21
157.800765
 31
0.0
  0
LINE
  5
150
330
20
100
AcDbEntity
  8
0
  6
Continuous
 62
     3
100
AcDbLine
 10
162.056707
 20
157.800765
 30
0.0
 11
158.256707
 21
157.800765
 31
0.0
  0
TEXT
  5
151
330
20
100
AcDbEntity
  8
0
  6
Continuous
 62
     3
100
AcDbText
 10
151.256707
 20
163.410765
 30
0.0
 40
2.7
  1
２０
 41
0.87037037
  7
KANJI0
100
AcDbText
  0
TEXT
  5
152
330
20
100
AcDbEntity
  8
0
  6
Continuous
 62
     3
100
AcDbText
 10
151.256707
 20
177.590765
 30
0.0
 40
2.7
  1
４０
 41
0.87037037
  7
KANJI0
100
AcDbText
  0
TEXT
  5
153
330
20
100
AcDbEntity
  8
0
  6
Continuous
 62
     3
100
AcDbText
 10
151.256707
 20
191.770765
 30
0.0
 40
2.7
  1
６０
 41
0.87037037
  7
KANJI0
100
AcDbText
  0
TEXT
  5
154
330
20
100
AcDbEntity
  8
0
  6
Continuous
 62
     3
100
AcDbText
 10
151.256707
 20
205.950765
 30
0.0
 40
2.7
  1
８０
 41
0.87037037
  7
KANJI0
100
AcDbText
  0
TEXT
  5
155
330
20
100
AcDbEntity
  8
0
  6
Continuous
 62
     3
100
AcDbText
 10
149.056707
 20
220.130765
 30
0.0
 40
2.7
  1
１００
 41
0.87037037
  7
KANJI0
100
AcDbText
  0
TEXT
  5
156
330
20
100
AcDbEntity
  8
0
  6
Continuous
 62
     3
100
AcDbText
 10
153.156707
 20
149.230765
 30
0.0
 40
2.7
  1
０
 41
0.87037037
  7
KANJI0
100
AcDbText
  0
LINE
  5
157
330
20
100
AcDbEntity
  8
2
  6
Continuous
 62
     3
100
AcDbLine
 10
171.856707
 20
134.810765
 30
0.0
 11
141.856707
 21
134.810765
 31
0.0
  0
LINE
  5
158
330
20
100
AcDbEntity
  8
2
  6
Continuous
 62
     3
100
AcDbLine
 10
141.856707
 20
134.810765
 30
0.0
 11
141.856707
 21
119.810765
 31
0.0
  0
LINE
  5
159
330
20
100
AcDbEntity
  8
2
  6
Continuous
 62
     3
100
AcDbLine
 10
141.856707
 20
119.810765
 30
0.0
 11
171.856707
 21
119.810765
 31
0.0
  0
LINE
  5
15A
330
20
100
AcDbEntity
  8
2
  6
Continuous
 62
     3
100
AcDbLine
 10
171.856707
 20
119.810765
 30
0.0
 11
171.856707
 21
134.810765
 31
0.0
  0
LINE
  5
15B
330
20
100
AcDbEntity
  8
2
  6
Continuous
 62
     3
100
AcDbLine
 10
141.856707
 20
234.810765
 30
0.0
 11
171.856707
 21
234.810765
 31
0.0
  0
LINE
  5
15C
330
20
100
AcDbEntity
  8
2
  6
Continuous
 62
     3
100
AcDbLine
 10
171.856707
 20
234.810765
 30
0.0
 11
171.856707
 21
249.810765
 31
0.0
  0
LINE
  5
15D
330
20
100
AcDbEntity
  8
2
  6
Continuous
 62
     3
100
AcDbLine
 10
171.856707
 20
249.810765
 30
0.0
 11
141.856707
 21
249.810765
 31
0.0
  0
LINE
  5
15E
330
20
100
AcDbEntity
  8
2
  6
Continuous
 62
     3
100
AcDbLine
 10
141.856707
 20
249.810765
 30
0.0
 11
141.856707
 21
234.810765
 31
0.0
  0
ARC
  5
15F
330
20
100
AcDbEntity
  8
2
  6
Continuous
 62
     3
100
AcDbCircle
 10
158.756707
 20
244.810765
 30
0.0
 40
2.0
100
AcDbArc
 50
269.999890717
 51
90.00010928299998
  0
ARC
  5
160
330
20
100
AcDbEntity
  8
2
  6
Continuous
 62
     3
100
AcDbCircle
 10
154.756707
 20
244.810765
 30
0.0
 40
2.0
100
AcDbArc
 50
89.99989071700003
 51
270.000109283
  0
LINE
  5
161
330
20
100
AcDbEntity
  8
2
  6
Continuous
 62
     3
100
AcDbLine
 10
158.756703185
 20
242.810765
 30
0.0
 11
154.756710815
 21
242.810765
 31
0.0
  0
LINE
  5
162
330
20
100
AcDbEntity
  8
2
  6
Continuous
 62
     3
100
AcDbLine
 10
158.756703185
 20
246.810765
 30
0.0
 11
154.756710815
 21
246.810765
 31
0.0
  0
ARC
  5
163
330
20
100
AcDbEntity
  8
2
  6
Continuous
 62
     3
100
AcDbCircle
 10
154.956707
 20
124.810765
 30
0.0
 40
2.0
100
AcDbArc
 50
89.99989071700003
 51
270.000109283
  0
ARC
  5
164
330
20
100
AcDbEntity
  8
2
  6
Continuous
 62
     3
100
AcDbCircle
 10
158.956707
 20
124.810765
 30
0.0
 40
2.0
100
AcDbArc
 50
269.999890717
 51
90.00010928299998
  0
LINE
  5
165
330
20
100
AcDbEntity
  8
2
  6
Continuous
 62
     3
100
AcDbLine
 10
154.956710815
 20
126.810765
 30
0.0
 11
158.956703185
 21
126.810765
 31
0.0
  0
LINE
  5
166
330
20
100
AcDbEntity
  8
2
  6
Continuous
 62
     3
100
AcDbLine
 10
154.956710815
 20
122.810765
 30
0.0
 11
158.956703185
 21
122.810765
 31
0.0
  0
LINE
  5
167
330
20
100
AcDbEntity
  8
0
  6
Continuous
 62
     3
100
AcDbLine
 10
148.656707
 20
156.010765
 30
0.0
 11
148.656707
 21
229.510765
 31
0.0
  0
LINE
  5
168
330
20
100
AcDbEntity
  8
0
  6
Continuous
 62
     3
100
AcDbLine
 10
148.656707
 20
140.110765
 30
0.0
 11
148.656707
 21
155.510765
 31
0.0
  0
LINE
  5
169
330
20
100
AcDbEntity
  8
0
  6
Continuous
 62
     3
100
AcDbLine
 10
168.817
 20
174.28539
 30
0.0
 11
162.256707
 21
174.28539
 31
0.0
  0
LINE
  5
16A
330
20
100
AcDbEntity
  8
0
  6
Continuous
 62
     3
100
AcDbLine
 10
162.256707
 20
174.28539
 30
0.0
 11
163.356707
 21
172.68539
 31
0.0
  0
LINE
  5
16B
330
20
100
AcDbEntity
  8
0
  6
Continuous
 62
     3
100
AcDbLine
 10
163.356707
 20
172.68539
 30
0.0
 11
168.817
 21
172.68539
 31
0.0
  0
LINE
  5
16C
330
20
100
AcDbEntity
  8
0
  6
Continuous
 62
     3
100
AcDbLine
 10
168.817
 20
174.28539
 30
0.0
 11
168.817
 21
172.68539
 31
0.0
  0
LINE
  5
16D
330
20
100
AcDbEntity
  8
0
  6
Continuous
 62
     3
100
AcDbLine
 10
167.856707
 20
172.68539
 30
0.0
 11
167.856707
 21
140.110765
 31
0.0
  0
LINE
  5
16E
330
20
100
AcDbEntity
  8
0
  6
Continuous
 62
     3
100
AcDbLine
 10
168.817
 20
210.98539
 30
0.0
 11
162.256707
 21
210.98539
 31
0.0
  0
LINE
  5
16F
330
20
100
AcDbEntity
  8
0
  6
Continuous
 62
     3
100
AcDbLine
 10
162.256707
 20
210.98539
 30
0.0
 11
163.356707
 21
212.58539
 31
0.0
  0
LINE
  5
170
330
20
100
AcDbEntity
  8
0
  6
Continuous
 62
     3
100
AcDbLine
 10
163.356707
 20
212.58539
 30
0.0
 11
168.817
 21
212.58539
 31
0.0
  0
LINE
  5
171
330
20
100
AcDbEntity
  8
0
  6
Continuous
 62
     3
100
AcDbLine
 10
168.817
 20
212.58539
 30
0.0
 11
168.817
 21
210.98539
 31
0.0
  0
LINE
  5
172
330
20
100
AcDbEntity
  8
0
  6
Continuous
 62
     3
100
AcDbLine
 10
167.856707
 20
210.98539
 30
0.0
 11
167.856707
 21
174.28539
 31
0.0
  0
LINE
  5
173
330
20
100
AcDbEntity
  8
0
  6
Continuous
 62
     3
100
AcDbLine
 10
167.856707
 20
229.510765
 30
0.0
 11
167.856707
 21
212.58539
 31
0.0
  0
LINE
  5
174
330
20
100
AcDbEntity
  8
0
  6
Continuous
 62
     3
100
AcDbLine
 10
92.156707
 20
184.810765
 30
0.0
 11
92.156707
 21
235.310765
 31
0.0
  0
LINE
  5
175
330
20
100
AcDbEntity
  8
0
  6
Continuous
 62
     3
100
AcDbLine
 10
92.156707
 20
235.310765
 30
0.0
 11
76.65670699999999
 21
235.310765
 31
0.0
  0
LINE
  5
176
330
20
100
AcDbEntity
  8
0
  6
Continuous
 62
     3
100
AcDbLine
 10
61.15670699999999
 20
184.810765
 30
0.0
 11
61.15670699999999
 21
235.310765
 31
0.0
  0
LINE
  5
177
330
20
100
AcDbEntity
  8
0
  6
Continuous
 62
     3
100
AcDbLine
 10
61.15670699999999
 20
235.310765
 30
0.0
 11
76.65670699999999
 21
235.310765
 31
0.0
  0
CIRCLE
  5
178
330
20
100
AcDbEntity
  8
0
  6
Continuous
 62
     3
100
AcDbCircle
 10
76.65670699999999
 20
244.810765
 30
0.0
 40
1.75
  0
LINE
  5
179
330
20
100
AcDbEntity
  8
0
  6
Continuous
 62
     3
100
AcDbLine
 10
92.156707
 20
184.810765
 30
0.0
 11
92.156707
 21
134.310765
 31
0.0
  0
LINE
  5
17A
330
20
100
AcDbEntity
  8
0
  6
Continuous
 62
     3
100
AcDbLine
 10
92.156707
 20
134.310765
 30
0.0
 11
76.65670699999999
 21
134.310765
 31
0.0
  0
LINE
  5
17B
330
20
100
AcDbEntity
  8
0
  6
Continuous
 62
     3
100
AcDbLine
 10
61.15670699999999
 20
184.810765
 30
0.0
 11
61.15670699999999
 21
134.310765
 31
0.0
  0
LINE
  5
17C
330
20
100
AcDbEntity
  8
0
  6
Continuous
 62
     3
100
AcDbLine
 10
61.15670699999999
 20
134.310765
 30
0.0
 11
76.65670699999999
 21
134.310765
 31
0.0
  0
CIRCLE
  5
17D
330
20
100
AcDbEntity
  8
0
  6
Continuous
 62
     3
100
AcDbCircle
 10
76.65670699999999
 20
124.810765
 30
0.0
 40
1.75
  0
LINE
  5
17E
330
20
100
AcDbEntity
  8
0
  6
Continuous
 62
     3
100
AcDbLine
 10
416.5567069999999
 20
134.810765
 30
0.0
 11
446.556707
 21
134.810765
 31
0.0
  0
LWPOLYLINE
  5
17F
330
20
100
AcDbEntity
  8
0
  6
Continuous
 62
     3
100
AcDbPolyline
 90
        4
 70
     0
 43
0.0
 10
446.556707
 20
134.810765
 10
446.556707
 20
234.810765
 10
416.5567069999999
 20
234.810765
 10
416.5567069999999
 20
134.810765
  0
LINE
  5
185
330
20
100
AcDbEntity
  8
0
  6
Continuous
 62
     3
100
AcDbLine
 10
421.456707
 20
225.310765
 30
0.0
 11
430.256707
 21
225.310765
 31
0.0
  0
LINE
  5
186
330
20
100
AcDbEntity
  8
0
  6
Continuous
 62
     3
100
AcDbLine
 10
421.456707
 20
144.110765
 30
0.0
 11
430.256707
 21
144.110765
 31
0.0
  0
LINE
  5
187
330
20
100
AcDbEntity
  8
0
  6
Continuous
 62
     3
100
AcDbLine
 10
430.256707
 20
144.110765
 30
0.0
 11
430.256707
 21
184.710765
 31
0.0
  0
LINE
  5
188
330
20
100
AcDbEntity
  8
0
  6
Continuous
 62
     3
100
AcDbLine
 10
421.456707
 20
185.710765
 30
0.0
 11
430.256707
 21
185.710765
 31
0.0
  0
LINE
  5
189
330
20
100
AcDbEntity
  8
0
  6
Continuous
 62
     3
100
AcDbLine
 10
421.456707
 20
183.710765
 30
0.0
 11
430.256707
 21
183.710765
 31
0.0
  0
LINE
  5
18A
330
20
100
AcDbEntity
  8
0
  6
Continuous
 62
     3
100
AcDbLine
 10
421.456707
 20
195.860765
 30
0.0
 11
430.256707
 21
195.860765
 31
0.0
  0
LINE
  5
18B
330
20
100
AcDbEntity
  8
0
  6
Continuous
 62
     3
100
AcDbLine
 10
421.456707
 20
193.860765
 30
0.0
 11
430.256707
 21
193.860765
 31
0.0
  0
LINE
  5
18C
330
20
100
AcDbEntity
  8
0
  6
Continuous
 62
     3
100
AcDbLine
 10
421.456707
 20
206.010765
 30
0.0
 11
430.256707
 21
206.010765
 31
0.0
  0
LINE
  5
18D
330
20
100
AcDbEntity
  8
0
  6
Continuous
 62
     3
100
AcDbLine
 10
421.456707
 20
204.010765
 30
0.0
 11
430.256707
 21
204.010765
 31
0.0
  0
LINE
  5
18E
330
20
100
AcDbEntity
  8
0
  6
Continuous
 62
     3
100
AcDbLine
 10
421.456707
 20
216.160765
 30
0.0
 11
430.256707
 21
216.160765
 31
0.0
  0
LINE
  5
18F
330
20
100
AcDbEntity
  8
0
  6
Continuous
 62
     3
100
AcDbLine
 10
421.456707
 20
214.160765
 30
0.0
 11
430.256707
 21
214.160765
 31
0.0
  0
LWPOLYLINE
  5
190
330
20
100
AcDbEntity
  8
0
  6
Continuous
 62
     3
100
AcDbPolyline
 90
        3
 70
     0
 43
0.0
 10
421.456707
 20
227.310765
 10
430.256707
 20
227.310765
 10
430.256707
 20
184.710765
  0
LINE
  5
195
330
20
100
AcDbEntity
  8
0
  6
Continuous
 62
     3
100
AcDbLine
 10
421.456707
 20
144.110765
 30
0.0
 11
430.256707
 21
144.110765
 31
0.0
  0
LINE
  5
196
330
20
100
AcDbEntity
  8
0
  6
Continuous
 62
     3
100
AcDbLine
 10
421.456707
 20
183.710765
 30
0.0
 11
430.256707
 21
183.710765
 31
0.0
  0
LINE
  5
197
330
20
100
AcDbEntity
  8
0
  6
Continuous
 62
     3
100
AcDbLine
 10
421.456707
 20
185.710765
 30
0.0
 11
430.256707
 21
185.710765
 31
0.0
  0
LINE
  5
198
330
20
100
AcDbEntity
  8
0
  6
Continuous
 62
     3
100
AcDbLine
 10
421.456707
 20
173.560765
 30
0.0
 11
430.256707
 21
173.560765
 31
0.0
  0
LINE
  5
199
330
20
100
AcDbEntity
  8
0
  6
Continuous
 62
     3
100
AcDbLine
 10
421.456707
 20
175.560765
 30
0.0
 11
430.256707
 21
175.560765
 31
0.0
  0
LINE
  5
19A
330
20
100
AcDbEntity
  8
0
  6
Continuous
 62
     3
100
AcDbLine
 10
421.456707
 20
163.410765
 30
0.0
 11
430.256707
 21
163.410765
 31
0.0
  0
LINE
  5
19B
330
20
100
AcDbEntity
  8
0
  6
Continuous
 62
     3
100
AcDbLine
 10
421.456707
 20
165.410765
 30
0.0
 11
430.256707
 21
165.410765
 31
0.0
  0
LINE
  5
19C
330
20
100
AcDbEntity
  8
0
  6
Continuous
 62
     3
100
AcDbLine
 10
421.456707
 20
153.260765
 30
0.0
 11
430.256707
 21
153.260765
 31
0.0
  0
LINE
  5
19D
330
20
100
AcDbEntity
  8
0
  6
Continuous
 62
     3
100
AcDbLine
 10
421.456707
 20
155.260765
 30
0.0
 11
430.256707
 21
155.260765
 31
0.0
  0
LINE
  5
19E
330
20
100
AcDbEntity
  8
0
  6
Continuous
 62
     3
100
AcDbLine
 10
430.256707
 20
142.110765
 30
0.0
 11
430.256707
 21
184.710765
 31
0.0
  0
LINE
  5
19F
330
20
100
AcDbEntity
  8
0
  6
Continuous
 62
     3
100
AcDbLine
 10
421.456707
 20
142.110765
 30
0.0
 11
430.256707
 21
142.110765
 31
0.0
  0
LINE
  5
1A0
330
20
100
AcDbEntity
  8
0
  6
Continuous
 62
     3
100
AcDbLine
 10
421.456707
 20
227.310765
 30
0.0
 11
421.456707
 21
142.110765
 31
0.0
  0
LINE
  5
1A1
330
20
100
AcDbEntity
  8
0
  6
Continuous
 62
     3
100
AcDbLine
 10
441.0567069999999
 20
134.810765
 30
0.0
 11
441.0567069999999
 21
234.810765
 31
0.0
  0
CIRCLE
  5
1A2
330
20
100
AcDbEntity
  8
0
  6
Continuous
 62
     3
100
AcDbCircle
 10
437.256707
 20
143.075099639
 30
0.0
 40
2.799999999999999
  0
LINE
  5
1A3
330
20
100
AcDbEntity
  8
0
  6
Continuous
 62
     3
100
AcDbLine
 10
435.456707
 20
142.775099639
 30
0.0
 11
435.456707
 21
143.375099639
 31
0.0
  0
LINE
  5
1A4
330
20
100
AcDbEntity
  8
0
  6
Continuous
 62
     3
100
AcDbLine
 10
436.956707
 20
144.875099639
 30
0.0
 11
437.556707
 21
144.875099639
 31
0.0
  0
LINE
  5
1A5
330
20
100
AcDbEntity
  8
0
  6
Continuous
 62
     3
100
AcDbLine
 10
439.056707
 20
142.775099639
 30
0.0
 11
439.056707
 21
143.375099639
 31
0.0
  0
LINE
  5
1A6
330
20
100
AcDbEntity
  8
0
  6
Continuous
 62
     3
100
AcDbLine
 10
436.956707
 20
141.275099639
 30
0.0
 11
437.556707
 21
141.275099639
 31
0.0
  0
LINE
  5
1A7
330
20
100
AcDbEntity
  8
0
  6
Continuous
 62
     3
100
AcDbLine
 10
439.056707
 20
142.775099639
 30
0.0
 11
438.4567070000001
 21
142.775099639
 31
0.0
  0
LINE
  5
1A8
330
20
100
AcDbEntity
  8
0
  6
Continuous
 62
     3
100
AcDbLine
 10
437.556707
 20
141.275099639
 30
0.0
 11
437.556707
 21
141.875099639
 31
0.0
  0
LINE
  5
1A9
330
20
100
AcDbEntity
  8
0
  6
Continuous
 62
     3
100
AcDbLine
 10
436.956707
 20
141.275099639
 30
0.0
 11
436.956707
 21
141.875099639
 31
0.0
  0
LINE
  5
1AA
330
20
100
AcDbEntity
  8
0
  6
Continuous
 62
     3
100
AcDbLine
 10
435.456707
 20
143.375099639
 30
0.0
 11
436.056707
 21
143.375099639
 31
0.0
  0
LINE
  5
1AB
330
20
100
AcDbEntity
  8
0
  6
Continuous
 62
     3
100
AcDbLine
 10
437.556707
 20
144.875099639
 30
0.0
 11
437.556707
 21
144.275099639
 31
0.0
  0
LINE
  5
1AC
330
20
100
AcDbEntity
  8
0
  6
Continuous
 62
     3
100
AcDbLine
 10
439.056707
 20
142.775099639
 30
0.0
 11
438.4567070000001
 21
142.775099639
 31
0.0
  0
LINE
  5
1AD
330
20
100
AcDbEntity
  8
0
  6
Continuous
 62
     3
100
AcDbLine
 10
439.056707
 20
143.375099639
 30
0.0
 11
438.4567070000001
 21
143.375099639
 31
0.0
  0
LINE
  5
1AE
330
20
100
AcDbEntity
  8
0
  6
Continuous
 62
     3
100
AcDbLine
 10
436.956707
 20
144.875099639
 30
0.0
 11
436.956707
 21
144.275099639
 31
0.0
  0
LINE
  5
1AF
330
20
100
AcDbEntity
  8
0
  6
Continuous
 62
     3
100
AcDbLine
 10
435.456707
 20
142.775099639
 30
0.0
 11
436.056707
 21
142.775099639
 31
0.0
  0
ARC
  5
1B0
330
20
100
AcDbEntity
  8
0
  6
Continuous
 62
     3
100
AcDbCircle
 10
438.356707
 20
144.175099639
 30
0.0
 40
0.8
100
AcDbArc
 50
172.3
 51
277.7
  0
ARC
  5
1B1
330
20
100
AcDbEntity
  8
0
  6
Continuous
 62
     3
100
AcDbCircle
 10
436.156707
 20
144.175099639
 30
0.0
 40
0.8
100
AcDbArc
 50
262.3
 51
7.699999999999999
  0
ARC
  5
1B2
330
20
100
AcDbEntity
  8
0
  6
Continuous
 62
     3
100
AcDbCircle
 10
436.156707
 20
141.975099639
 30
0.0
 40
0.8
100
AcDbArc
 50
352.3
 51
97.70000000000001
  0
ARC
  5
1B3
330
20
100
AcDbEntity
  8
0
  6
Continuous
 62
     3
100
AcDbCircle
 10
438.356707
 20
141.975099639
 30
0.0
 40
0.8
100
AcDbArc
 50
82.3
 51
187.7
  0
LINE
  5
1B4
330
20
100
AcDbEntity
  8
0
  6
Continuous
 62
     3
100
AcDbLine
 10
440.356707
 20
145.160765
 30
0.0
 11
440.356707
 21
140.989434277
 31
0.0
  0
LINE
  5
1B5
330
20
100
AcDbEntity
  8
0
  6
Continuous
 62
     3
100
AcDbLine
 10
434.156707
 20
145.160765
 30
0.0
 11
434.156707
 21
140.989434277
 31
0.0
  0
ARC
  5
1B6
330
20
100
AcDbEntity
  8
0
  6
Continuous
 62
     3
100
AcDbCircle
 10
437.256707
 20
143.075099639
 30
0.0
 40
3.736308338
100
AcDbArc
 50
213.932479777
 51
326.067520223
  0
ARC
  5
1B7
330
20
100
AcDbEntity
  8
0
  6
Continuous
 62
     3
100
AcDbCircle
 10
437.256707
 20
143.075099639
 30
0.0
 40
3.736308338
100
AcDbArc
 50
33.932479777
 51
146.067520223
  0
CIRCLE
  5
1B8
330
20
100
AcDbEntity
  8
0
  6
Continuous
 62
     3
100
AcDbCircle
 10
437.256707
 20
164.475099639
 30
0.0
 40
2.799999999999999
  0
LINE
  5
1B9
330
20
100
AcDbEntity
  8
0
  6
Continuous
 62
     3
100
AcDbLine
 10
435.456707
 20
164.175099639
 30
0.0
 11
435.456707
 21
164.775099639
 31
0.0
  0
LINE
  5
1BA
330
20
100
AcDbEntity
  8
0
  6
Continuous
 62
     3
100
AcDbLine
 10
436.956707
 20
166.275099639
 30
0.0
 11
437.556707
 21
166.275099639
 31
0.0
  0
LINE
  5
1BB
330
20
100
AcDbEntity
  8
0
  6
Continuous
 62
     3
100
AcDbLine
 10
439.056707
 20
164.175099639
 30
0.0
 11
439.056707
 21
164.775099639
 31
0.0
  0
LINE
  5
1BC
330
20
100
AcDbEntity
  8
0
  6
Continuous
 62
     3
100
AcDbLine
 10
436.956707
 20
162.675099639
 30
0.0
 11
437.556707
 21
162.675099639
 31
0.0
  0
LINE
  5
1BD
330
20
100
AcDbEntity
  8
0
  6
Continuous
 62
     3
100
AcDbLine
 10
439.056707
 20
164.175099639
 30
0.0
 11
438.4567070000001
 21
164.175099639
 31
0.0
  0
LINE
  5
1BE
330
20
100
AcDbEntity
  8
0
  6
Continuous
 62
     3
100
AcDbLine
 10
437.556707
 20
162.675099639
 30
0.0
 11
437.556707
 21
163.275099639
 31
0.0
  0
LINE
  5
1BF
330
20
100
AcDbEntity
  8
0
  6
Continuous
 62
     3
100
AcDbLine
 10
436.956707
 20
162.675099639
 30
0.0
 11
436.956707
 21
163.275099639
 31
0.0
  0
LINE
  5
1C0
330
20
100
AcDbEntity
  8
0
  6
Continuous
 62
     3
100
AcDbLine
 10
435.456707
 20
164.775099639
 30
0.0
 11
436.056707
 21
164.775099639
 31
0.0
  0
LINE
  5
1C1
330
20
100
AcDbEntity
  8
0
  6
Continuous
 62
     3
100
AcDbLine
 10
437.556707
 20
166.275099639
 30
0.0
 11
437.556707
 21
165.675099639
 31
0.0
  0
LINE
  5
1C2
330
20
100
AcDbEntity
  8
0
  6
Continuous
 62
     3
100
AcDbLine
 10
439.056707
 20
164.175099639
 30
0.0
 11
438.4567070000001
 21
164.175099639
 31
0.0
  0
LINE
  5
1C3
330
20
100
AcDbEntity
  8
0
  6
Continuous
 62
     3
100
AcDbLine
 10
439.056707
 20
164.775099639
 30
0.0
 11
438.4567070000001
 21
164.775099639
 31
0.0
  0
LINE
  5
1C4
330
20
100
AcDbEntity
  8
0
  6
Continuous
 62
     3
100
AcDbLine
 10
436.956707
 20
166.275099639
 30
0.0
 11
436.956707
 21
165.675099639
 31
0.0
  0
LINE
  5
1C5
330
20
100
AcDbEntity
  8
0
  6
Continuous
 62
     3
100
AcDbLine
 10
435.456707
 20
164.175099639
 30
0.0
 11
436.056707
 21
164.175099639
 31
0.0
  0
ARC
  5
1C6
330
20
100
AcDbEntity
  8
0
  6
Continuous
 62
     3
100
AcDbCircle
 10
438.356707
 20
165.575099639
 30
0.0
 40
0.8
100
AcDbArc
 50
172.3
 51
277.7
  0
ARC
  5
1C7
330
20
100
AcDbEntity
  8
0
  6
Continuous
 62
     3
100
AcDbCircle
 10
436.156707
 20
165.575099639
 30
0.0
 40
0.8
100
AcDbArc
 50
262.3
 51
7.699999999999999
  0
ARC
  5
1C8
330
20
100
AcDbEntity
  8
0
  6
Continuous
 62
     3
100
AcDbCircle
 10
436.156707
 20
163.375099639
 30
0.0
 40
0.8
100
AcDbArc
 50
352.3
 51
97.70000000000001
  0
ARC
  5
1C9
330
20
100
AcDbEntity
  8
0
  6
Continuous
 62
     3
100
AcDbCircle
 10
438.356707
 20
163.375099639
 30
0.0
 40
0.8
100
AcDbArc
 50
82.3
 51
187.7
  0
LINE
  5
1CA
330
20
100
AcDbEntity
  8
0
  6
Continuous
 62
     3
100
AcDbLine
 10
440.356707
 20
166.560765
 30
0.0
 11
440.356707
 21
162.389434277
 31
0.0
  0
LINE
  5
1CB
330
20
100
AcDbEntity
  8
0
  6
Continuous
 62
     3
100
AcDbLine
 10
434.156707
 20
166.560765
 30
0.0
 11
434.156707
 21
162.389434277
 31
0.0
  0
ARC
  5
1CC
330
20
100
AcDbEntity
  8
0
  6
Continuous
 62
     3
100
AcDbCircle
 10
437.256707
 20
164.475099639
 30
0.0
 40
3.736308338
100
AcDbArc
 50
213.932479777
 51
326.067520223
  0
ARC
  5
1CD
330
20
100
AcDbEntity
  8
0
  6
Continuous
 62
     3
100
AcDbCircle
 10
437.256707
 20
164.475099639
 30
0.0
 40
3.736308338
100
AcDbArc
 50
33.932479777
 51
146.067520223
  0
CIRCLE
  5
1CE
330
20
100
AcDbEntity
  8
0
  6
Continuous
 62
     3
100
AcDbCircle
 10
425.856707
 20
220.735765
 30
0.0
 40
2.799999999999999
  0
LINE
  5
1CF
330
20
100
AcDbEntity
  8
0
  6
Continuous
 62
     3
100
AcDbLine
 10
424.0567069999999
 20
220.435765
 30
0.0
 11
424.0567069999999
 21
221.035765
 31
0.0
  0
LINE
  5
1D0
330
20
100
AcDbEntity
  8
0
  6
Continuous
 62
     3
100
AcDbLine
 10
425.556707
 20
222.535765
 30
0.0
 11
426.156707
 21
222.535765
 31
0.0
  0
LINE
  5
1D1
330
20
100
AcDbEntity
  8
0
  6
Continuous
 62
     3
100
AcDbLine
 10
427.656707
 20
220.435765
 30
0.0
 11
427.656707
 21
221.035765
 31
0.0
  0
LINE
  5
1D2
330
20
100
AcDbEntity
  8
0
  6
Continuous
 62
     3
100
AcDbLine
 10
425.556707
 20
218.935765
 30
0.0
 11
426.156707
 21
218.935765
 31
0.0
  0
LINE
  5
1D3
330
20
100
AcDbEntity
  8
0
  6
Continuous
 62
     3
100
AcDbLine
 10
427.656707
 20
220.435765
 30
0.0
 11
427.056707
 21
220.435765
 31
0.0
  0
LINE
  5
1D4
330
20
100
AcDbEntity
  8
0
  6
Continuous
 62
     3
100
AcDbLine
 10
426.156707
 20
218.935765
 30
0.0
 11
426.156707
 21
219.535765
 31
0.0
  0
LINE
  5
1D5
330
20
100
AcDbEntity
  8
0
  6
Continuous
 62
     3
100
AcDbLine
 10
425.556707
 20
218.935765
 30
0.0
 11
425.556707
 21
219.535765
 31
0.0
  0
LINE
  5
1D6
330
20
100
AcDbEntity
  8
0
  6
Continuous
 62
     3
100
AcDbLine
 10
424.0567069999999
 20
221.035765
 30
0.0
 11
424.656707
 21
221.035765
 31
0.0
  0
LINE
  5
1D7
330
20
100
AcDbEntity
  8
0
  6
Continuous
 62
     3
100
AcDbLine
 10
426.156707
 20
222.535765
 30
0.0
 11
426.156707
 21
221.935765
 31
0.0
  0
LINE
  5
1D8
330
20
100
AcDbEntity
  8
0
  6
Continuous
 62
     3
100
AcDbLine
 10
427.656707
 20
220.435765
 30
0.0
 11
427.056707
 21
220.435765
 31
0.0
  0
LINE
  5
1D9
330
20
100
AcDbEntity
  8
0
  6
Continuous
 62
     3
100
AcDbLine
 10
427.656707
 20
221.035765
 30
0.0
 11
427.056707
 21
221.035765
 31
0.0
  0
LINE
  5
1DA
330
20
100
AcDbEntity
  8
0
  6
Continuous
 62
     3
100
AcDbLine
 10
425.556707
 20
222.535765
 30
0.0
 11
425.556707
 21
221.935765
 31
0.0
  0
LINE
  5
1DB
330
20
100
AcDbEntity
  8
0
  6
Continuous
 62
     3
100
AcDbLine
 10
424.0567069999999
 20
220.435765
 30
0.0
 11
424.656707
 21
220.435765
 31
0.0
  0
ARC
  5
1DC
330
20
100
AcDbEntity
  8
0
  6
Continuous
 62
     3
100
AcDbCircle
 10
426.956707
 20
221.835765
 30
0.0
 40
0.8
100
AcDbArc
 50
172.3
 51
277.7
  0
ARC
  5
1DD
330
20
100
AcDbEntity
  8
0
  6
Continuous
 62
     3
100
AcDbCircle
 10
424.756707
 20
221.835765
 30
0.0
 40
0.8
100
AcDbArc
 50
262.3
 51
7.699999999999999
  0
ARC
  5
1DE
330
20
100
AcDbEntity
  8
0
  6
Continuous
 62
     3
100
AcDbCircle
 10
424.756707
 20
219.635765
 30
0.0
 40
0.8
100
AcDbArc
 50
352.3
 51
97.70000000000001
  0
ARC
  5
1DF
330
20
100
AcDbEntity
  8
0
  6
Continuous
 62
     3
100
AcDbCircle
 10
426.956707
 20
219.635765
 30
0.0
 40
0.8
100
AcDbArc
 50
82.3
 51
187.7
  0
CIRCLE
  5
1E0
330
20
100
AcDbEntity
  8
0
  6
Continuous
 62
     3
100
AcDbCircle
 10
425.856707
 20
210.085765
 30
0.0
 40
2.799999999999999
  0
LINE
  5
1E1
330
20
100
AcDbEntity
  8
0
  6
Continuous
 62
     3
100
AcDbLine
 10
424.0567069999999
 20
209.785765
 30
0.0
 11
424.0567069999999
 21
210.385765
 31
0.0
  0
LINE
  5
1E2
330
20
100
AcDbEntity
  8
0
  6
Continuous
 62
     3
100
AcDbLine
 10
425.556707
 20
211.885765
 30
0.0
 11
426.156707
 21
211.885765
 31
0.0
  0
LINE
  5
1E3
330
20
100
AcDbEntity
  8
0
  6
Continuous
 62
     3
100
AcDbLine
 10
427.656707
 20
209.785765
 30
0.0
 11
427.656707
 21
210.385765
 31
0.0
  0
LINE
  5
1E4
330
20
100
AcDbEntity
  8
0
  6
Continuous
 62
     3
100
AcDbLine
 10
425.556707
 20
208.285765
 30
0.0
 11
426.156707
 21
208.285765
 31
0.0
  0
LINE
  5
1E5
330
20
100
AcDbEntity
  8
0
  6
Continuous
 62
     3
100
AcDbLine
 10
427.656707
 20
209.785765
 30
0.0
 11
427.056707
 21
209.785765
 31
0.0
  0
LINE
  5
1E6
330
20
100
AcDbEntity
  8
0
  6
Continuous
 62
     3
100
AcDbLine
 10
426.156707
 20
208.285765
 30
0.0
 11
426.156707
 21
208.885765
 31
0.0
  0
LINE
  5
1E7
330
20
100
AcDbEntity
  8
0
  6
Continuous
 62
     3
100
AcDbLine
 10
425.556707
 20
208.285765
 30
0.0
 11
425.556707
 21
208.885765
 31
0.0
  0
LINE
  5
1E8
330
20
100
AcDbEntity
  8
0
  6
Continuous
 62
     3
100
AcDbLine
 10
424.0567069999999
 20
210.385765
 30
0.0
 11
424.656707
 21
210.385765
 31
0.0
  0
LINE
  5
1E9
330
20
100
AcDbEntity
  8
0
  6
Continuous
 62
     3
100
AcDbLine
 10
426.156707
 20
211.885765
 30
0.0
 11
426.156707
 21
211.285765
 31
0.0
  0
LINE
  5
1EA
330
20
100
AcDbEntity
  8
0
  6
Continuous
 62
     3
100
AcDbLine
 10
427.656707
 20
209.785765
 30
0.0
 11
427.056707
 21
209.785765
 31
0.0
  0
LINE
  5
1EB
330
20
100
AcDbEntity
  8
0
  6
Continuous
 62
     3
100
AcDbLine
 10
427.656707
 20
210.385765
 30
0.0
 11
427.056707
 21
210.385765
 31
0.0
  0
LINE
  5
1EC
330
20
100
AcDbEntity
  8
0
  6
Continuous
 62
     3
100
AcDbLine
 10
425.556707
 20
211.885765
 30
0.0
 11
425.556707
 21
211.285765
 31
0.0
  0
LINE
  5
1ED
330
20
100
AcDbEntity
  8
0
  6
Continuous
 62
     3
100
AcDbLine
 10
424.0567069999999
 20
209.785765
 30
0.0
 11
424.656707
 21
209.785765
 31
0.0
  0
ARC
  5
1EE
330
20
100
AcDbEntity
  8
0
  6
Continuous
 62
     3
100
AcDbCircle
 10
426.956707
 20
211.185765
 30
0.0
 40
0.8
100
AcDbArc
 50
172.3
 51
277.7
  0
ARC
  5
1EF
330
20
100
AcDbEntity
  8
0
  6
Continuous
 62
     3
100
AcDbCircle
 10
424.756707
 20
211.185765
 30
0.0
 40
0.8
100
AcDbArc
 50
262.3
 51
7.699999999999999
  0
ARC
  5
1F0
330
20
100
AcDbEntity
  8
0
  6
Continuous
 62
     3
100
AcDbCircle
 10
424.756707
 20
208.985765
 30
0.0
 40
0.8
100
AcDbArc
 50
352.3
 51
97.70000000000001
  0
ARC
  5
1F1
330
20
100
AcDbEntity
  8
0
  6
Continuous
 62
     3
100
AcDbCircle
 10
426.956707
 20
208.985765
 30
0.0
 40
0.8
100
AcDbArc
 50
82.3
 51
187.7
  0
CIRCLE
  5
1F2
330
20
100
AcDbEntity
  8
0
  6
Continuous
 62
     3
100
AcDbCircle
 10
425.856707
 20
199.935765
 30
0.0
 40
2.799999999999999
  0
LINE
  5
1F3
330
20
100
AcDbEntity
  8
0
  6
Continuous
 62
     3
100
AcDbLine
 10
424.0567069999999
 20
199.635765
 30
0.0
 11
424.0567069999999
 21
200.235765
 31
0.0
  0
LINE
  5
1F4
330
20
100
AcDbEntity
  8
0
  6
Continuous
 62
     3
100
AcDbLine
 10
425.556707
 20
201.735765
 30
0.0
 11
426.156707
 21
201.735765
 31
0.0
  0
LINE
  5
1F5
330
20
100
AcDbEntity
  8
0
  6
Continuous
 62
     3
100
AcDbLine
 10
427.656707
 20
199.635765
 30
0.0
 11
427.656707
 21
200.235765
 31
0.0
  0
LINE
  5
1F6
330
20
100
AcDbEntity
  8
0
  6
Continuous
 62
     3
100
AcDbLine
 10
425.556707
 20
198.1357649999999
 30
0.0
 11
426.156707
 21
198.1357649999999
 31
0.0
  0
LINE
  5
1F7
330
20
100
AcDbEntity
  8
0
  6
Continuous
 62
     3
100
AcDbLine
 10
427.656707
 20
199.635765
 30
0.0
 11
427.056707
 21
199.635765
 31
0.0
  0
LINE
  5
1F8
330
20
100
AcDbEntity
  8
0
  6
Continuous
 62
     3
100
AcDbLine
 10
426.156707
 20
198.1357649999999
 30
0.0
 11
426.156707
 21
198.735765
 31
0.0
  0
LINE
  5
1F9
330
20
100
AcDbEntity
  8
0
  6
Continuous
 62
     3
100
AcDbLine
 10
425.556707
 20
198.1357649999999
 30
0.0
 11
425.556707
 21
198.735765
 31
0.0
  0
LINE
  5
1FA
330
20
100
AcDbEntity
  8
0
  6
Continuous
 62
     3
100
AcDbLine
 10
424.0567069999999
 20
200.235765
 30
0.0
 11
424.656707
 21
200.235765
 31
0.0
  0
LINE
  5
1FB
330
20
100
AcDbEntity
  8
0
  6
Continuous
 62
     3
100
AcDbLine
 10
426.156707
 20
201.735765
 30
0.0
 11
426.156707
 21
201.135765
 31
0.0
  0
LINE
  5
1FC
330
20
100
AcDbEntity
  8
0
  6
Continuous
 62
     3
100
AcDbLine
 10
427.656707
 20
199.635765
 30
0.0
 11
427.056707
 21
199.635765
 31
0.0
  0
LINE
  5
1FD
330
20
100
AcDbEntity
  8
0
  6
Continuous
 62
     3
100
AcDbLine
 10
427.656707
 20
200.235765
 30
0.0
 11
427.056707
 21
200.235765
 31
0.0
  0
LINE
  5
1FE
330
20
100
AcDbEntity
  8
0
  6
Continuous
 62
     3
100
AcDbLine
 10
425.556707
 20
201.735765
 30
0.0
 11
425.556707
 21
201.135765
 31
0.0
  0
LINE
  5
1FF
330
20
100
AcDbEntity
  8
0
  6
Continuous
 62
     3
100
AcDbLine
 10
424.0567069999999
 20
199.635765
 30
0.0
 11
424.656707
 21
199.635765
 31
0.0
  0
ARC
  5
200
330
20
100
AcDbEntity
  8
0
  6
Continuous
 62
     3
100
AcDbCircle
 10
426.956707
 20
201.035765
 30
0.0
 40
0.8
100
AcDbArc
 50
172.3
 51
277.7
  0
ARC
  5
201
330
20
100
AcDbEntity
  8
0
  6
Continuous
 62
     3
100
AcDbCircle
 10
424.756707
 20
201.035765
 30
0.0
 40
0.8
100
AcDbArc
 50
262.3
 51
7.699999999999999
  0
ARC
  5
202
330
20
100
AcDbEntity
  8
0
  6
Continuous
 62
     3
100
AcDbCircle
 10
424.756707
 20
198.835765
 30
0.0
 40
0.8
100
AcDbArc
 50
352.3
 51
97.70000000000001
  0
ARC
  5
203
330
20
100
AcDbEntity
  8
0
  6
Continuous
 62
     3
100
AcDbCircle
 10
426.956707
 20
198.835765
 30
0.0
 40
0.8
100
AcDbArc
 50
82.3
 51
187.7
  0
CIRCLE
  5
204
330
20
100
AcDbEntity
  8
0
  6
Continuous
 62
     3
100
AcDbCircle
 10
425.856707
 20
189.785765
 30
0.0
 40
2.799999999999999
  0
LINE
  5
205
330
20
100
AcDbEntity
  8
0
  6
Continuous
 62
     3
100
AcDbLine
 10
424.0567069999999
 20
189.485765
 30
0.0
 11
424.0567069999999
 21
190.085765
 31
0.0
  0
LINE
  5
206
330
20
100
AcDbEntity
  8
0
  6
Continuous
 62
     3
100
AcDbLine
 10
425.556707
 20
191.5857649999999
 30
0.0
 11
426.156707
 21
191.5857649999999
 31
0.0
  0
LINE
  5
207
330
20
100
AcDbEntity
  8
0
  6
Continuous
 62
     3
100
AcDbLine
 10
427.656707
 20
189.485765
 30
0.0
 11
427.656707
 21
190.085765
 31
0.0
  0
LINE
  5
208
330
20
100
AcDbEntity
  8
0
  6
Continuous
 62
     3
100
AcDbLine
 10
425.556707
 20
187.985765
 30
0.0
 11
426.156707
 21
187.985765
 31
0.0
  0
LINE
  5
209
330
20
100
AcDbEntity
  8
0
  6
Continuous
 62
     3
100
AcDbLine
 10
427.656707
 20
189.485765
 30
0.0
 11
427.056707
 21
189.485765
 31
0.0
  0
LINE
  5
20A
330
20
100
AcDbEntity
  8
0
  6
Continuous
 62
     3
100
AcDbLine
 10
426.156707
 20
187.985765
 30
0.0
 11
426.156707
 21
188.585765
 31
0.0
  0
LINE
  5
20B
330
20
100
AcDbEntity
  8
0
  6
Continuous
 62
     3
100
AcDbLine
 10
425.556707
 20
187.985765
 30
0.0
 11
425.556707
 21
188.585765
 31
0.0
  0
LINE
  5
20C
330
20
100
AcDbEntity
  8
0
  6
Continuous
 62
     3
100
AcDbLine
 10
424.0567069999999
 20
190.085765
 30
0.0
 11
424.656707
 21
190.085765
 31
0.0
  0
LINE
  5
20D
330
20
100
AcDbEntity
  8
0
  6
Continuous
 62
     3
100
AcDbLine
 10
426.156707
 20
191.5857649999999
 30
0.0
 11
426.156707
 21
190.985765
 31
0.0
  0
LINE
  5
20E
330
20
100
AcDbEntity
  8
0
  6
Continuous
 62
     3
100
AcDbLine
 10
427.656707
 20
189.485765
 30
0.0
 11
427.056707
 21
189.485765
 31
0.0
  0
LINE
  5
20F
330
20
100
AcDbEntity
  8
0
  6
Continuous
 62
     3
100
AcDbLine
 10
427.656707
 20
190.085765
 30
0.0
 11
427.056707
 21
190.085765
 31
0.0
  0
LINE
  5
210
330
20
100
AcDbEntity
  8
0
  6
Continuous
 62
     3
100
AcDbLine
 10
425.556707
 20
191.5857649999999
 30
0.0
 11
425.556707
 21
190.985765
 31
0.0
  0
LINE
  5
211
330
20
100
AcDbEntity
  8
0
  6
Continuous
 62
     3
100
AcDbLine
 10
424.0567069999999
 20
189.485765
 30
0.0
 11
424.656707
 21
189.485765
 31
0.0
  0
ARC
  5
212
330
20
100
AcDbEntity
  8
0
  6
Continuous
 62
     3
100
AcDbCircle
 10
426.956707
 20
190.885765
 30
0.0
 40
0.8
100
AcDbArc
 50
172.3
 51
277.7
  0
ARC
  5
213
330
20
100
AcDbEntity
  8
0
  6
Continuous
 62
     3
100
AcDbCircle
 10
424.756707
 20
190.885765
 30
0.0
 40
0.8
100
AcDbArc
 50
262.3
 51
7.699999999999999
  0
ARC
  5
214
330
20
100
AcDbEntity
  8
0
  6
Continuous
 62
     3
100
AcDbCircle
 10
424.756707
 20
188.685765
 30
0.0
 40
0.8
100
AcDbArc
 50
352.3
 51
97.70000000000001
  0
ARC
  5
215
330
20
100
AcDbEntity
  8
0
  6
Continuous
 62
     3
100
AcDbCircle
 10
426.956707
 20
188.685765
 30
0.0
 40
0.8
100
AcDbArc
 50
82.3
 51
187.7
  0
CIRCLE
  5
216
330
20
100
AcDbEntity
  8
0
  6
Continuous
 62
     3
100
AcDbCircle
 10
425.856707
 20
179.635765
 30
0.0
 40
2.799999999999999
  0
LINE
  5
217
330
20
100
AcDbEntity
  8
0
  6
Continuous
 62
     3
100
AcDbLine
 10
424.0567069999999
 20
179.335765
 30
0.0
 11
424.0567069999999
 21
179.935765
 31
0.0
  0
LINE
  5
218
330
20
100
AcDbEntity
  8
0
  6
Continuous
 62
     3
100
AcDbLine
 10
425.556707
 20
181.435765
 30
0.0
 11
426.156707
 21
181.435765
 31
0.0
  0
LINE
  5
219
330
20
100
AcDbEntity
  8
0
  6
Continuous
 62
     3
100
AcDbLine
 10
427.656707
 20
179.335765
 30
0.0
 11
427.656707
 21
179.935765
 31
0.0
  0
LINE
  5
21A
330
20
100
AcDbEntity
  8
0
  6
Continuous
 62
     3
100
AcDbLine
 10
425.556707
 20
177.835765
 30
0.0
 11
426.156707
 21
177.835765
 31
0.0
  0
LINE
  5
21B
330
20
100
AcDbEntity
  8
0
  6
Continuous
 62
     3
100
AcDbLine
 10
427.656707
 20
179.335765
 30
0.0
 11
427.056707
 21
179.335765
 31
0.0
  0
LINE
  5
21C
330
20
100
AcDbEntity
  8
0
  6
Continuous
 62
     3
100
AcDbLine
 10
426.156707
 20
177.835765
 30
0.0
 11
426.156707
 21
178.435765
 31
0.0
  0
LINE
  5
21D
330
20
100
AcDbEntity
  8
0
  6
Continuous
 62
     3
100
AcDbLine
 10
425.556707
 20
177.835765
 30
0.0
 11
425.556707
 21
178.435765
 31
0.0
  0
LINE
  5
21E
330
20
100
AcDbEntity
  8
0
  6
Continuous
 62
     3
100
AcDbLine
 10
424.0567069999999
 20
179.935765
 30
0.0
 11
424.656707
 21
179.935765
 31
0.0
  0
LINE
  5
21F
330
20
100
AcDbEntity
  8
0
  6
Continuous
 62
     3
100
AcDbLine
 10
426.156707
 20
181.435765
 30
0.0
 11
426.156707
 21
180.8357649999999
 31
0.0
  0
LINE
  5
220
330
20
100
AcDbEntity
  8
0
  6
Continuous
 62
     3
100
AcDbLine
 10
427.656707
 20
179.335765
 30
0.0
 11
427.056707
 21
179.335765
 31
0.0
  0
LINE
  5
221
330
20
100
AcDbEntity
  8
0
  6
Continuous
 62
     3
100
AcDbLine
 10
427.656707
 20
179.935765
 30
0.0
 11
427.056707
 21
179.935765
 31
0.0
  0
LINE
  5
222
330
20
100
AcDbEntity
  8
0
  6
Continuous
 62
     3
100
AcDbLine
 10
425.556707
 20
181.435765
 30
0.0
 11
425.556707
 21
180.8357649999999
 31
0.0
  0
LINE
  5
223
330
20
100
AcDbEntity
  8
0
  6
Continuous
 62
     3
100
AcDbLine
 10
424.0567069999999
 20
179.335765
 30
0.0
 11
424.656707
 21
179.335765
 31
0.0
  0
ARC
  5
224
330
20
100
AcDbEntity
  8
0
  6
Continuous
 62
     3
100
AcDbCircle
 10
426.956707
 20
180.735765
 30
0.0
 40
0.8
100
AcDbArc
 50
172.3
 51
277.7
  0
ARC
  5
225
330
20
100
AcDbEntity
  8
0
  6
Continuous
 62
     3
100
AcDbCircle
 10
424.756707
 20
180.735765
 30
0.0
 40
0.8
100
AcDbArc
 50
262.3
 51
7.699999999999999
  0
ARC
  5
226
330
20
100
AcDbEntity
  8
0
  6
Continuous
 62
     3
100
AcDbCircle
 10
424.756707
 20
178.535765
 30
0.0
 40
0.8
100
AcDbArc
 50
352.3
 51
97.70000000000001
  0
ARC
  5
227
330
20
100
AcDbEntity
  8
0
  6
Continuous
 62
     3
100
AcDbCircle
 10
426.956707
 20
178.535765
 30
0.0
 40
0.8
100
AcDbArc
 50
82.3
 51
187.7
  0
CIRCLE
  5
228
330
20
100
AcDbEntity
  8
0
  6
Continuous
 62
     3
100
AcDbCircle
 10
425.856707
 20
169.485765
 30
0.0
 40
2.799999999999999
  0
LINE
  5
229
330
20
100
AcDbEntity
  8
0
  6
Continuous
 62
     3
100
AcDbLine
 10
424.0567069999999
 20
169.185765
 30
0.0
 11
424.0567069999999
 21
169.785765
 31
0.0
  0
LINE
  5
22A
330
20
100
AcDbEntity
  8
0
  6
Continuous
 62
     3
100
AcDbLine
 10
425.556707
 20
171.285765
 30
0.0
 11
426.156707
 21
171.285765
 31
0.0
  0
LINE
  5
22B
330
20
100
AcDbEntity
  8
0
  6
Continuous
 62
     3
100
AcDbLine
 10
427.656707
 20
169.185765
 30
0.0
 11
427.656707
 21
169.785765
 31
0.0
  0
LINE
  5
22C
330
20
100
AcDbEntity
  8
0
  6
Continuous
 62
     3
100
AcDbLine
 10
425.556707
 20
167.685765
 30
0.0
 11
426.156707
 21
167.685765
 31
0.0
  0
LINE
  5
22D
330
20
100
AcDbEntity
  8
0
  6
Continuous
 62
     3
100
AcDbLine
 10
427.656707
 20
169.185765
 30
0.0
 11
427.056707
 21
169.185765
 31
0.0
  0
LINE
  5
22E
330
20
100
AcDbEntity
  8
0
  6
Continuous
 62
     3
100
AcDbLine
 10
426.156707
 20
167.685765
 30
0.0
 11
426.156707
 21
168.285765
 31
0.0
  0
LINE
  5
22F
330
20
100
AcDbEntity
  8
0
  6
Continuous
 62
     3
100
AcDbLine
 10
425.556707
 20
167.685765
 30
0.0
 11
425.556707
 21
168.285765
 31
0.0
  0
LINE
  5
230
330
20
100
AcDbEntity
  8
0
  6
Continuous
 62
     3
100
AcDbLine
 10
424.0567069999999
 20
169.785765
 30
0.0
 11
424.656707
 21
169.785765
 31
0.0
  0
LINE
  5
231
330
20
100
AcDbEntity
  8
0
  6
Continuous
 62
     3
100
AcDbLine
 10
426.156707
 20
171.285765
 30
0.0
 11
426.156707
 21
170.685765
 31
0.0
  0
LINE
  5
232
330
20
100
AcDbEntity
  8
0
  6
Continuous
 62
     3
100
AcDbLine
 10
427.656707
 20
169.185765
 30
0.0
 11
427.056707
 21
169.185765
 31
0.0
  0
LINE
  5
233
330
20
100
AcDbEntity
  8
0
  6
Continuous
 62
     3
100
AcDbLine
 10
427.656707
 20
169.785765
 30
0.0
 11
427.056707
 21
169.785765
 31
0.0
  0
LINE
  5
234
330
20
100
AcDbEntity
  8
0
  6
Continuous
 62
     3
100
AcDbLine
 10
425.556707
 20
171.285765
 30
0.0
 11
425.556707
 21
170.685765
 31
0.0
  0
LINE
  5
235
330
20
100
AcDbEntity
  8
0
  6
Continuous
 62
     3
100
AcDbLine
 10
424.0567069999999
 20
169.185765
 30
0.0
 11
424.656707
 21
169.185765
 31
0.0
  0
ARC
  5
236
330
20
100
AcDbEntity
  8
0
  6
Continuous
 62
     3
100
AcDbCircle
 10
426.956707
 20
170.585765
 30
0.0
 40
0.8
100
AcDbArc
 50
172.3
 51
277.7
  0
ARC
  5
237
330
20
100
AcDbEntity
  8
0
  6
Continuous
 62
     3
100
AcDbCircle
 10
424.756707
 20
170.585765
 30
0.0
 40
0.8
100
AcDbArc
 50
262.3
 51
7.699999999999999
  0
ARC
  5
238
330
20
100
AcDbEntity
  8
0
  6
Continuous
 62
     3
100
AcDbCircle
 10
424.756707
 20
168.385765
 30
0.0
 40
0.8
100
AcDbArc
 50
352.3
 51
97.70000000000001
  0
ARC
  5
239
330
20
100
AcDbEntity
  8
0
  6
Continuous
 62
     3
100
AcDbCircle
 10
426.956707
 20
168.385765
 30
0.0
 40
0.8
100
AcDbArc
 50
82.3
 51
187.7
  0
CIRCLE
  5
23A
330
20
100
AcDbEntity
  8
0
  6
Continuous
 62
     3
100
AcDbCircle
 10
425.856707
 20
159.3357649999999
 30
0.0
 40
2.799999999999999
  0
LINE
  5
23B
330
20
100
AcDbEntity
  8
0
  6
Continuous
 62
     3
100
AcDbLine
 10
424.0567069999999
 20
159.035765
 30
0.0
 11
424.0567069999999
 21
159.635765
 31
0.0
  0
LINE
  5
23C
330
20
100
AcDbEntity
  8
0
  6
Continuous
 62
     3
100
AcDbLine
 10
425.556707
 20
161.135765
 30
0.0
 11
426.156707
 21
161.135765
 31
0.0
  0
LINE
  5
23D
330
20
100
AcDbEntity
  8
0
  6
Continuous
 62
     3
100
AcDbLine
 10
427.656707
 20
159.035765
 30
0.0
 11
427.656707
 21
159.635765
 31
0.0
  0
LINE
  5
23E
330
20
100
AcDbEntity
  8
0
  6
Continuous
 62
     3
100
AcDbLine
 10
425.556707
 20
157.535765
 30
0.0
 11
426.156707
 21
157.535765
 31
0.0
  0
LINE
  5
23F
330
20
100
AcDbEntity
  8
0
  6
Continuous
 62
     3
100
AcDbLine
 10
427.656707
 20
159.035765
 30
0.0
 11
427.056707
 21
159.035765
 31
0.0
  0
LINE
  5
240
330
20
100
AcDbEntity
  8
0
  6
Continuous
 62
     3
100
AcDbLine
 10
426.156707
 20
157.535765
 30
0.0
 11
426.156707
 21
158.135765
 31
0.0
  0
LINE
  5
241
330
20
100
AcDbEntity
  8
0
  6
Continuous
 62
     3
100
AcDbLine
 10
425.556707
 20
157.535765
 30
0.0
 11
425.556707
 21
158.135765
 31
0.0
  0
LINE
  5
242
330
20
100
AcDbEntity
  8
0
  6
Continuous
 62
     3
100
AcDbLine
 10
424.0567069999999
 20
159.635765
 30
0.0
 11
424.656707
 21
159.635765
 31
0.0
  0
LINE
  5
243
330
20
100
AcDbEntity
  8
0
  6
Continuous
 62
     3
100
AcDbLine
 10
426.156707
 20
161.135765
 30
0.0
 11
426.156707
 21
160.535765
 31
0.0
  0
LINE
  5
244
330
20
100
AcDbEntity
  8
0
  6
Continuous
 62
     3
100
AcDbLine
 10
427.656707
 20
159.035765
 30
0.0
 11
427.056707
 21
159.035765
 31
0.0
  0
LINE
  5
245
330
20
100
AcDbEntity
  8
0
  6
Continuous
 62
     3
100
AcDbLine
 10
427.656707
 20
159.635765
 30
0.0
 11
427.056707
 21
159.635765
 31
0.0
  0
LINE
  5
246
330
20
100
AcDbEntity
  8
0
  6
Continuous
 62
     3
100
AcDbLine
 10
425.556707
 20
161.135765
 30
0.0
 11
425.556707
 21
160.535765
 31
0.0
  0
LINE
  5
247
330
20
100
AcDbEntity
  8
0
  6
Continuous
 62
     3
100
AcDbLine
 10
424.0567069999999
 20
159.035765
 30
0.0
 11
424.656707
 21
159.035765
 31
0.0
  0
ARC
  5
248
330
20
100
AcDbEntity
  8
0
  6
Continuous
 62
     3
100
AcDbCircle
 10
426.956707
 20
160.435765
 30
0.0
 40
0.8
100
AcDbArc
 50
172.3
 51
277.7
  0
ARC
  5
249
330
20
100
AcDbEntity
  8
0
  6
Continuous
 62
     3
100
AcDbCircle
 10
424.756707
 20
160.435765
 30
0.0
 40
0.8
100
AcDbArc
 50
262.3
 51
7.699999999999999
  0
ARC
  5
24A
330
20
100
AcDbEntity
  8
0
  6
Continuous
 62
     3
100
AcDbCircle
 10
424.756707
 20
158.235765
 30
0.0
 40
0.8
100
AcDbArc
 50
352.3
 51
97.70000000000001
  0
ARC
  5
24B
330
20
100
AcDbEntity
  8
0
  6
Continuous
 62
     3
100
AcDbCircle
 10
426.956707
 20
158.235765
 30
0.0
 40
0.8
100
AcDbArc
 50
82.3
 51
187.7
  0
CIRCLE
  5
24C
330
20
100
AcDbEntity
  8
0
  6
Continuous
 62
     3
100
AcDbCircle
 10
425.856707
 20
148.685765
 30
0.0
 40
2.799999999999999
  0
LINE
  5
24D
330
20
100
AcDbEntity
  8
0
  6
Continuous
 62
     3
100
AcDbLine
 10
424.0567069999999
 20
148.385765
 30
0.0
 11
424.0567069999999
 21
148.985765
 31
0.0
  0
LINE
  5
24E
330
20
100
AcDbEntity
  8
0
  6
Continuous
 62
     3
100
AcDbLine
 10
425.556707
 20
150.485765
 30
0.0
 11
426.156707
 21
150.485765
 31
0.0
  0
LINE
  5
24F
330
20
100
AcDbEntity
  8
0
  6
Continuous
 62
     3
100
AcDbLine
 10
427.656707
 20
148.385765
 30
0.0
 11
427.656707
 21
148.985765
 31
0.0
  0
LINE
  5
250
330
20
100
AcDbEntity
  8
0
  6
Continuous
 62
     3
100
AcDbLine
 10
425.556707
 20
146.885765
 30
0.0
 11
426.156707
 21
146.885765
 31
0.0
  0
LINE
  5
251
330
20
100
AcDbEntity
  8
0
  6
Continuous
 62
     3
100
AcDbLine
 10
427.656707
 20
148.385765
 30
0.0
 11
427.056707
 21
148.385765
 31
0.0
  0
LINE
  5
252
330
20
100
AcDbEntity
  8
0
  6
Continuous
 62
     3
100
AcDbLine
 10
426.156707
 20
146.885765
 30
0.0
 11
426.156707
 21
147.485765
 31
0.0
  0
LINE
  5
253
330
20
100
AcDbEntity
  8
0
  6
Continuous
 62
     3
100
AcDbLine
 10
425.556707
 20
146.885765
 30
0.0
 11
425.556707
 21
147.485765
 31
0.0
  0
LINE
  5
254
330
20
100
AcDbEntity
  8
0
  6
Continuous
 62
     3
100
AcDbLine
 10
424.0567069999999
 20
148.985765
 30
0.0
 11
424.656707
 21
148.985765
 31
0.0
  0
LINE
  5
255
330
20
100
AcDbEntity
  8
0
  6
Continuous
 62
     3
100
AcDbLine
 10
426.156707
 20
150.485765
 30
0.0
 11
426.156707
 21
149.885765
 31
0.0
  0
LINE
  5
256
330
20
100
AcDbEntity
  8
0
  6
Continuous
 62
     3
100
AcDbLine
 10
427.656707
 20
148.385765
 30
0.0
 11
427.056707
 21
148.385765
 31
0.0
  0
LINE
  5
257
330
20
100
AcDbEntity
  8
0
  6
Continuous
 62
     3
100
AcDbLine
 10
427.656707
 20
148.985765
 30
0.0
 11
427.056707
 21
148.985765
 31
0.0
  0
LINE
  5
258
330
20
100
AcDbEntity
  8
0
  6
Continuous
 62
     3
100
AcDbLine
 10
425.556707
 20
150.485765
 30
0.0
 11
425.556707
 21
149.885765
 31
0.0
  0
LINE
  5
259
330
20
100
AcDbEntity
  8
0
  6
Continuous
 62
     3
100
AcDbLine
 10
424.0567069999999
 20
148.385765
 30
0.0
 11
424.656707
 21
148.385765
 31
0.0
  0
ARC
  5
25A
330
20
100
AcDbEntity
  8
0
  6
Continuous
 62
     3
100
AcDbCircle
 10
426.956707
 20
149.785765
 30
0.0
 40
0.8
100
AcDbArc
 50
172.3
 51
277.7
  0
ARC
  5
25B
330
20
100
AcDbEntity
  8
0
  6
Continuous
 62
     3
100
AcDbCircle
 10
424.756707
 20
149.785765
 30
0.0
 40
0.8
100
AcDbArc
 50
262.3
 51
7.699999999999999
  0
ARC
  5
25C
330
20
100
AcDbEntity
  8
0
  6
Continuous
 62
     3
100
AcDbCircle
 10
424.756707
 20
147.585765
 30
0.0
 40
0.8
100
AcDbArc
 50
352.3
 51
97.70000000000001
  0
ARC
  5
25D
330
20
100
AcDbEntity
  8
0
  6
Continuous
 62
     3
100
AcDbCircle
 10
426.956707
 20
147.585765
 30
0.0
 40
0.8
100
AcDbArc
 50
82.3
 51
187.7
  0
LWPOLYLINE
  5
25E
330
20
100
AcDbEntity
  8
0
  6
Continuous
 62
     3
100
AcDbPolyline
 90
        3
 70
     0
 43
0.0
 10
214.756707
 20
48.510765
 10
357.756707
 20
48.510765
 10
357.756707
 20
78.51076500000001
  0
CIRCLE
  5
263
330
20
100
AcDbEntity
  8
0
  6
Continuous
 62
     3
100
AcDbCircle
 10
263.756707
 20
68.51076500000001
 30
0.0
 40
1.199999999999999
  0
CIRCLE
  5
264
330
20
100
AcDbEntity
  8
0
  6
Continuous
 62
     3
100
AcDbCircle
 10
263.756707
 20
58.510765
 30
0.0
 40
1.199999999999999
  0
LINE
  5
265
330
20
100
AcDbEntity
  8
0
  6
Continuous
 62
     3
100
AcDbLine
 10
215.856707
 20
78.51076500000001
 30
0.0
 11
215.856707
 21
77.610765
 31
0.0
  0
LINE
  5
266
330
20
100
AcDbEntity
  8
0
  6
Continuous
 62
     3
100
AcDbLine
 10
357.756707
 20
78.51076500000001
 30
0.0
 11
215.856707
 21
78.51076500000001
 31
0.0
  0
LINE
  5
267
330
20
100
AcDbEntity
  8
0
  6
Continuous
 62
     3
100
AcDbLine
 10
215.856707
 20
77.610765
 30
0.0
 11
227.356707
 21
77.610765
 31
0.0
  0
LINE
  5
268
330
20
100
AcDbEntity
  8
0
  6
Continuous
 62
     3
100
AcDbLine
 10
227.356707
 20
77.510765
 30
0.0
 11
227.356707
 21
78.51076500000001
 31
0.0
  0
LINE
  5
269
330
20
100
AcDbEntity
  8
0
  6
Continuous
 62
     3
100
AcDbLine
 10
244.863
 20
48.510765
 30
0.0
 11
244.863
 21
76.51076500000001
 31
0.0
  0
LINE
  5
26A
330
20
100
AcDbEntity
  8
0
  6
Continuous
 62
     3
100
AcDbLine
 10
214.756707
 20
76.51076500000001
 30
0.0
 11
214.756707
 21
48.510765
 31
0.0
  0
LINE
  5
26B
330
20
100
AcDbEntity
  8
0
  6
Continuous
 62
     3
100
AcDbLine
 10
244.863
 20
76.51076500000001
 30
0.0
 11
214.756707
 21
76.51076500000001
 31
0.0
  0
LINE
  5
26C
330
20
100
AcDbEntity
  8
0
  6
Continuous
 62
     3
100
AcDbLine
 10
227.356707
 20
76.51076500000001
 30
0.0
 11
227.356707
 21
48.510765
 31
0.0
  0
LINE
  5
26D
330
20
100
AcDbEntity
  8
0
  6
Continuous
 62
     3
100
AcDbLine
 10
226.256707
 20
77.610765
 30
0.0
 11
226.256707
 21
76.51076500000001
 31
0.0
  0
LINE
  5
26E
330
20
100
AcDbEntity
  8
2
  6
Continuous
 62
     3
100
AcDbLine
 10
409.9567069999999
 20
358.610765
 30
0.0
 11
411.1567069999999
 21
358.610765
 31
0.0
  0
LINE
  5
26F
330
20
100
AcDbEntity
  8
2
  6
Continuous
 62
     3
100
AcDbLine
 10
409.9567069999999
 20
373.610765
 30
0.0
 11
449.956707
 21
373.610765
 31
0.0
  0
LINE
  5
270
330
20
100
AcDbEntity
  8
2
  6
Continuous
 62
     3
100
AcDbLine
 10
449.956707
 20
373.610765
 30
0.0
 11
449.956707
 21
372.410765
 31
0.0
  0
LINE
  5
271
330
20
100
AcDbEntity
  8
2
  6
Continuous
 62
     3
100
AcDbLine
 10
449.956707
 20
372.410765
 30
0.0
 11
411.1567069999999
 21
372.410765
 31
0.0
  0
LINE
  5
272
330
20
100
AcDbEntity
  8
2
  6
Continuous
 62
     3
100
AcDbLine
 10
411.1567069999999
 20
372.410765
 30
0.0
 11
411.1567069999999
 21
358.610765
 31
0.0
  0
LINE
  5
273
330
20
100
AcDbEntity
  8
2
  6
Continuous
 62
     3
100
AcDbLine
 10
409.9567069999999
 20
373.610765
 30
0.0
 11
409.9567069999999
 21
358.610765
 31
0.0
  0
LINE
  5
274
330
20
100
AcDbEntity
  8
2
  6
Continuous
 62
     3
100
AcDbLine
 10
409.9567069999999
 20
317.310765
 30
0.0
 11
449.956707
 21
317.310765
 31
0.0
  0
LINE
  5
275
330
20
100
AcDbEntity
  8
2
  6
Continuous
 62
     3
100
AcDbLine
 10
449.956707
 20
317.310765
 30
0.0
 11
449.956707
 21
347.310765
 31
0.0
  0
LINE
  5
276
330
20
100
AcDbEntity
  8
2
  6
Continuous
 62
     3
100
AcDbLine
 10
449.956707
 20
347.310765
 30
0.0
 11
409.9567069999999
 21
347.310765
 31
0.0
  0
LINE
  5
277
330
20
100
AcDbEntity
  8
2
  6
Continuous
 62
     3
100
AcDbLine
 10
409.9567069999999
 20
347.310765
 30
0.0
 11
409.9567069999999
 21
317.310765
 31
0.0
  0
LINE
  5
278
330
20
100
AcDbEntity
  8
2
  6
Continuous
 62
     3
100
AcDbLine
 10
411.1567069999999
 20
347.310765
 30
0.0
 11
411.1567069999999
 21
317.310765
 31
0.0
  0
LINE
  5
279
330
20
100
AcDbEntity
  8
2
  6
Continuous
 62
     3
100
AcDbLine
 10
437.706707
 20
339.060765
 30
0.0
 11
440.956707
 21
339.060765
 31
0.0
  0
LINE
  5
27A
330
20
100
AcDbEntity
  8
2
  6
Continuous
 62
     3
100
AcDbLine
 10
437.706707
 20
335.560765
 30
0.0
 11
440.956707
 21
335.560765
 31
0.0
  0
ARC
  5
27B
330
20
100
AcDbEntity
  8
2
  6
Continuous
 62
     3
100
AcDbCircle
 10
437.706707
 20
337.310765
 30
0.0
 40
1.75
100
AcDbArc
 50
90.00024997199998
 51
269.999750028
  0
LINE
  5
27C
330
20
100
AcDbEntity
  8
2
  6
Continuous
 62
     3
100
AcDbLine
 10
444.206707
 20
339.060765
 30
0.0
 11
440.956707
 21
339.060765
 31
0.0
  0
LINE
  5
27D
330
20
100
AcDbEntity
  8
2
  6
Continuous
 62
     3
100
AcDbLine
 10
444.206707
 20
335.560765
 30
0.0
 11
440.956707
 21
335.560765
 31
0.0
  0
ARC
  5
27E
330
20
100
AcDbEntity
  8
2
  6
Continuous
 62
     3
100
AcDbCircle
 10
444.206707
 20
337.310765
 30
0.0
 40
1.75
100
AcDbArc
 50
270.000249972
 51
89.99975002799999
  0
LINE
  5
27F
330
20
100
AcDbEntity
  8
2
  6
Continuous
 62
     3
100
AcDbLine
 10
437.706707
 20
325.560765
 30
0.0
 11
440.956707
 21
325.560765
 31
0.0
  0
LINE
  5
280
330
20
100
AcDbEntity
  8
2
  6
Continuous
 62
     3
100
AcDbLine
 10
437.706707
 20
329.060765
 30
0.0
 11
440.956707
 21
329.060765
 31
0.0
  0
ARC
  5
281
330
20
100
AcDbEntity
  8
2
  6
Continuous
 62
     3
100
AcDbCircle
 10
437.706707
 20
327.310765
 30
0.0
 40
1.75
100
AcDbArc
 50
90.00024997199998
 51
269.999750028
  0
LINE
  5
282
330
20
100
AcDbEntity
  8
2
  6
Continuous
 62
     3
100
AcDbLine
 10
444.206707
 20
325.560765
 30
0.0
 11
440.956707
 21
325.560765
 31
0.0
  0
LINE
  5
283
330
20
100
AcDbEntity
  8
2
  6
Continuous
 62
     3
100
AcDbLine
 10
444.206707
 20
329.060765
 30
0.0
 11
440.956707
 21
329.060765
 31
0.0
  0
ARC
  5
284
330
20
100
AcDbEntity
  8
2
  6
Continuous
 62
     3
100
AcDbCircle
 10
444.206707
 20
327.310765
 30
0.0
 40
1.75
100
AcDbArc
 50
270.000249972
 51
89.99975002799999
  0
LINE
  5
285
330
20
100
AcDbEntity
  8
2
  6
Continuous
 62
     3
100
AcDbLine
 10
376.256707
 20
373.610765
 30
0.0
 11
346.256707
 21
373.610765
 31
0.0
  0
LINE
  5
286
330
20
100
AcDbEntity
  8
2
  6
Continuous
 62
     3
100
AcDbLine
 10
346.256707
 20
373.610765
 30
0.0
 11
346.256707
 21
358.610765
 31
0.0
  0
LINE
  5
287
330
20
100
AcDbEntity
  8
2
  6
Continuous
 62
     3
100
AcDbLine
 10
346.256707
 20
358.610765
 30
0.0
 11
376.256707
 21
358.610765
 31
0.0
  0
LINE
  5
288
330
20
100
AcDbEntity
  8
2
  6
Continuous
 62
     3
100
AcDbLine
 10
376.256707
 20
358.610765
 30
0.0
 11
376.256707
 21
373.610765
 31
0.0
  0
ARC
  5
289
330
20
100
AcDbEntity
  8
2
  6
Continuous
 62
     3
100
AcDbCircle
 10
363.256707
 20
363.610765
 30
0.0
 40
2.0
100
AcDbArc
 50
269.999890717
 51
90.00010928299998
  0
ARC
  5
28A
330
20
100
AcDbEntity
  8
2
  6
Continuous
 62
     3
100
AcDbCircle
 10
359.456707
 20
363.610765
 30
0.0
 40
2.0
100
AcDbArc
 50
89.99989071700003
 51
270.000109283
  0
LINE
  5
28B
330
20
100
AcDbEntity
  8
2
  6
Continuous
 62
     3
100
AcDbLine
 10
359.456710815
 20
365.610765
 30
0.0
 11
363.256703185
 21
365.610765
 31
0.0
  0
LINE
  5
28C
330
20
100
AcDbEntity
  8
2
  6
Continuous
 62
     3
100
AcDbLine
 10
359.456710815
 20
361.610765
 30
0.0
 11
363.256703185
 21
361.610765
 31
0.0
  0
CIRCLE
  5
28D
330
20
100
AcDbEntity
  8
0
  6
Continuous
 62
     3
100
AcDbCircle
 10
437.256707
 20
184.810765
 30
0.0
 40
3.306055051
  0
LINE
  5
28E
330
20
100
AcDbEntity
  8
0
  6
Continuous
 62
     3
100
AcDbLine
 10
433.9886800719999
 20
185.310765
 30
0.0
 11
440.524733928
 21
185.310765
 31
0.0
  0
LINE
  5
28F
330
20
100
AcDbEntity
  8
0
  6
Continuous
 62
     3
100
AcDbLine
 10
433.9886800719999
 20
184.310765
 30
0.0
 11
440.524733928
 21
184.310765
 31
0.0
  0
CIRCLE
  5
290
330
20
100
AcDbEntity
  8
0
  6
LTYPE1
 62
     1
100
AcDbCircle
 10
259.756707
 20
227.810765
 30
0.0
 40
1.5
  0
LINE
  5
291
330
20
100
AcDbEntity
  8
0
  6
LTYPE1
 62
     1
100
AcDbLine
 10
259.756707
 20
225.310765
 30
0.0
 11
259.756707
 21
230.310765
 31
0.0
  0
LINE
  5
292
330
20
100
AcDbEntity
  8
0
  6
LTYPE1
 62
     1
100
AcDbLine
 10
257.256707
 20
227.810765
 30
0.0
 11
262.256707
 21
227.810765
 31
0.0
  0
LINE
  5
293
330
20
100
AcDbEntity
  8
0
  6
LTYPE1
 62
     1
100
AcDbLine
 10
273.756707
 20
227.810765
 30
0.0
 11
269.756707
 21
227.810765
 31
0.0
  0
LINE
  5
294
330
20
100
AcDbEntity
  8
0
  6
LTYPE1
 62
     1
100
AcDbLine
 10
271.756707
 20
229.810765
 30
0.0
 11
271.756707
 21
225.810765
 31
0.0
  0
CIRCLE
  5
295
330
20
100
AcDbEntity
  8
0
  6
LTYPE1
 62
     1
100
AcDbCircle
 10
259.756707
 20
141.810765
 30
0.0
 40
1.5
  0
LINE
  5
296
330
20
100
AcDbEntity
  8
0
  6
LTYPE1
 62
     1
100
AcDbLine
 10
259.756707
 20
144.310765
 30
0.0
 11
259.756707
 21
139.310765
 31
0.0
  0
LINE
  5
297
330
20
100
AcDbEntity
  8
0
  6
LTYPE1
 62
     1
100
AcDbLine
 10
257.256707
 20
141.810765
 30
0.0
 11
262.256707
 21
141.810765
 31
0.0
  0
LINE
  5
298
330
20
100
AcDbEntity
  8
0
  6
LTYPE1
 62
     1
100
AcDbLine
 10
273.756707
 20
141.810765
 30
0.0
 11
269.756707
 21
141.810765
 31
0.0
  0
LINE
  5
299
330
20
100
AcDbEntity
  8
0
  6
LTYPE1
 62
     1
100
AcDbLine
 10
271.756707
 20
139.810765
 30
0.0
 11
271.756707
 21
143.810765
 31
0.0
  0
LINE
  5
29A
330
20
100
AcDbEntity
  8
0
  6
LTYPE1
 62
     1
100
AcDbLine
 10
348.056707
 20
232.410765
 30
0.0
 11
348.056707
 21
223.810765
 31
0.0
  0
LINE
  5
29B
330
20
100
AcDbEntity
  8
0
  6
LTYPE1
 62
     1
100
AcDbLine
 10
343.756707
 20
228.110765
 30
0.0
 11
352.356707
 21
228.110765
 31
0.0
  0
LINE
  5
29C
330
20
100
AcDbEntity
  8
0
  6
LTYPE1
 62
     1
100
AcDbLine
 10
348.056707
 20
137.210765
 30
0.0
 11
348.056707
 21
145.810765
 31
0.0
  0
LINE
  5
29D
330
20
100
AcDbEntity
  8
0
  6
LTYPE1
 62
     1
100
AcDbLine
 10
343.756707
 20
141.510765
 30
0.0
 11
352.356707
 21
141.510765
 31
0.0
  0
LINE
  5
29E
330
20
100
AcDbEntity
  8
0
  6
LTYPE1
 62
     1
100
AcDbLine
 10
240.856707
 20
232.410765
 30
0.0
 11
240.856707
 21
223.810765
 31
0.0
  0
LINE
  5
29F
330
20
100
AcDbEntity
  8
0
  6
LTYPE1
 62
     1
100
AcDbLine
 10
236.556707
 20
228.110765
 30
0.0
 11
245.156707
 21
228.110765
 31
0.0
  0
LINE
  5
2A0
330
20
100
AcDbEntity
  8
0
  6
LTYPE1
 62
     1
100
AcDbLine
 10
240.856707
 20
137.210765
 30
0.0
 11
240.856707
 21
145.810765
 31
0.0
  0
LINE
  5
2A1
330
20
100
AcDbEntity
  8
0
  6
LTYPE1
 62
     1
100
AcDbLine
 10
236.556707
 20
141.510765
 30
0.0
 11
245.156707
 21
141.510765
 31
0.0
  0
LINE
  5
2A2
330
20
100
AcDbEntity
  8
2
  6
LTYPE1
 62
     1
100
AcDbLine
 10
263.756707
 20
233.310765
 30
0.0
 11
263.756707
 21
237.710765
 31
0.0
  0
LINE
  5
2A3
330
20
100
AcDbEntity
  8
2
  6
LTYPE1
 62
     1
100
AcDbLine
 10
263.756707
 20
136.310765
 30
0.0
 11
263.756707
 21
131.910765
 31
0.0
  0
LINE
  5
2A4
330
20
100
AcDbEntity
  8
2
  6
LTYPE1
 62
     1
100
AcDbLine
 10
229.356707
 20
244.810765
 30
0.0
 11
235.756707
 21
244.810765
 31
0.0
  0
LINE
  5
2A5
330
20
100
AcDbEntity
  8
2
  6
LTYPE1
 62
     1
100
AcDbLine
 10
236.756707
 20
124.810765
 30
0.0
 11
229.256707
 21
124.810765
 31
0.0
  0
LINE
  5
2A6
330
20
100
AcDbEntity
  8
2
  6
LTYPE1
 62
     1
100
AcDbLine
 10
156.856707
 20
126.810765
 30
0.0
 11
156.856707
 21
122.810765
 31
0.0
  0
LINE
  5
2A7
330
20
100
AcDbEntity
  8
2
  6
LTYPE1
 62
     1
100
AcDbLine
 10
156.856707
 20
242.810765
 30
0.0
 11
156.856707
 21
246.810765
 31
0.0
  0
LINE
  5
2A8
330
20
100
AcDbEntity
  8
2
  6
LTYPE1
 62
     1
100
AcDbLine
 10
150.256707
 20
244.810765
 30
0.0
 11
161.756707
 21
244.810765
 31
0.0
  0
LINE
  5
2A9
330
20
100
AcDbEntity
  8
2
  6
LTYPE1
 62
     1
100
AcDbLine
 10
162.656707
 20
124.810765
 30
0.0
 11
150.256707
 21
124.810765
 31
0.0
  0
LINE
  5
2AA
330
20
100
AcDbEntity
  8
0
  6
LTYPE1
 62
     1
100
AcDbLine
 10
78.406707
 20
244.810765
 30
0.0
 11
74.90670699999999
 21
244.810765
 31
0.0
  0
LINE
  5
2AB
330
20
100
AcDbEntity
  8
0
  6
LTYPE1
 62
     1
100
AcDbLine
 10
76.65670699999999
 20
246.560765
 30
0.0
 11
76.65670699999999
 21
243.060765
 31
0.0
  0
LINE
  5
2AC
330
20
100
AcDbEntity
  8
0
  6
LTYPE1
 62
     1
100
AcDbLine
 10
78.406707
 20
124.810765
 30
0.0
 11
74.90670699999999
 21
124.810765
 31
0.0
  0
LINE
  5
2AD
330
20
100
AcDbEntity
  8
0
  6
LTYPE1
 62
     1
100
AcDbLine
 10
76.65670699999999
 20
123.060765
 30
0.0
 11
76.65670699999999
 21
126.560765
 31
0.0
  0
LINE
  5
2AE
330
20
100
AcDbEntity
  8
0
  6
LTYPE1
 62
     1
100
AcDbLine
 10
425.856707
 20
225.035765
 30
0.0
 11
425.856707
 21
216.435765
 31
0.0
  0
LINE
  5
2AF
330
20
100
AcDbEntity
  8
0
  6
LTYPE1
 62
     1
100
AcDbLine
 10
421.556707
 20
220.735765
 30
0.0
 11
430.156707
 21
220.735765
 31
0.0
  0
LINE
  5
2B0
330
20
100
AcDbEntity
  8
0
  6
LTYPE1
 62
     1
100
AcDbLine
 10
425.856707
 20
214.385765
 30
0.0
 11
425.856707
 21
205.785765
 31
0.0
  0
LINE
  5
2B1
330
20
100
AcDbEntity
  8
0
  6
LTYPE1
 62
     1
100
AcDbLine
 10
421.556707
 20
210.085765
 30
0.0
 11
430.156707
 21
210.085765
 31
0.0
  0
LINE
  5
2B2
330
20
100
AcDbEntity
  8
0
  6
LTYPE1
 62
     1
100
AcDbLine
 10
425.856707
 20
204.235765
 30
0.0
 11
425.856707
 21
195.635765
 31
0.0
  0
LINE
  5
2B3
330
20
100
AcDbEntity
  8
0
  6
LTYPE1
 62
     1
100
AcDbLine
 10
421.556707
 20
199.935765
 30
0.0
 11
430.156707
 21
199.935765
 31
0.0
  0
LINE
  5
2B4
330
20
100
AcDbEntity
  8
0
  6
LTYPE1
 62
     1
100
AcDbLine
 10
425.856707
 20
194.085765
 30
0.0
 11
425.856707
 21
185.4857649999999
 31
0.0
  0
LINE
  5
2B5
330
20
100
AcDbEntity
  8
0
  6
LTYPE1
 62
     1
100
AcDbLine
 10
421.556707
 20
189.785765
 30
0.0
 11
430.156707
 21
189.785765
 31
0.0
  0
LINE
  5
2B6
330
20
100
AcDbEntity
  8
0
  6
LTYPE1
 62
     1
100
AcDbLine
 10
425.856707
 20
183.935765
 30
0.0
 11
425.856707
 21
175.335765
 31
0.0
  0
LINE
  5
2B7
330
20
100
AcDbEntity
  8
0
  6
LTYPE1
 62
     1
100
AcDbLine
 10
421.556707
 20
179.635765
 30
0.0
 11
430.156707
 21
179.635765
 31
0.0
  0
LINE
  5
2B8
330
20
100
AcDbEntity
  8
0
  6
LTYPE1
 62
     1
100
AcDbLine
 10
425.856707
 20
173.785765
 30
0.0
 11
425.856707
 21
165.185765
 31
0.0
  0
LINE
  5
2B9
330
20
100
AcDbEntity
  8
0
  6
LTYPE1
 62
     1
100
AcDbLine
 10
421.556707
 20
169.485765
 30
0.0
 11
430.156707
 21
169.485765
 31
0.0
  0
LINE
  5
2BA
330
20
100
AcDbEntity
  8
0
  6
LTYPE1
 62
     1
100
AcDbLine
 10
425.856707
 20
163.635765
 30
0.0
 11
425.856707
 21
155.035765
 31
0.0
  0
LINE
  5
2BB
330
20
100
AcDbEntity
  8
0
  6
LTYPE1
 62
     1
100
AcDbLine
 10
421.556707
 20
159.3357649999999
 30
0.0
 11
430.156707
 21
159.3357649999999
 31
0.0
  0
LINE
  5
2BC
330
20
100
AcDbEntity
  8
0
  6
LTYPE1
 62
     1
100
AcDbLine
 10
425.856707
 20
152.985765
 30
0.0
 11
425.856707
 21
144.385765
 31
0.0
  0
LINE
  5
2BD
330
20
100
AcDbEntity
  8
0
  6
LTYPE1
 62
     1
100
AcDbLine
 10
421.556707
 20
148.685765
 30
0.0
 11
430.156707
 21
148.685765
 31
0.0
  0
CIRCLE
  5
2BE
330
20
100
AcDbEntity
  8
0
  6
LTYPE1
 62
     1
100
AcDbCircle
 10
263.756707
 20
68.51076500000001
 30
0.0
 40
1.5
  0
LINE
  5
2BF
330
20
100
AcDbEntity
  8
0
  6
LTYPE1
 62
     1
100
AcDbLine
 10
263.756707
 20
71.01076500000001
 30
0.0
 11
263.756707
 21
66.01076500000001
 31
0.0
  0
LINE
  5
2C0
330
20
100
AcDbEntity
  8
0
  6
LTYPE1
 62
     1
100
AcDbLine
 10
261.256707
 20
68.51076500000001
 30
0.0
 11
266.256707
 21
68.51076500000001
 31
0.0
  0
CIRCLE
  5
2C1
330
20
100
AcDbEntity
  8
0
  6
LTYPE1
 62
     1
100
AcDbCircle
 10
263.756707
 20
58.510765
 30
0.0
 40
1.5
  0
LINE
  5
2C2
330
20
100
AcDbEntity
  8
0
  6
LTYPE1
 62
     1
100
AcDbLine
 10
263.756707
 20
61.010765
 30
0.0
 11
263.756707
 21
56.010765
 31
0.0
  0
LINE
  5
2C3
330
20
100
AcDbEntity
  8
0
  6
LTYPE1
 62
     1
100
AcDbLine
 10
261.256707
 20
58.510765
 30
0.0
 11
266.256707
 21
58.510765
 31
0.0
  0
LINE
  5
2C4
330
20
100
AcDbEntity
  8
2
  6
LTYPE1
 62
     1
100
AcDbLine
 10
367.756707
 20
363.610765
 30
0.0
 11
354.756707
 21
363.610765
 31
0.0
  0
LINE
  5
2C5
330
20
100
AcDbEntity
  8
2
  6
LTYPE1
 62
     1
100
AcDbLine
 10
361.256707
 20
365.610765
 30
0.0
 11
361.256707
 21
361.610765
 31
0.0
  0
LINE
  5
2C6
330
20
100
AcDbEntity
  8
2
  6
LTYPE1
 62
     1
100
AcDbLine
 10
445.956707
 20
337.310765
 30
0.0
 11
435.956707
 21
337.310765
 31
0.0
  0
LINE
  5
2C7
330
20
100
AcDbEntity
  8
2
  6
LTYPE1
 62
     1
100
AcDbLine
 10
440.956707
 20
339.060765
 30
0.0
 11
440.956707
 21
335.560765
 31
0.0
  0
LINE
  5
2C8
330
20
100
AcDbEntity
  8
2
  6
LTYPE1
 62
     1
100
AcDbLine
 10
445.956707
 20
327.310765
 30
0.0
 11
435.956707
 21
327.310765
 31
0.0
  0
LINE
  5
2C9
330
20
100
AcDbEntity
  8
2
  6
LTYPE1
 62
     1
100
AcDbLine
 10
440.956707
 20
329.060765
 30
0.0
 11
440.956707
 21
325.560765
 31
0.0
  0
LINE
  5
2CA
330
20
100
AcDbEntity
  8
2
  6
LTYPE1
 62
     1
100
AcDbLine
 10
440.956707
 20
375.110765
 30
0.0
 11
440.956707
 21
370.710765
 31
0.0
  0
LINE
  5
2CB
330
20
100
AcDbEntity
  8
0
  6
Continuous
 62
     4
100
AcDbLine
 10
162.056707
 20
171.980765
 30
0.0
 11
158.256707
 21
171.980765
 31
0.0
  0
LINE
  5
2CC
330
20
100
AcDbEntity
  8
0
  6
Continuous
 62
     4
100
AcDbLine
 10
162.056707
 20
186.160765
 30
0.0
 11
158.256707
 21
186.160765
 31
0.0
  0
LINE
  5
2CD
330
20
100
AcDbEntity
  8
0
  6
Continuous
 62
     4
100
AcDbLine
 10
162.056707
 20
200.340765
 30
0.0
 11
158.256707
 21
200.340765
 31
0.0
  0
LINE
  5
2CE
330
20
100
AcDbEntity
  8
0
  6
Continuous
 62
     4
100
AcDbLine
 10
162.056707
 20
214.520765
 30
0.0
 11
158.256707
 21
214.520765
 31
0.0
  0
LINE
  5
2CF
330
20
100
AcDbEntity
  8
0
  6
Continuous
 62
     4
100
AcDbLine
 10
162.056707
 20
152.128765
 30
0.0
 11
158.256707
 21
152.128765
 31
0.0
  0
LINE
  5
2D0
330
20
100
AcDbEntity
  8
0
  6
Continuous
 62
     4
100
AcDbLine
 10
162.056707
 20
153.546765
 30
0.0
 11
158.256707
 21
153.546765
 31
0.0
  0
LINE
  5
2D1
330
20
100
AcDbEntity
  8
0
  6
Continuous
 62
     4
100
AcDbLine
 10
162.056707
 20
154.964765
 30
0.0
 11
158.256707
 21
154.964765
 31
0.0
  0
LINE
  5
2D2
330
20
100
AcDbEntity
  8
0
  6
Continuous
 62
     4
100
AcDbLine
 10
162.056707
 20
156.382765
 30
0.0
 11
158.256707
 21
156.382765
 31
0.0
  0
LINE
  5
2D3
330
20
100
AcDbEntity
  8
0
  6
Continuous
 62
     4
100
AcDbLine
 10
162.056707
 20
159.218765
 30
0.0
 11
158.256707
 21
159.218765
 31
0.0
  0
LINE
  5
2D4
330
20
100
AcDbEntity
  8
0
  6
Continuous
 62
     4
100
AcDbLine
 10
162.056707
 20
160.636765
 30
0.0
 11
158.256707
 21
160.636765
 31
0.0
  0
LINE
  5
2D5
330
20
100
AcDbEntity
  8
0
  6
Continuous
 62
     4
100
AcDbLine
 10
162.056707
 20
162.054765
 30
0.0
 11
158.256707
 21
162.054765
 31
0.0
  0
LINE
  5
2D6
330
20
100
AcDbEntity
  8
0
  6
Continuous
 62
     4
100
AcDbLine
 10
162.056707
 20
163.472765
 30
0.0
 11
158.256707
 21
163.472765
 31
0.0
  0
LINE
  5
2D7
330
20
100
AcDbEntity
  8
0
  6
Continuous
 62
     4
100
AcDbLine
 10
162.056707
 20
166.308765
 30
0.0
 11
158.256707
 21
166.308765
 31
0.0
  0
LINE
  5
2D8
330
20
100
AcDbEntity
  8
0
  6
Continuous
 62
     4
100
AcDbLine
 10
162.056707
 20
167.726765
 30
0.0
 11
158.256707
 21
167.726765
 31
0.0
  0
LINE
  5
2D9
330
20
100
AcDbEntity
  8
0
  6
Continuous
 62
     4
100
AcDbLine
 10
162.056707
 20
169.1447649999999
 30
0.0
 11
158.256707
 21
169.1447649999999
 31
0.0
  0
LINE
  5
2DA
330
20
100
AcDbEntity
  8
0
  6
Continuous
 62
     4
100
AcDbLine
 10
162.056707
 20
170.562765
 30
0.0
 11
158.256707
 21
170.562765
 31
0.0
  0
LINE
  5
2DB
330
20
100
AcDbEntity
  8
0
  6
Continuous
 62
     4
100
AcDbLine
 10
162.056707
 20
173.398765
 30
0.0
 11
158.256707
 21
173.398765
 31
0.0
  0
LINE
  5
2DC
330
20
100
AcDbEntity
  8
0
  6
Continuous
 62
     4
100
AcDbLine
 10
162.056707
 20
174.816765
 30
0.0
 11
158.256707
 21
174.816765
 31
0.0
  0
LINE
  5
2DD
330
20
100
AcDbEntity
  8
0
  6
Continuous
 62
     4
100
AcDbLine
 10
162.056707
 20
176.234765
 30
0.0
 11
158.256707
 21
176.234765
 31
0.0
  0
LINE
  5
2DE
330
20
100
AcDbEntity
  8
0
  6
Continuous
 62
     4
100
AcDbLine
 10
162.056707
 20
177.652765
 30
0.0
 11
158.256707
 21
177.652765
 31
0.0
  0
LINE
  5
2DF
330
20
100
AcDbEntity
  8
0
  6
Continuous
 62
     4
100
AcDbLine
 10
162.056707
 20
180.488765
 30
0.0
 11
158.256707
 21
180.488765
 31
0.0
  0
LINE
  5
2E0
330
20
100
AcDbEntity
  8
0
  6
Continuous
 62
     4
100
AcDbLine
 10
162.056707
 20
181.906765
 30
0.0
 11
158.256707
 21
181.906765
 31
0.0
  0
LINE
  5
2E1
330
20
100
AcDbEntity
  8
0
  6
Continuous
 62
     4
100
AcDbLine
 10
162.056707
 20
183.324765
 30
0.0
 11
158.256707
 21
183.324765
 31
0.0
  0
LINE
  5
2E2
330
20
100
AcDbEntity
  8
0
  6
Continuous
 62
     4
100
AcDbLine
 10
162.056707
 20
184.742765
 30
0.0
 11
158.256707
 21
184.742765
 31
0.0
  0
LINE
  5
2E3
330
20
100
AcDbEntity
  8
0
  6
Continuous
 62
     4
100
AcDbLine
 10
162.056707
 20
187.578765
 30
0.0
 11
158.256707
 21
187.578765
 31
0.0
  0
LINE
  5
2E4
330
20
100
AcDbEntity
  8
0
  6
Continuous
 62
     4
100
AcDbLine
 10
162.056707
 20
188.9967649999999
 30
0.0
 11
158.256707
 21
188.9967649999999
 31
0.0
  0
LINE
  5
2E5
330
20
100
AcDbEntity
  8
0
  6
Continuous
 62
     4
100
AcDbLine
 10
162.056707
 20
190.414765
 30
0.0
 11
158.256707
 21
190.414765
 31
0.0
  0
LINE
  5
2E6
330
20
100
AcDbEntity
  8
0
  6
Continuous
 62
     4
100
AcDbLine
 10
162.056707
 20
191.832765
 30
0.0
 11
158.256707
 21
191.832765
 31
0.0
  0
LINE
  5
2E7
330
20
100
AcDbEntity
  8
0
  6
Continuous
 62
     4
100
AcDbLine
 10
162.056707
 20
194.668765
 30
0.0
 11
158.256707
 21
194.668765
 31
0.0
  0
LINE
  5
2E8
330
20
100
AcDbEntity
  8
0
  6
Continuous
 62
     4
100
AcDbLine
 10
162.056707
 20
196.086765
 30
0.0
 11
158.256707
 21
196.086765
 31
0.0
  0
LINE
  5
2E9
330
20
100
AcDbEntity
  8
0
  6
Continuous
 62
     4
100
AcDbLine
 10
162.056707
 20
197.504765
 30
0.0
 11
158.256707
 21
197.504765
 31
0.0
  0
LINE
  5
2EA
330
20
100
AcDbEntity
  8
0
  6
Continuous
 62
     4
100
AcDbLine
 10
162.056707
 20
198.922765
 30
0.0
 11
158.256707
 21
198.922765
 31
0.0
  0
LINE
  5
2EB
330
20
100
AcDbEntity
  8
0
  6
Continuous
 62
     4
100
AcDbLine
 10
162.056707
 20
201.758765
 30
0.0
 11
158.256707
 21
201.758765
 31
0.0
  0
LINE
  5
2EC
330
20
100
AcDbEntity
  8
0
  6
Continuous
 62
     4
100
AcDbLine
 10
162.056707
 20
203.176765
 30
0.0
 11
158.256707
 21
203.176765
 31
0.0
  0
LINE
  5
2ED
330
20
100
AcDbEntity
  8
0
  6
Continuous
 62
     4
100
AcDbLine
 10
162.056707
 20
204.594765
 30
0.0
 11
158.256707
 21
204.594765
 31
0.0
  0
LINE
  5
2EE
330
20
100
AcDbEntity
  8
0
  6
Continuous
 62
     4
100
AcDbLine
 10
162.056707
 20
206.012765
 30
0.0
 11
158.256707
 21
206.012765
 31
0.0
  0
LINE
  5
2EF
330
20
100
AcDbEntity
  8
0
  6
Continuous
 62
     4
100
AcDbLine
 10
162.056707
 20
208.848765
 30
0.0
 11
158.256707
 21
208.848765
 31
0.0
  0
LINE
  5
2F0
330
20
100
AcDbEntity
  8
0
  6
Continuous
 62
     4
100
AcDbLine
 10
162.056707
 20
210.266765
 30
0.0
 11
158.256707
 21
210.266765
 31
0.0
  0
LINE
  5
2F1
330
20
100
AcDbEntity
  8
0
  6
Continuous
 62
     4
100
AcDbLine
 10
162.056707
 20
211.684765
 30
0.0
 11
158.256707
 21
211.684765
 31
0.0
  0
LINE
  5
2F2
330
20
100
AcDbEntity
  8
0
  6
Continuous
 62
     4
100
AcDbLine
 10
162.056707
 20
213.102765
 30
0.0
 11
158.256707
 21
213.102765
 31
0.0
  0
LINE
  5
2F3
330
20
100
AcDbEntity
  8
0
  6
Continuous
 62
     4
100
AcDbLine
 10
162.056707
 20
215.938765
 30
0.0
 11
158.256707
 21
215.938765
 31
0.0
  0
LINE
  5
2F4
330
20
100
AcDbEntity
  8
0
  6
Continuous
 62
     4
100
AcDbLine
 10
162.056707
 20
217.356765
 30
0.0
 11
158.256707
 21
217.356765
 31
0.0
  0
LINE
  5
2F5
330
20
100
AcDbEntity
  8
0
  6
Continuous
 62
     4
100
AcDbLine
 10
162.056707
 20
218.774765
 30
0.0
 11
158.256707
 21
218.774765
 31
0.0
  0
LINE
  5
2F6
330
20
100
AcDbEntity
  8
0
  6
Continuous
 62
     4
100
AcDbLine
 10
162.056707
 20
220.192765
 30
0.0
 11
158.256707
 21
220.192765
 31
0.0
  0
LINE
  5
2F7
330
20
100
AcDbEntity
  8
2
  6
Continuous
 62
     4
100
AcDbLine
 10
141.856707
 20
133.610765
 30
0.0
 11
171.956707
 21
133.610765
 31
0.0
  0
LINE
  5
2F8
330
20
100
AcDbEntity
  8
2
  6
Continuous
 62
     4
100
AcDbLine
 10
171.856707
 20
236.010765
 30
0.0
 11
141.756707
 21
236.010765
 31
0.0
  0
LINE
  5
2F9
330
20
100
AcDbEntity
  8
0
  6
Continuous
 62
     4
100
AcDbLine
 10
160.856707
 20
155.510765
 30
0.0
 11
160.856707
 21
156.010765
 31
0.0
  0
LINE
  5
2FA
330
20
100
AcDbEntity
  8
0
  6
Continuous
 62
     4
100
AcDbLine
 10
160.856707
 20
156.010765
 30
0.0
 11
147.856707
 21
156.010765
 31
0.0
  0
LINE
  5
2FB
330
20
100
AcDbEntity
  8
0
  6
Continuous
 62
     4
100
AcDbLine
 10
147.856707
 20
155.510765
 30
0.0
 11
160.856707
 21
155.510765
 31
0.0
  0
LINE
  5
2FC
330
20
100
AcDbEntity
  8
0
  6
Continuous
 62
     4
100
AcDbLine
 10
147.856707
 20
155.510765
 30
0.0
 11
147.856707
 21
156.010765
 31
0.0
  0
TEXT
  5
2FD
330
20
100
AcDbEntity
  8
0
  6
Continuous
 62
     4
100
AcDbText
 10
151.456707
 20
224.910765
 30
0.36
 40
2.64
  1
Ｌ／ｈ
  7
KANJI1
100
AcDbText
  0
TEXT
  5
2FE
330
20
100
AcDbEntity
  8
0
  6
Continuous
 62
     4
100
AcDbText
 10
431.856707
 20
217.485765
 30
0.0
 40
5.7
  1
ａ
  7
KANJI2
100
AcDbText
  0
TEXT
  5
2FF
330
20
100
AcDbEntity
  8
0
  6
Continuous
 62
     4
100
AcDbText
 10
432.306707
 20
207.285765
 30
0.0
 40
6.5
  1
ｃ
  7
KANJI3
100
AcDbText
  0
TEXT
  5
300
330
20
100
AcDbEntity
  8
0
  6
Continuous
 62
     4
100
AcDbText
 10
431.856707
 20
196.985765
 30
0.0
 40
6.299999999999999
  1
ｂ
  7
KANJI4
100
AcDbText
  0
TEXT
  5
301
330
20
100
AcDbEntity
  8
0
  6
Continuous
 62
     4
100
AcDbText
 10
431.256707
 20
187.835765
 30
0.0
 40
5.7
  1
ａ
  7
KANJI2
100
AcDbText
  0
TEXT
  5
302
330
20
100
AcDbEntity
  8
0
  6
Continuous
 62
     4
100
AcDbText
 10
431.406707
 20
177.235765
 30
0.0
 40
6.5
  1
ｃ
  7
KANJI3
100
AcDbText
  0
TEXT
  5
303
330
20
100
AcDbEntity
  8
0
  6
Continuous
 62
     4
100
AcDbText
 10
431.356707
 20
167.035765
 30
0.0
 40
6.299999999999999
  1
ｂ
  7
KANJI4
100
AcDbText
  0
TEXT
  5
304
330
20
100
AcDbEntity
  8
0
  6
Continuous
 62
     4
100
AcDbText
 10
447.956707
 20
207.385765
 30
0.3
 40
4.4
  1
ＨＩＧＨ
  7
KANJI5
100
AcDbText
  0
TEXT
  5
305
330
20
100
AcDbEntity
  8
0
  6
Continuous
 62
     4
100
AcDbText
 10
448.356707
 20
171.9857649999999
 30
1.35
 40
4.299999999999999
  1
ＬＯＷ
  7
KANJI6
100
AcDbText
  0
LINE
  5
306
330
20
100
AcDbEntity
  8
0
  6
Continuous
 62
     4
100
AcDbLine
 10
420.356707
 20
159.235765
 30
1.35
 11
414.9567069999999
 21
159.235765
 31
1.35
  0
LINE
  5
307
330
20
100
AcDbEntity
  8
0
  6
Continuous
 62
     4
100
AcDbLine
 10
414.9567069999999
 20
159.235765
 30
0.0
 11
414.9567069999999
 21
147.8357649999999
 31
0.0
  0
TEXT
  5
308
330
20
100
AcDbEntity
  8
0
  6
Continuous
 62
     4
100
AcDbText
 10
406.7567069999999
 20
151.935765
 30
0.0
 40
3.9
  1
ＡＣ
  7
KANJI7
100
AcDbText
  0
LINE
  5
309
330
20
100
AcDbEntity
  8
0
  6
Continuous
 62
     4
100
AcDbLine
 10
414.9567069999999
 20
147.8357649999999
 30
0.0
 11
420.756707
 21
147.8357649999999
 31
0.0
  0
LINE
  5
30A
330
20
100
AcDbEntity
  8
2
  6
Continuous
 62
     4
100
AcDbLine
 10
346.256707
 20
372.410765
 30
0.0
 11
376.356707
 21
372.410765
 31
0.0
  0
LINE
  5
30B
330
20
100
AcDbEntity
  8
3
  6
Continuous
 62
     4
100
AcDbLine
 10
214.756707
 20
185.810765
 30
0.0
 11
214.756707
 21
261.410765
 31
0.0
  0
LINE
  5
30C
330
20
100
AcDbEntity
  8
3
  6
Continuous
 62
     4
100
AcDbLine
 10
214.756707
 20
260.4107649999999
 30
0.0
 11
217.171521566
 21
259.763717387
 31
0.0
  0
LINE
  5
30D
330
20
100
AcDbEntity
  8
3
  6
Continuous
 62
     4
100
AcDbLine
 10
214.756707
 20
260.4107649999999
 30
0.0
 11
217.171521566
 21
261.057812613
 31
0.0
  0
LINE
  5
30E
330
20
100
AcDbEntity
  8
3
  6
Continuous
 62
     4
100
AcDbLine
 10
214.756707
 20
260.4107649999999
 30
0.0
 11
357.756707
 21
260.4107649999999
 31
0.0
  0
LINE
  5
30F
330
20
100
AcDbEntity
  8
3
  6
Continuous
 62
     4
100
AcDbLine
 10
357.756707
 20
260.4107649999999
 30
0.0
 11
355.341892434
 21
261.057812613
 31
0.0
  0
LINE
  5
310
330
20
100
AcDbEntity
  8
3
  6
Continuous
 62
     4
100
AcDbLine
 10
357.756707
 20
260.4107649999999
 30
0.0
 11
355.341892434
 21
259.763717387
 31
0.0
  0
LINE
  5
311
330
20
100
AcDbEntity
  8
3
  6
Continuous
 62
     4
100
AcDbLine
 10
357.756707
 20
235.810765
 30
0.0
 11
357.756707
 21
261.410765
 31
0.0
  0
LINE
  5
312
330
20
100
AcDbEntity
  8
3
  6
Continuous
 62
     4
100
AcDbLine
 10
215.944502472
 20
169.44364958
 30
0.0
 11
218.430066533
 21
169.175374911
 31
0.0
  0
LINE
  5
313
330
20
100
AcDbEntity
  8
3
  6
Continuous
 62
     4
100
AcDbLine
 10
215.944502472
 20
169.44364958
 30
0.0
 11
218.231201426
 21
170.454098932
 31
0.0
  0
LINE
  5
314
330
20
100
AcDbEntity
  8
3
  6
Continuous
 62
     4
100
AcDbLine
 10
215.944502472
 20
169.44364958
 30
0.0
 11
314.756707
 21
184.810765
 31
0.0
  0
LINE
  5
315
330
20
100
AcDbEntity
  8
3
  6
Continuous
 62
     4
100
AcDbLine
 10
357.756707
 20
260.4107649999999
 30
0.0
 11
360.171521566
 21
259.763717387
 31
0.0
  0
LINE
  5
316
330
20
100
AcDbEntity
  8
3
  6
Continuous
 62
     4
100
AcDbLine
 10
357.756707
 20
260.4107649999999
 30
0.0
 11
360.171521566
 21
261.057812613
 31
0.0
  0
LWPOLYLINE
  5
317
330
20
100
AcDbEntity
  8
3
  6
Continuous
 62
     4
100
AcDbPolyline
 90
        3
 70
     0
 43
0.0
 10
357.756707
 20
260.4107649999999
 10
372.756707
 20
260.4107649999999
 10
370.341892434
 20
261.057812613
  0
LINE
  5
31C
330
20
100
AcDbEntity
  8
3
  6
Continuous
 62
     4
100
AcDbLine
 10
372.756707
 20
260.4107649999999
 30
0.0
 11
370.341892434
 21
259.763717387
 31
0.0
  0
LINE
  5
31D
330
20
100
AcDbEntity
  8
3
  6
Continuous
 62
     4
100
AcDbLine
 10
372.756707
 20
228.310765
 30
0.0
 11
372.756707
 21
261.410765
 31
0.0
  0
LINE
  5
31E
330
20
100
AcDbEntity
  8
3
  6
Continuous
 62
     4
100
AcDbLine
 10
214.756707
 20
248.910765
 30
0.0
 11
214.756707
 21
249.310765
 31
0.0
  0
LINE
  5
31F
330
20
100
AcDbEntity
  8
3
  6
Continuous
 62
     4
100
AcDbLine
 10
214.756707
 20
248.310765
 30
0.0
 11
217.171521566
 21
247.663717387
 31
0.0
  0
LINE
  5
320
330
20
100
AcDbEntity
  8
3
  6
Continuous
 62
     4
100
AcDbLine
 10
214.756707
 20
248.310765
 30
0.0
 11
217.171521566
 21
248.957812613
 31
0.0
  0
LINE
  5
321
330
20
100
AcDbEntity
  8
3
  6
Continuous
 62
     4
100
AcDbLine
 10
214.756707
 20
248.310765
 30
0.0
 11
259.756707
 21
248.310765
 31
0.0
  0
LINE
  5
322
330
20
100
AcDbEntity
  8
3
  6
Continuous
 62
     4
100
AcDbLine
 10
259.756707
 20
248.310765
 30
0.0
 11
257.341892434
 21
248.957812613
 31
0.0
  0
LINE
  5
323
330
20
100
AcDbEntity
  8
3
  6
Continuous
 62
     4
100
AcDbLine
 10
259.756707
 20
248.310765
 30
0.0
 11
257.341892434
 21
247.663717387
 31
0.0
  0
LINE
  5
324
330
20
100
AcDbEntity
  8
3
  6
Continuous
 62
     4
100
AcDbLine
 10
259.756707
 20
231.310765
 30
0.0
 11
259.756707
 21
249.310765
 31
0.0
  0
LINE
  5
325
330
20
100
AcDbEntity
  8
3
  6
Continuous
 62
     4
100
AcDbLine
 10
259.756707
 20
248.310765
 30
0.0
 11
262.171521566
 21
247.663717387
 31
0.0
  0
LINE
  5
326
330
20
100
AcDbEntity
  8
3
  6
Continuous
 62
     4
100
AcDbLine
 10
259.756707
 20
248.310765
 30
0.0
 11
262.171521566
 21
248.957812613
 31
0.0
  0
LWPOLYLINE
  5
327
330
20
100
AcDbEntity
  8
3
  6
Continuous
 62
     4
100
AcDbPolyline
 90
        3
 70
     0
 43
0.0
 10
259.756707
 20
248.310765
 10
271.756707
 20
248.310765
 10
269.341892434
 20
248.957812613
  0
LINE
  5
32C
330
20
100
AcDbEntity
  8
3
  6
Continuous
 62
     4
100
AcDbLine
 10
271.756707
 20
248.310765
 30
0.0
 11
269.341892434
 21
247.663717387
 31
0.0
  0
LINE
  5
32D
330
20
100
AcDbEntity
  8
3
  6
Continuous
 62
     4
100
AcDbLine
 10
271.756707
 20
230.810765
 30
0.0
 11
271.756707
 21
249.310765
 31
0.0
  0
LINE
  5
32E
330
20
100
AcDbEntity
  8
3
  6
Continuous
 62
     4
100
AcDbLine
 10
274.756707
 20
227.810765
 30
0.0
 11
296.956707
 21
227.810765
 31
0.0
  0
LINE
  5
32F
330
20
100
AcDbEntity
  8
3
  6
Continuous
 62
     4
100
AcDbLine
 10
295.956707
 20
227.810765
 30
0.0
 11
295.309659387
 21
225.395950434
 31
0.0
  0
LINE
  5
330
330
20
100
AcDbEntity
  8
3
  6
Continuous
 62
     4
100
AcDbLine
 10
295.956707
 20
227.810765
 30
0.0
 11
296.603754613
 21
225.395950434
 31
0.0
  0
LINE
  5
331
330
20
100
AcDbEntity
  8
3
  6
Continuous
 62
     4
100
AcDbLine
 10
295.956707
 20
227.810765
 30
0.0
 11
295.956707
 21
141.810765
 31
0.0
  0
LINE
  5
332
330
20
100
AcDbEntity
  8
3
  6
Continuous
 62
     4
100
AcDbLine
 10
295.956707
 20
141.810765
 30
0.0
 11
296.603754613
 21
144.225579566
 31
0.0
  0
LINE
  5
333
330
20
100
AcDbEntity
  8
3
  6
Continuous
 62
     4
100
AcDbLine
 10
295.956707
 20
141.810765
 30
0.0
 11
295.309659387
 21
144.225579566
 31
0.0
  0
LINE
  5
334
330
20
100
AcDbEntity
  8
3
  6
Continuous
 62
     4
100
AcDbLine
 10
274.756707
 20
141.810765
 30
0.0
 11
296.956707
 21
141.810765
 31
0.0
  0
LINE
  5
335
330
20
100
AcDbEntity
  8
3
  6
Continuous
 62
     4
100
AcDbLine
 10
261.356707
 20
229.110765
 30
0.0
 11
263.498689219
 21
230.399916726
 31
0.0
  0
LINE
  5
336
330
20
100
AcDbEntity
  8
3
  6
Continuous
 62
     4
100
AcDbLine
 10
261.356707
 20
229.110765
 30
0.0
 11
262.567142154
 21
231.298194254
 31
0.0
  0
LINE
  5
337
330
20
100
AcDbEntity
  8
3
  6
Continuous
 62
     4
100
AcDbLine
 10
261.356707
 20
229.110765
 30
0.0
 11
282.956707
 21
251.510765
 31
0.0
  0
LINE
  5
338
330
20
100
AcDbEntity
  8
3
  6
Continuous
 62
     4
100
AcDbLine
 10
282.956707
 20
251.510765
 30
0.0
 11
312.756707
 21
251.510765
 31
0.0
  0
TEXT
  5
339
330
20
100
AcDbEntity
  8
3
  6
Continuous
 62
     4
100
AcDbText
 10
282.956707
 20
252.510765
 30
0.3
 40
4.0
  1
２－Ｍ３タップ
  7
KANJI8
100
AcDbText
  0
LINE
  5
33A
330
20
100
AcDbEntity
  8
3
  6
Continuous
 62
     4
100
AcDbLine
 10
273.756707
 20
228.910765
 30
0.3
 11
275.936672535
 21
230.134591076
 31
0.3
  0
LINE
  5
33B
330
20
100
AcDbEntity
  8
3
  6
Continuous
 62
     4
100
AcDbLine
 10
273.756707
 20
228.910765
 30
0.0
 11
275.032699495
 21
231.060612239
 31
0.0
  0
LINE
  5
33C
330
20
100
AcDbEntity
  8
3
  6
Continuous
 62
     4
100
AcDbLine
 10
273.756707
 20
228.910765
 30
0.0
 11
286.356707
 21
241.210765
 31
0.0
  0
LINE
  5
33D
330
20
100
AcDbEntity
  8
3
  6
Continuous
 62
     4
100
AcDbLine
 10
286.356707
 20
241.210765
 30
0.0
 11
303.256707
 21
241.210765
 31
0.0
  0
TEXT
  5
33E
330
20
100
AcDbEntity
  8
3
  6
Continuous
 62
     4
100
AcDbText
 10
286.356707
 20
242.210765
 30
0.3
 40
4.0
  1
２－φ４
  7
KANJI8
100
AcDbText
  0
LINE
  5
33F
330
20
100
AcDbEntity
  8
3
  6
Continuous
 62
     4
100
AcDbLine
 10
214.756707
 20
261.410765
 30
0.3
 11
214.756707
 21
281.910765
 31
0.3
  0
LINE
  5
340
330
20
100
AcDbEntity
  8
3
  6
Continuous
 62
     4
100
AcDbLine
 10
214.756707
 20
280.9107649999999
 30
0.0
 11
217.171521566
 21
280.263717387
 31
0.0
  0
LINE
  5
341
330
20
100
AcDbEntity
  8
3
  6
Continuous
 62
     4
100
AcDbLine
 10
214.756707
 20
280.9107649999999
 30
0.0
 11
217.171521566
 21
281.557812613
 31
0.0
  0
LINE
  5
342
330
20
100
AcDbEntity
  8
3
  6
Continuous
 62
     4
100
AcDbLine
 10
214.756707
 20
280.9107649999999
 30
0.0
 11
232.756707
 21
280.9107649999999
 31
0.0
  0
LINE
  5
343
330
20
100
AcDbEntity
  8
3
  6
Continuous
 62
     4
100
AcDbLine
 10
232.756707
 20
280.9107649999999
 30
0.0
 11
230.341892434
 21
281.557812613
 31
0.0
  0
LINE
  5
344
330
20
100
AcDbEntity
  8
3
  6
Continuous
 62
     4
100
AcDbLine
 10
232.756707
 20
280.9107649999999
 30
0.0
 11
230.341892434
 21
280.263717387
 31
0.0
  0
LINE
  5
345
330
20
100
AcDbEntity
  8
3
  6
Continuous
 62
     4
100
AcDbLine
 10
232.756707
 20
250.810765
 30
0.0
 11
232.756707
 21
281.910765
 31
0.0
  0
TEXT
  5
346
330
20
100
AcDbEntity
  8
3
  6
Continuous
 62
     4
100
AcDbText
 10
261.606707
 20
249.310765
 30
0.3
 40
5.0
  1
１２
  7
KANJI9
100
AcDbText
  0
TEXT
  5
347
330
20
100
AcDbEntity
  8
3
  6
Continuous
 62
     4
100
AcDbText
 10
239.406707
 20
249.410765
 30
0.3
 40
5.0
  1
４５
  7
KANJI9
100
AcDbText
  0
TEXT
  5
348
330
20
100
AcDbEntity
  8
3
  6
Continuous
 62
     4
100
AcDbText
 10
215.306707
 20
281.910765
 30
0.3
 40
5.0
  1
（１８）
  7
KANJI9
100
AcDbText
  0
TEXT
  5
349
330
20
100
AcDbEntity
  8
3
  6
Continuous
 62
     4
100
AcDbText
 10
279.956707
 20
261.410765
 30
0.3
 40
5.0
  1
１４３
  7
KANJI9
100
AcDbText
  0
TEXT
  5
34A
330
20
100
AcDbEntity
  8
3
  6
Continuous
 62
     4
100
AcDbText
 10
254.803035846
 20
176.498887045
 30
0.3
 40
5.0
  1
Ｒ１００
 50
8.839735688999999
  7
KANJI9
100
AcDbText
  0
TEXT
  5
34B
330
20
100
AcDbEntity
  8
3
  6
Continuous
 62
     4
100
AcDbText
 10
294.856707
 20
184.660765
 30
0.3
 40
5.0
  1
８６
 50
90.0
  7
KANJI9
100
AcDbText
  0
TEXT
  5
34C
330
20
100
AcDbEntity
  8
3
  6
Continuous
 62
     4
100
AcDbText
 10
361.106707
 20
261.410765
 30
0.3
 40
5.0
  1
１５
  7
KANJI9
100
AcDbText
  0
LINE
  5
34D
330
20
100
AcDbEntity
  8
3
  6
Continuous
 62
     4
100
AcDbLine
 10
141.856707
 20
235.810765
 30
0.3
 11
141.856707
 21
260.710765
 31
0.3
  0
LINE
  5
34E
330
20
100
AcDbEntity
  8
3
  6
Continuous
 62
     4
100
AcDbLine
 10
141.856707
 20
259.710765
 30
0.0
 11
144.271521566
 21
259.063717387
 31
0.0
  0
LINE
  5
34F
330
20
100
AcDbEntity
  8
3
  6
Continuous
 62
     4
100
AcDbLine
 10
141.856707
 20
259.710765
 30
0.0
 11
144.271521566
 21
260.3578126129999
 31
0.0
  0
LINE
  5
350
330
20
100
AcDbEntity
  8
3
  6
Continuous
 62
     4
100
AcDbLine
 10
141.856707
 20
259.710765
 30
0.0
 11
171.856707
 21
259.710765
 31
0.0
  0
LINE
  5
351
330
20
100
AcDbEntity
  8
3
  6
Continuous
 62
     4
100
AcDbLine
 10
171.856707
 20
259.710765
 30
0.0
 11
169.441892434
 21
260.3578126129999
 31
0.0
  0
LINE
  5
352
330
20
100
AcDbEntity
  8
3
  6
Continuous
 62
     4
100
AcDbLine
 10
171.856707
 20
259.710765
 30
0.0
 11
169.441892434
 21
259.063717387
 31
0.0
  0
LINE
  5
353
330
20
100
AcDbEntity
  8
3
  6
Continuous
 62
     4
100
AcDbLine
 10
171.856707
 20
235.810765
 30
0.0
 11
171.856707
 21
260.710765
 31
0.0
  0
LINE
  5
354
330
20
100
AcDbEntity
  8
3
  6
Continuous
 62
     4
100
AcDbLine
 10
172.856707
 20
234.810765
 30
0.0
 11
186.156707
 21
234.810765
 31
0.0
  0
LINE
  5
355
330
20
100
AcDbEntity
  8
3
  6
Continuous
 62
     4
100
AcDbLine
 10
185.156707
 20
234.810765
 30
0.0
 11
184.509659387
 21
232.395950434
 31
0.0
  0
LINE
  5
356
330
20
100
AcDbEntity
  8
3
  6
Continuous
 62
     4
100
AcDbLine
 10
185.156707
 20
234.810765
 30
0.0
 11
185.803754613
 21
232.395950434
 31
0.0
  0
LINE
  5
357
330
20
100
AcDbEntity
  8
3
  6
Continuous
 62
     4
100
AcDbLine
 10
185.156707
 20
234.810765
 30
0.0
 11
185.156707
 21
134.810765
 31
0.0
  0
LINE
  5
358
330
20
100
AcDbEntity
  8
3
  6
Continuous
 62
     4
100
AcDbLine
 10
185.156707
 20
134.810765
 30
0.0
 11
185.803754613
 21
137.225579566
 31
0.0
  0
LINE
  5
359
330
20
100
AcDbEntity
  8
3
  6
Continuous
 62
     4
100
AcDbLine
 10
185.156707
 20
134.810765
 30
0.0
 11
184.509659387
 21
137.225579566
 31
0.0
  0
LINE
  5
35A
330
20
100
AcDbEntity
  8
3
  6
Continuous
 62
     4
100
AcDbLine
 10
172.856707
 20
134.810765
 30
0.0
 11
186.156707
 21
134.810765
 31
0.0
  0
TEXT
  5
35B
330
20
100
AcDbEntity
  8
3
  6
Continuous
 62
     4
100
AcDbText
 10
184.156707
 20
178.510765
 30
0.3
 40
4.0
  1
１００
 50
90.0
  7
KANJI8
100
AcDbText
  0
LINE
  5
35C
330
20
100
AcDbEntity
  8
3
  6
Continuous
 62
     4
100
AcDbLine
 10
159.556707
 20
247.110765
 30
0.3
 11
160.912886628
 21
249.210949948
 31
0.3
  0
LINE
  5
35D
330
20
100
AcDbEntity
  8
3
  6
Continuous
 62
     4
100
AcDbLine
 10
159.556707
 20
247.110765
 30
0.0
 11
159.681100536
 21
249.607668332
 31
0.0
  0
LINE
  5
35E
330
20
100
AcDbEntity
  8
3
  6
Continuous
 62
     4
100
AcDbLine
 10
159.556707
 20
247.110765
 30
0.0
 11
175.756707
 21
297.410765
 31
0.0
  0
TEXT
  5
35F
330
20
100
AcDbEntity
  8
3
  6
Continuous
 62
     4
100
AcDbText
 10
152.706707
 20
260.710765
 30
0.3
 40
5.0
  1
３０
  7
KANJI9
100
AcDbText
  0
TEXT
  5
360
330
20
100
AcDbEntity
  8
3
  6
Continuous
 62
     4
100
AcDbText
 10
175.756707
 20
298.410765
 30
0.3
 40
5.0
  1
φ４－８
  7
KANJI9
100
AcDbText
  0
LINE
  5
361
330
20
100
AcDbEntity
  8
3
  6
Continuous
 62
     4
100
AcDbLine
 10
175.756707
 20
297.410765
 30
0.3
 11
197.156707
 21
297.410765
 31
0.3
  0
LINE
  5
362
330
20
100
AcDbEntity
  8
3
  6
Continuous
 62
     4
100
AcDbLine
 10
93.156707
 20
134.310765
 30
0.0
 11
108.256707
 21
134.310765
 31
0.0
  0
LINE
  5
363
330
20
100
AcDbEntity
  8
3
  6
Continuous
 62
     4
100
AcDbLine
 10
107.256707
 20
134.310765
 30
0.0
 11
107.903754613
 21
136.725579566
 31
0.0
  0
LINE
  5
364
330
20
100
AcDbEntity
  8
3
  6
Continuous
 62
     4
100
AcDbLine
 10
107.256707
 20
134.310765
 30
0.0
 11
106.609659387
 21
136.725579566
 31
0.0
  0
LINE
  5
365
330
20
100
AcDbEntity
  8
3
  6
Continuous
 62
     4
100
AcDbLine
 10
107.256707
 20
134.310765
 30
0.0
 11
107.256707
 21
235.310765
 31
0.0
  0
LINE
  5
366
330
20
100
AcDbEntity
  8
3
  6
Continuous
 62
     4
100
AcDbLine
 10
107.256707
 20
235.310765
 30
0.0
 11
106.609659387
 21
232.895950434
 31
0.0
  0
LINE
  5
367
330
20
100
AcDbEntity
  8
3
  6
Continuous
 62
     4
100
AcDbLine
 10
107.256707
 20
235.310765
 30
0.0
 11
107.903754613
 21
232.895950434
 31
0.0
  0
LINE
  5
368
330
20
100
AcDbEntity
  8
3
  6
Continuous
 62
     4
100
AcDbLine
 10
93.156707
 20
235.310765
 30
0.0
 11
108.256707
 21
235.310765
 31
0.0
  0
TEXT
  5
369
330
20
100
AcDbEntity
  8
3
  6
Continuous
 62
     4
100
AcDbText
 10
106.256707
 20
178.510765
 30
0.3
 40
4.0
  1
１０１
 50
90.0
  7
KANJI8
100
AcDbText
  0
LINE
  5
36A
330
20
100
AcDbEntity
  8
3
  6
Continuous
 62
     4
100
AcDbLine
 10
102.156707
 20
134.310765
 30
0.3
 11
102.256707
 21
134.310765
 31
0.3
  0
LINE
  5
36B
330
20
100
AcDbEntity
  8
3
  6
Continuous
 62
     4
100
AcDbLine
 10
101.256707
 20
134.310765
 30
0.0
 11
101.903754613
 21
136.725579566
 31
0.0
  0
LINE
  5
36C
330
20
100
AcDbEntity
  8
3
  6
Continuous
 62
     4
100
AcDbLine
 10
101.256707
 20
134.310765
 30
0.0
 11
100.609659387
 21
136.725579566
 31
0.0
  0
LINE
  5
36D
330
20
100
AcDbEntity
  8
3
  6
Continuous
 62
     4
100
AcDbLine
 10
101.256707
 20
138.060765
 30
0.0
 11
101.256707
 21
134.310765
 31
0.0
  0
LWPOLYLINE
  5
36E
330
20
100
AcDbEntity
  8
3
  6
Continuous
 62
     4
100
AcDbPolyline
 90
        3
 70
     0
 43
0.0
 10
101.256707
 20
134.310765
 10
101.256707
 20
124.810765
 10
101.256707
 20
108.460765
  0
LINE
  5
373
330
20
100
AcDbEntity
  8
3
  6
Continuous
 62
     4
100
AcDbLine
 10
101.256707
 20
124.810765
 30
0.0
 11
100.609659387
 21
122.395950434
 31
0.0
  0
LINE
  5
374
330
20
100
AcDbEntity
  8
3
  6
Continuous
 62
     4
100
AcDbLine
 10
101.256707
 20
124.810765
 30
0.0
 11
101.903754613
 21
122.395950434
 31
0.0
  0
LINE
  5
375
330
20
100
AcDbEntity
  8
3
  6
Continuous
 62
     4
100
AcDbLine
 10
79.406707
 20
124.810765
 30
0.0
 11
102.256707
 21
124.810765
 31
0.0
  0
LINE
  5
376
330
20
100
AcDbEntity
  8
3
  6
Continuous
 62
     4
100
AcDbLine
 10
101.409659387
 20
235.310765
 30
0.0
 11
101.709659387
 21
235.310765
 31
0.0
  0
LINE
  5
377
330
20
100
AcDbEntity
  8
3
  6
Continuous
 62
     4
100
AcDbLine
 10
100.709659387
 20
235.310765
 30
0.0
 11
100.062611774
 21
232.895950434
 31
0.0
  0
LINE
  5
378
330
20
100
AcDbEntity
  8
3
  6
Continuous
 62
     4
100
AcDbLine
 10
100.709659387
 20
235.310765
 30
0.0
 11
101.356707
 21
232.895950434
 31
0.0
  0
LINE
  5
379
330
20
100
AcDbEntity
  8
3
  6
Continuous
 62
     4
100
AcDbLine
 10
100.709659387
 20
231.560765
 30
0.0
 11
100.709659387
 21
235.310765
 31
0.0
  0
LWPOLYLINE
  5
37A
330
20
100
AcDbEntity
  8
3
  6
Continuous
 62
     4
100
AcDbPolyline
 90
        3
 70
     0
 43
0.0
 10
100.709659387
 20
235.310765
 10
100.709659387
 20
244.810765
 10
100.709659387
 20
261.160765
  0
LINE
  5
37F
330
20
100
AcDbEntity
  8
3
  6
Continuous
 62
     4
100
AcDbLine
 10
100.709659387
 20
244.810765
 30
0.0
 11
101.356707
 21
247.225579566
 31
0.0
  0
LINE
  5
380
330
20
100
AcDbEntity
  8
3
  6
Continuous
 62
     4
100
AcDbLine
 10
100.709659387
 20
244.810765
 30
0.0
 11
100.062611774
 21
247.225579566
 31
0.0
  0
LINE
  5
381
330
20
100
AcDbEntity
  8
3
  6
Continuous
 62
     4
100
AcDbLine
 10
79.406707
 20
244.810765
 30
0.0
 11
101.709659387
 21
244.810765
 31
0.0
  0
LINE
  5
382
330
20
100
AcDbEntity
  8
3
  6
Continuous
 62
     4
100
AcDbLine
 10
76.65670699999999
 20
247.560765
 30
0.0
 11
76.65670699999999
 21
277.683
 31
0.0
  0
LINE
  5
383
330
20
100
AcDbEntity
  8
3
  6
Continuous
 62
     4
100
AcDbLine
 10
76.65670699999999
 20
276.683
 30
0.0
 11
74.24189243399999
 21
277.330047613
 31
0.0
  0
LINE
  5
384
330
20
100
AcDbEntity
  8
3
  6
Continuous
 62
     4
100
AcDbLine
 10
76.65670699999999
 20
276.683
 30
0.0
 11
74.24189243399999
 21
276.035952387
 31
0.0
  0
LINE
  5
385
330
20
100
AcDbEntity
  8
3
  6
Continuous
 62
     4
100
AcDbLine
 10
76.65670699999999
 20
276.683
 30
0.0
 11
41.756707
 21
276.683
 31
0.0
  0
LINE
  5
386
330
20
100
AcDbEntity
  8
3
  6
Continuous
 62
     4
100
AcDbLine
 10
61.15670699999999
 20
276.683
 30
0.0
 11
63.571521566
 21
276.035952387
 31
0.0
  0
LINE
  5
387
330
20
100
AcDbEntity
  8
3
  6
Continuous
 62
     4
100
AcDbLine
 10
61.15670699999999
 20
276.683
 30
0.0
 11
63.571521566
 21
277.330047613
 31
0.0
  0
LINE
  5
388
330
20
100
AcDbEntity
  8
3
  6
Continuous
 62
     4
100
AcDbLine
 10
61.15670699999999
 20
236.310765
 30
0.0
 11
61.15670699999999
 21
277.683
 31
0.0
  0
LINE
  5
389
330
20
100
AcDbEntity
  8
3
  6
Continuous
 62
     4
100
AcDbLine
 10
76.65670699999999
 20
276.683
 30
0.0
 11
79.071521566
 21
276.035952387
 31
0.0
  0
LINE
  5
38A
330
20
100
AcDbEntity
  8
3
  6
Continuous
 62
     4
100
AcDbLine
 10
76.65670699999999
 20
276.683
 30
0.0
 11
79.071521566
 21
277.330047613
 31
0.0
  0
LINE
  5
38B
330
20
100
AcDbEntity
  8
3
  6
Continuous
 62
     4
100
AcDbLine
 10
92.156707
 20
276.683
 30
0.0
 11
89.74189243399999
 21
277.330047613
 31
0.0
  0
LINE
  5
38C
330
20
100
AcDbEntity
  8
3
  6
Continuous
 62
     4
100
AcDbLine
 10
92.156707
 20
276.683
 30
0.0
 11
89.74189243399999
 21
276.035952387
 31
0.0
  0
LINE
  5
38D
330
20
100
AcDbEntity
  8
3
  6
Continuous
 62
     4
100
AcDbLine
 10
92.156707
 20
236.310765
 30
0.0
 11
92.156707
 21
277.683
 31
0.0
  0
LINE
  5
38E
330
20
100
AcDbEntity
  8
3
  6
Continuous
 62
     4
100
AcDbLine
 10
77.25670699999999
 20
122.9107649999999
 30
0.0
 11
77.177880441
 21
120.412008034
 31
0.0
  0
LINE
  5
38F
330
20
100
AcDbEntity
  8
3
  6
Continuous
 62
     4
100
AcDbLine
 10
77.25670699999999
 20
122.9107649999999
 30
0.0
 11
78.437819681
 21
120.707364711
 31
0.0
  0
LINE
  5
390
330
20
100
AcDbEntity
  8
3
  6
Continuous
 62
     4
100
AcDbLine
 10
77.25670699999999
 20
122.9107649999999
 30
0.0
 11
85.15670699999999
 21
89.21076500000001
 31
0.0
  0
TEXT
  5
391
330
20
100
AcDbEntity
  8
3
  6
Continuous
 62
     4
100
AcDbText
 10
41.756707
 20
277.683
 30
0.3
 40
5.0
  1
１５．５
  7
KANJI9
100
AcDbText
  0
TEXT
  5
392
330
20
100
AcDbEntity
  8
3
  6
Continuous
 62
     4
100
AcDbText
 10
94.656707
 20
277.683
 30
0.3
 40
5.0
  1
１５．５
  7
KANJI9
100
AcDbText
  0
TEXT
  5
393
330
20
100
AcDbEntity
  8
3
  6
Continuous
 62
     4
100
AcDbText
 10
99.709659387
 20
248.560765
 30
0.3
 40
5.0
  1
９．５
 50
90.0
  7
KANJI9
100
AcDbText
  0
TEXT
  5
394
330
20
100
AcDbEntity
  8
3
  6
Continuous
 62
     4
100
AcDbText
 10
100.256707
 20
108.460765
 30
0.3
 40
5.0
  1
９．５
 50
90.0
  7
KANJI9
100
AcDbText
  0
TEXT
  5
395
330
20
100
AcDbEntity
  8
3
  6
Continuous
 62
     4
100
AcDbText
 10
85.15670699999999
 20
90.21076500000001
 30
0.3
 40
5.0
  1
２－φ３．５
  7
KANJI9
100
AcDbText
  0
LINE
  5
396
330
20
100
AcDbEntity
  8
3
  6
Continuous
 62
     4
100
AcDbLine
 10
85.15670699999999
 20
89.21076500000001
 30
0.3
 11
117.756707
 21
89.21076500000001
 31
0.3
  0
LINE
  5
397
330
20
100
AcDbEntity
  8
3
  6
Continuous
 62
     4
100
AcDbLine
 10
76.65670699999999
 20
276.683
 30
0.0
 11
115.456707
 21
276.683
 31
0.0
  0
TEXT
  5
398
330
20
100
AcDbEntity
  8
3
  6
Continuous
 62
     4
100
AcDbText
 10
443.906707
 20
166.560765
 30
0.0
 40
5.099999999999999
  1
＋
  7
KANJI10
100
AcDbText
  0
TEXT
  5
399
330
20
100
AcDbEntity
  8
3
  6
Continuous
 62
     4
100
AcDbText
 10
441.556707
 20
140.110765
 30
0.0
 40
4.599999999999999
  1
－
  7
KANJI11
100
AcDbText
  0
TEXT
  5
39A
330
20
100
AcDbEntity
  8
3
  6
Continuous
 62
     4
100
AcDbText
 10
447.456707
 20
182.410765
 30
2.25
 40
4.9
  1
零調整
  7
KANJI12
100
AcDbText
  0
LINE
  5
39B
330
20
100
AcDbEntity
  8
3
  6
Continuous
 62
     4
100
AcDbLine
 10
436.656707
 20
141.175099639
 30
2.25
 11
435.338523648
 21
139.050860327
 31
2.25
  0
LINE
  5
39C
330
20
100
AcDbEntity
  8
3
  6
Continuous
 62
     4
100
AcDbLine
 10
436.656707
 20
141.175099639
 30
0.0
 11
436.5772463859999
 21
138.676362755
 31
0.0
  0
LINE
  5
39D
330
20
100
AcDbEntity
  8
3
  6
Continuous
 62
     4
100
AcDbLine
 10
436.656707
 20
141.175099639
 30
0.0
 11
428.856707
 21
115.375099639
 31
0.0
  0
TEXT
  5
39E
330
20
100
AcDbEntity
  8
3
  6
Continuous
 62
     4
100
AcDbText
 10
418.256707
 20
116.375099639
 30
0.3
 40
5.0
  1
Ｍ３
  7
KANJI9
100
AcDbText
  0
LINE
  5
39F
330
20
100
AcDbEntity
  8
3
  6
Continuous
 62
     4
100
AcDbLine
 10
428.856707
 20
115.375099639
 30
0.3
 11
417.9715215659999
 21
115.375099639
 31
0.3
  0
LINE
  5
3A0
330
20
100
AcDbEntity
  8
3
  6
Continuous
 62
     4
100
AcDbLine
 10
214.756707
 20
77.510765
 30
0.0
 11
214.756707
 21
90.410765
 31
0.0
  0
LINE
  5
3A1
330
20
100
AcDbEntity
  8
3
  6
Continuous
 62
     4
100
AcDbLine
 10
263.756707
 20
72.010765
 30
0.0
 11
263.756707
 21
90.410765
 31
0.0
  0
LINE
  5
3A2
330
20
100
AcDbEntity
  8
3
  6
Continuous
 62
     4
100
AcDbLine
 10
284.156707
 20
78.51076500000001
 30
0.0
 11
284.756707
 21
78.51076500000001
 31
0.0
  0
LINE
  5
3A3
330
20
100
AcDbEntity
  8
3
  6
Continuous
 62
     4
100
AcDbLine
 10
283.756707
 20
78.51076500000001
 30
0.0
 11
283.109659387
 21
76.095950434
 31
0.0
  0
LINE
  5
3A4
330
20
100
AcDbEntity
  8
3
  6
Continuous
 62
     4
100
AcDbLine
 10
283.756707
 20
78.51076500000001
 30
0.0
 11
284.403754613
 21
76.095950434
 31
0.0
  0
LINE
  5
3A5
330
20
100
AcDbEntity
  8
3
  6
Continuous
 62
     4
100
AcDbLine
 10
283.756707
 20
89.31076500000001
 30
0.0
 11
283.756707
 21
68.51076500000001
 31
0.0
  0
LINE
  5
3A6
330
20
100
AcDbEntity
  8
3
  6
Continuous
 62
     4
100
AcDbLine
 10
283.756707
 20
68.51076500000001
 30
0.0
 11
284.403754613
 21
70.92557956600001
 31
0.0
  0
LINE
  5
3A7
330
20
100
AcDbEntity
  8
3
  6
Continuous
 62
     4
100
AcDbLine
 10
283.756707
 20
68.51076500000001
 30
0.0
 11
283.109659387
 21
70.92557956600001
 31
0.0
  0
LINE
  5
3A8
330
20
100
AcDbEntity
  8
3
  6
Continuous
 62
     4
100
AcDbLine
 10
266.256707
 20
68.51076500000001
 30
0.0
 11
284.756707
 21
68.51076500000001
 31
0.0
  0
LINE
  5
3A9
330
20
100
AcDbEntity
  8
3
  6
Continuous
 62
     4
100
AcDbLine
 10
283.756707
 20
68.51076500000001
 30
0.0
 11
283.109659387
 21
66.095950434
 31
0.0
  0
LINE
  5
3AA
330
20
100
AcDbEntity
  8
3
  6
Continuous
 62
     4
100
AcDbLine
 10
283.756707
 20
68.51076500000001
 30
0.0
 11
284.403754613
 21
66.095950434
 31
0.0
  0
LWPOLYLINE
  5
3AB
330
20
100
AcDbEntity
  8
3
  6
Continuous
 62
     4
100
AcDbPolyline
 90
        3
 70
     0
 43
0.0
 10
283.756707
 20
68.51076500000001
 10
283.756707
 20
58.510765
 10
284.403754613
 20
60.925579566
  0
LINE
  5
3B0
330
20
100
AcDbEntity
  8
3
  6
Continuous
 62
     4
100
AcDbLine
 10
283.756707
 20
58.510765
 30
0.0
 11
283.109659387
 21
60.925579566
 31
0.0
  0
LINE
  5
3B1
330
20
100
AcDbEntity
  8
3
  6
Continuous
 62
     4
100
AcDbLine
 10
266.256707
 20
58.510765
 30
0.0
 11
284.756707
 21
58.510765
 31
0.0
  0
LINE
  5
3B2
330
20
100
AcDbEntity
  8
3
  6
Continuous
 62
     4
100
AcDbLine
 10
283.756707
 20
58.510765
 30
0.0
 11
283.109659387
 21
56.09595043399999
 31
0.0
  0
LINE
  5
3B3
330
20
100
AcDbEntity
  8
3
  6
Continuous
 62
     4
100
AcDbLine
 10
283.756707
 20
58.510765
 30
0.0
 11
284.403754613
 21
56.09595043399999
 31
0.0
  0
LWPOLYLINE
  5
3B4
330
20
100
AcDbEntity
  8
3
  6
Continuous
 62
     4
100
AcDbPolyline
 90
        3
 70
     0
 43
0.0
 10
283.756707
 20
58.510765
 10
283.756707
 20
48.510765
 10
284.403754613
 20
50.925579566
  0
LINE
  5
3B9
330
20
100
AcDbEntity
  8
3
  6
Continuous
 62
     4
100
AcDbLine
 10
283.756707
 20
48.510765
 30
0.0
 11
283.109659387
 21
50.925579566
 31
0.0
  0
LINE
  5
3BA
330
20
100
AcDbEntity
  8
3
  6
Continuous
 62
     4
100
AcDbLine
 10
284.056707
 20
48.510765
 30
0.0
 11
284.756707
 21
48.510765
 31
0.0
  0
LINE
  5
3BB
330
20
100
AcDbEntity
  8
3
  6
Continuous
 62
     4
100
AcDbLine
 10
264.856707
 20
69.810765
 30
0.0
 11
266.383354729
 21
71.79049899999999
 31
0.0
  0
LINE
  5
3BC
330
20
100
AcDbEntity
  8
3
  6
Continuous
 62
     4
100
AcDbLine
 10
264.856707
 20
69.810765
 30
0.0
 11
265.188955716
 21
72.288588801
 31
0.0
  0
LINE
  5
3BD
330
20
100
AcDbEntity
  8
3
  6
Continuous
 62
     4
100
AcDbLine
 10
264.856707
 20
69.810765
 30
0.0
 11
274.656707
 21
93.31076499999999
 31
0.0
  0
TEXT
  5
3BE
330
20
100
AcDbEntity
  8
3
  6
Continuous
 62
     4
100
AcDbText
 10
282.756707
 20
81.01076500000001
 30
0.3
 40
5.0
  1
１０
 50
90.0
  7
KANJI9
100
AcDbText
  0
TEXT
  5
3BF
330
20
100
AcDbEntity
  8
3
  6
Continuous
 62
     4
100
AcDbText
 10
282.756707
 20
58.16076500000001
 30
0.3
 40
5.0
  1
１０
 50
90.0
  7
KANJI9
100
AcDbText
  0
TEXT
  5
3C0
330
20
100
AcDbEntity
  8
3
  6
Continuous
 62
     4
100
AcDbText
 10
282.856707
 20
48.16076500000001
 30
0.3
 40
5.0
  1
１０
 50
90.0
  7
KANJI9
100
AcDbText
  0
LINE
  5
3C1
330
20
100
AcDbEntity
  8
3
  6
Continuous
 62
     4
100
AcDbLine
 10
214.756707
 20
89.41076499999999
 30
0.3
 11
217.171521566
 21
88.76371738700001
 31
0.3
  0
LINE
  5
3C2
330
20
100
AcDbEntity
  8
3
  6
Continuous
 62
     4
100
AcDbLine
 10
214.756707
 20
89.41076499999999
 30
0.0
 11
217.171521566
 21
90.05781261299999
 31
0.0
  0
LINE
  5
3C3
330
20
100
AcDbEntity
  8
3
  6
Continuous
 62
     4
100
AcDbLine
 10
214.756707
 20
89.41076499999999
 30
0.0
 11
263.756707
 21
89.41076499999999
 31
0.0
  0
LINE
  5
3C4
330
20
100
AcDbEntity
  8
3
  6
Continuous
 62
     4
100
AcDbLine
 10
263.756707
 20
89.41076499999999
 30
0.0
 11
261.341892434
 21
90.05781261299999
 31
0.0
  0
LINE
  5
3C5
330
20
100
AcDbEntity
  8
3
  6
Continuous
 62
     4
100
AcDbLine
 10
263.756707
 20
89.41076499999999
 30
0.0
 11
261.341892434
 21
88.76371738700001
 31
0.0
  0
TEXT
  5
3C6
330
20
100
AcDbEntity
  8
3
  6
Continuous
 62
     4
100
AcDbText
 10
242.206707
 20
90.610765
 30
0.3
 40
5.0
  1
４９
  7
KANJI9
100
AcDbText
  0
TEXT
  5
3C7
330
20
100
AcDbEntity
  8
3
  6
Continuous
 62
     4
100
AcDbText
 10
274.656707
 20
94.31076500000001
 30
0.3
 40
5.0
  1
４－Ｍ３タップ
  7
KANJI9
100
AcDbText
  0
LINE
  5
3C8
330
20
100
AcDbEntity
  8
3
  6
Continuous
 62
     4
100
AcDbLine
 10
274.656707
 20
93.31076499999999
 30
0.3
 11
312.356707
 21
93.31076499999999
 31
0.3
  0
LINE
  5
3C9
330
20
100
AcDbEntity
  8
3
  6
Continuous
 62
     4
100
AcDbLine
 10
409.9567069999999
 20
316.310765
 30
0.0
 11
409.9567069999999
 21
305.310765
 31
0.0
  0
LINE
  5
3CA
330
20
100
AcDbEntity
  8
3
  6
Continuous
 62
     4
100
AcDbLine
 10
409.9567069999999
 20
306.310765
 30
0.0
 11
412.3715215659999
 21
305.663717387
 31
0.0
  0
LINE
  5
3CB
330
20
100
AcDbEntity
  8
3
  6
Continuous
 62
     4
100
AcDbLine
 10
409.9567069999999
 20
306.310765
 30
0.0
 11
412.3715215659999
 21
306.957812613
 31
0.0
  0
LINE
  5
3CC
330
20
100
AcDbEntity
  8
3
  6
Continuous
 62
     4
100
AcDbLine
 10
409.9567069999999
 20
306.310765
 30
0.0
 11
449.956707
 21
306.310765
 31
0.0
  0
LINE
  5
3CD
330
20
100
AcDbEntity
  8
3
  6
Continuous
 62
     4
100
AcDbLine
 10
449.956707
 20
306.310765
 30
0.0
 11
447.541892434
 21
306.957812613
 31
0.0
  0
LINE
  5
3CE
330
20
100
AcDbEntity
  8
3
  6
Continuous
 62
     4
100
AcDbLine
 10
449.956707
 20
306.310765
 30
0.0
 11
447.541892434
 21
305.663717387
 31
0.0
  0
LINE
  5
3CF
330
20
100
AcDbEntity
  8
3
  6
Continuous
 62
     4
100
AcDbLine
 10
449.956707
 20
316.310765
 30
0.0
 11
449.956707
 21
305.310765
 31
0.0
  0
LINE
  5
3D0
330
20
100
AcDbEntity
  8
3
  6
Continuous
 62
     4
100
AcDbLine
 10
450.9567070000001
 20
347.310765
 30
0.0
 11
468.756707
 21
347.310765
 31
0.0
  0
LINE
  5
3D1
330
20
100
AcDbEntity
  8
3
  6
Continuous
 62
     4
100
AcDbLine
 10
467.756707
 20
347.310765
 30
0.0
 11
467.1096593869999
 21
344.895950434
 31
0.0
  0
LINE
  5
3D2
330
20
100
AcDbEntity
  8
3
  6
Continuous
 62
     4
100
AcDbLine
 10
467.756707
 20
347.310765
 30
0.0
 11
468.403754613
 21
344.895950434
 31
0.0
  0
LINE
  5
3D3
330
20
100
AcDbEntity
  8
3
  6
Continuous
 62
     4
100
AcDbLine
 10
467.756707
 20
347.310765
 30
0.0
 11
467.756707
 21
317.310765
 31
0.0
  0
LINE
  5
3D4
330
20
100
AcDbEntity
  8
3
  6
Continuous
 62
     4
100
AcDbLine
 10
467.756707
 20
317.310765
 30
0.0
 11
468.403754613
 21
319.725579566
 31
0.0
  0
LINE
  5
3D5
330
20
100
AcDbEntity
  8
3
  6
Continuous
 62
     4
100
AcDbLine
 10
467.756707
 20
317.310765
 30
0.0
 11
467.1096593869999
 21
319.725579566
 31
0.0
  0
LINE
  5
3D6
330
20
100
AcDbEntity
  8
3
  6
Continuous
 62
     4
100
AcDbLine
 10
450.9567070000001
 20
317.310765
 30
0.0
 11
468.756707
 21
317.310765
 31
0.0
  0
LINE
  5
3D7
330
20
100
AcDbEntity
  8
3
  6
Continuous
 62
     4
100
AcDbLine
 10
345.256707
 20
373.610765
 30
0.0
 11
325.956707
 21
373.610765
 31
0.0
  0
LINE
  5
3D8
330
20
100
AcDbEntity
  8
3
  6
Continuous
 62
     4
100
AcDbLine
 10
326.956707
 20
373.610765
 30
0.0
 11
326.309659387
 21
371.195950434
 31
0.0
  0
LINE
  5
3D9
330
20
100
AcDbEntity
  8
3
  6
Continuous
 62
     4
100
AcDbLine
 10
326.956707
 20
373.610765
 30
0.0
 11
327.603754613
 21
371.195950434
 31
0.0
  0
LINE
  5
3DA
330
20
100
AcDbEntity
  8
3
  6
Continuous
 62
     4
100
AcDbLine
 10
326.956707
 20
373.610765
 30
0.0
 11
326.956707
 21
358.610765
 31
0.0
  0
LINE
  5
3DB
330
20
100
AcDbEntity
  8
3
  6
Continuous
 62
     4
100
AcDbLine
 10
326.956707
 20
358.610765
 30
0.0
 11
327.603754613
 21
361.025579566
 31
0.0
  0
LINE
  5
3DC
330
20
100
AcDbEntity
  8
3
  6
Continuous
 62
     4
100
AcDbLine
 10
326.956707
 20
358.610765
 30
0.0
 11
326.309659387
 21
361.025579566
 31
0.0
  0
LINE
  5
3DD
330
20
100
AcDbEntity
  8
3
  6
Continuous
 62
     4
100
AcDbLine
 10
345.256707
 20
358.610765
 30
0.0
 11
325.956707
 21
358.610765
 31
0.0
  0
TEXT
  5
3DE
330
20
100
AcDbEntity
  8
3
  6
Continuous
 62
     4
100
AcDbText
 10
325.956707
 20
361.960765
 30
0.3
 40
4.0
  1
１５
 50
90.0
  7
KANJI8
100
AcDbText
  0
LINE
  5
3DF
330
20
100
AcDbEntity
  8
3
  6
Continuous
 62
     4
100
AcDbLine
 10
450.9567070000001
 20
373.610765
 30
0.3
 11
468.756707
 21
373.610765
 31
0.3
  0
LINE
  5
3E0
330
20
100
AcDbEntity
  8
3
  6
Continuous
 62
     4
100
AcDbLine
 10
467.756707
 20
373.610765
 30
0.0
 11
468.403754613
 21
376.025579566
 31
0.0
  0
LINE
  5
3E1
330
20
100
AcDbEntity
  8
3
  6
Continuous
 62
     4
100
AcDbLine
 10
467.756707
 20
373.610765
 30
0.0
 11
467.1096593869999
 21
376.025579566
 31
0.0
  0
LINE
  5
3E2
330
20
100
AcDbEntity
  8
3
  6
Continuous
 62
     4
100
AcDbLine
 10
467.756707
 20
377.360765
 30
0.0
 11
467.756707
 21
373.610765
 31
0.0
  0
LWPOLYLINE
  5
3E3
330
20
100
AcDbEntity
  8
3
  6
Continuous
 62
     4
100
AcDbPolyline
 90
        3
 70
     0
 43
0.0
 10
467.756707
 20
373.610765
 10
467.756707
 20
372.410765
 10
467.756707
 20
356.060765
  0
LINE
  5
3E8
330
20
100
AcDbEntity
  8
3
  6
Continuous
 62
     4
100
AcDbLine
 10
467.756707
 20
372.410765
 30
0.0
 11
467.1096593869999
 21
369.995950434
 31
0.0
  0
LINE
  5
3E9
330
20
100
AcDbEntity
  8
3
  6
Continuous
 62
     4
100
AcDbLine
 10
467.756707
 20
372.410765
 30
0.0
 11
468.403754613
 21
369.995950434
 31
0.0
  0
LINE
  5
3EA
330
20
100
AcDbEntity
  8
3
  6
Continuous
 62
     4
100
AcDbLine
 10
450.9567070000001
 20
372.410765
 30
0.0
 11
468.756707
 21
372.410765
 31
0.0
  0
TEXT
  5
3EB
330
20
100
AcDbEntity
  8
3
  6
Continuous
 62
     4
100
AcDbText
 10
425.806707
 20
307.310765
 30
0.3
 40
5.0
  1
４０
  7
KANJI9
100
AcDbText
  0
TEXT
  5
3EC
330
20
100
AcDbEntity
  8
3
  6
Continuous
 62
     4
100
AcDbText
 10
466.756707
 20
328.160765
 30
0.3
 40
5.0
  1
３０
 50
90.0
  7
KANJI9
100
AcDbText
  0
TEXT
  5
3ED
330
20
100
AcDbEntity
  8
3
  6
Continuous
 62
     4
100
AcDbText
 10
466.756707
 20
356.060765
 30
0.3
 40
5.0
  1
１．２
 50
90.0
  7
KANJI9
100
AcDbText
  0
TEXT
  5
3EE
330
20
100
AcDbEntity
  8
3
  6
Continuous
 62
     4
100
AcDbText
 10
334.716707
 20
330.990765
 30
0.0
 40
6.08
  1
パネル取付金具
 41
0.954887218
  7
KANJI13
100
AcDbText
  0
TEXT
  5
3EF
330
20
100
AcDbEntity
  8
3
  6
Continuous
 62
     4
100
AcDbText
 10
79.31670699999999
 20
347.917447
 30
0.0
 40
8.039999999999999
  1
形　名　　：　ＮＲＥ－１００ＡＨＬ
 41
0.7174129350000001
  7
KANJI14
100
AcDbText
  0
ENDSEC
  0
SECTION
  2
OBJECTS
  0
DICTIONARY
  5
C
330
0
100
AcDbDictionary
281
     1
  3
ACAD_COLOR
350
1B
  3
ACAD_GROUP
350
D
  3
ACAD_LAYOUT
350
19
  3
ACAD_MATERIAL
350
1A
  3
ACAD_MLINESTYLE
350
16
  3
ACAD_PLOTSETTINGS
350
18
  3
ACAD_PLOTSTYLENAME
350
E
  3
ACDBHEADERROUNDTRIPXREC
350
3F6
  3
AcDbVariableDictionary
350
3F2
  0
DICTIONARY
  5
1B
102
{ACAD_REACTORS
330
C
102
}
330
C
100
AcDbDictionary
281
     1
  0
DICTIONARY
  5
D
102
{ACAD_REACTORS
330
C
102
}
330
C
100
AcDbDictionary
281
     1
  0
DICTIONARY
  5
19
102
{ACAD_REACTORS
330
C
102
}
330
C
100
AcDbDictionary
281
     1
  3
Model
350
23
  3
レイアウト1
350
1F
  0
DICTIONARY
  5
1A
102
{ACAD_REACTORS
330
C
102
}
330
C
100
AcDbDictionary
281
     1
  0
DICTIONARY
  5
16
102
{ACAD_REACTORS
330
C
102
}
330
C
100
AcDbDictionary
281
     1
  3
Standard
350
17
  0
DICTIONARY
  5
18
102
{ACAD_REACTORS
330
C
102
}
330
C
100
AcDbDictionary
281
     1
  0
ACDBDICTIONARYWDFLT
  5
E
102
{ACAD_REACTORS
330
C
102
}
330
C
100
AcDbDictionary
281
     1
  3
Normal
350
F
100
AcDbDictionaryWithDefault
340
F
  0
DICTIONARY
  5
3F6
102
{ACAD_REACTORS
330
C
102
}
330
C
100
AcDbDictionary
281
     1
  3
COLORDICT
350
3F8
  3
MATERIALDICT
350
3F7
  0
DICTIONARY
  5
3F2
102
{ACAD_REACTORS
330
C
102
}
330
C
100
AcDbDictionary
281
     1
  3
DIMASSOC
350
3F3
  3
PROJECTNAME
350
3F4
  0
LAYOUT
  5
23
102
{ACAD_XDICTIONARY
360
3FB
102
}
102
{ACAD_REACTORS
330
19
102
}
330
19
100
AcDbPlotSettings
  1

  2
hp psc 2500 series
  4

  6

 40
0.0
 41
0.0
 42
0.0
 43
0.0
 44
0.0
 45
0.0
 46
0.0
 47
0.0
 48
0.0
 49
0.0
140
0.0
141
0.0
142
1.0
143
1.0
 70
  1712
 72
     0
 73
     0
 74
     0
  7

 75
     0
147
1.0
148
0.0
149
0.0
100
AcDbLayout
  1
Model
 70
     1
 71
     0
 10
0.0
 20
0.0
 11
12.0
 21
9.0
 12
0.0
 22
0.0
 32
0.0
 14
0.0
 24
0.0
 34
0.0
 15
0.0
 25
0.0
 35
0.0
146
0.0
 13
0.0
 23
0.0
 33
0.0
 16
1.0
 26
0.0
 36
0.0
 17
0.0
 27
1.0
 37
0.0
 76
     0
330
20
  0
LAYOUT
  5
1F
102
{ACAD_XDICTIONARY
360
3F9
102
}
102
{ACAD_REACTORS
330
19
102
}
330
19
100
AcDbPlotSettings
  1

  2
hp psc 2500 series
  4

  6

 40
0.0
 41
0.0
 42
0.0
 43
0.0
 44
0.0
 45
0.0
 46
0.0
 47
0.0
 48
0.0
 49
0.0
140
0.0
141
0.0
142
1.0
143
1.0
 70
   688
 72
     0
 73
     0
 74
     5
  7

 75
    16
147
1.0
148
0.0
149
0.0
100
AcDbLayout
  1
レイアウト1
 70
     1
 71
     1
 10
0.0
 20
0.0
 11
12.0
 21
9.0
 12
0.0
 22
0.0
 32
0.0
 14
1.000000000000000E+20
 24
1.000000000000000E+20
 34
1.000000000000000E+20
 15
-1.000000000000000E+20
 25
-1.000000000000000E+20
 35
-1.000000000000000E+20
146
0.0
 13
0.0
 23
0.0
 33
0.0
 16
1.0
 26
0.0
 36
0.0
 17
0.0
 27
1.0
 37
0.0
 76
     0
330
1C
  0
MLINESTYLE
  5
17
102
{ACAD_REACTORS
330
16
102
}
330
16
100
AcDbMlineStyle
  2
STANDARD
 70
     0
  3

 62
   256
 51
90.0
 52
90.0
 71
     2
 49
0.5
 62
   256
  6
BYLAYER
 49
-0.5
 62
   256
  6
BYLAYER
  0
ACDBPLACEHOLDER
  5
F
102
{ACAD_REACTORS
330
E
102
}
330
E
  0
XRECORD
  5
3F8
102
{ACAD_REACTORS
330
3F6
102
}
330
3F6
100
AcDbXrecord
280
     1
340
1B
  0
XRECORD
  5
3F7
102
{ACAD_REACTORS
330
3F6
102
}
330
3F6
100
AcDbXrecord
280
     1
340
1A
  0
DICTIONARYVAR
  5
3F3
102
{ACAD_REACTORS
330
3F2
102
}
330
3F2
100
DictionaryVariables
280
     0
  1
1
  0
DICTIONARYVAR
  5
3F4
102
{ACAD_REACTORS
330
3F2
102
}
330
3F2
100
DictionaryVariables
280
     0
  1

  0
DICTIONARY
  5
3FB
330
23
100
AcDbDictionary
280
     1
281
     1
  3
ACAD_XREC_ROUNDTRIP
360
3FC
  0
DICTIONARY
  5
3F9
330
1F
100
AcDbDictionary
280
     1
281
     1
  3
ACAD_XREC_ROUNDTRIP
360
3FA
  0
XRECORD
  5
3FC
102
{ACAD_REACTORS
330
3FB
102
}
330
3FB
100
AcDbXrecord
280
     1
102
SHADEPLOT
 70
     0
102
SHADEPLOTRESLEVEL
 70
     2
102
SHADEPLOTCUSTOMDPI
 70
   300
  0
XRECORD
  5
3FA
102
{ACAD_REACTORS
330
3F9
102
}
330
3F9
100
AcDbXrecord
280
     1
102
SHADEPLOT
 70
     0
102
SHADEPLOTRESLEVEL
 70
     2
102
SHADEPLOTCUSTOMDPI
 70
   300
  0
ENDSEC
  0
EOF
